  0
SECTION
  2
HEADER
  9
$ACADVER
  1
AC1015
  9
$ACADMAINTVER
 70
     6
  9
$DWGCODEPAGE
  3
ANSI_1252
  9
$INSBASE
 10
0.0
 20
0.0
 30
0.0
  9
$EXTMIN
 10
0.0
 20
0.0
 30
0.0
  9
$EXTMAX
 10
8.5
 20
11.0
 30
0.0
  9
$LIMMIN
 10
0.0
 20
0.0
  9
$LIMMAX
 10
8.5
 20
11.0
  9
$ORTHOMODE
 70
     0
  9
$REGENMODE
 70
     1
  9
$FILLMODE
 70
     1
  9
$QTEXTMODE
 70
     0
  9
$MIRRTEXT
 70
     1
  9
$LTSCALE
 40
1.0
  9
$ATTMODE
 70
     1
  9
$TEXTSIZE
 40
0.1388888889
  9
$TRACEWID
 40
0.05
  9
$TEXTSTYLE
  7
Standard
  9
$CLAYER
  8
0
  9
$CELTYPE
  6
ByLayer
  9
$CECOLOR
 62
   256
  9
$CELTSCALE
 40
1.0
  9
$DISPSILH
 70
     0
  9
$DIMSCALE
 40
1.0
  9
$DIMASZ
 40
0.13
  9
$DIMEXO
 40
0.05
  9
$DIMDLI
 40
0.38
  9
$DIMRND
 40
0.0
  9
$DIMDLE
 40
0.0
  9
$DIMEXE
 40
0.125
  9
$DIMTP
 40
0.0
  9
$DIMTM
 40
0.0
  9
$DIMTXT
 40
0.125
  9
$DIMCEN
 40
0.09
  9
$DIMTSZ
 40
0.0
  9
$DIMTOL
 70
     0
  9
$DIMLIM
 70
     0
  9
$DIMTIH
 70
     1
  9
$DIMTOH
 70
     1
  9
$DIMSE1
 70
     0
  9
$DIMSE2
 70
     0
  9
$DIMTAD
 70
     1
  9
$DIMZIN
 70
     0
  9
$DIMBLK
  1

  9
$DIMASO
 70
     1
  9
$DIMSHO
 70
     1
  9
$DIMPOST
  1

  9
$DIMAPOST
  1

  9
$DIMALT
 70
     0
  9
$DIMALTD
 70
     2
  9
$DIMALTF
 40
25.4
  9
$DIMLFAC
 40
4.0
  9
$DIMTOFL
 70
     0
  9
$DIMTVP
 40
0.0
  9
$DIMTIX
 70
     0
  9
$DIMSOXD
 70
     0
  9
$DIMSAH
 70
     0
  9
$DIMBLK1
  1

  9
$DIMBLK2
  1

  9
$DIMSTYLE
  2
Standard
  9
$DIMCLRD
 70
     0
  9
$DIMCLRE
 70
     0
  9
$DIMCLRT
 70
     0
  9
$DIMTFAC
 40
1.0
  9
$DIMGAP
 40
0.06
  9
$DIMJUST
 70
     0
  9
$DIMSD1
 70
     0
  9
$DIMSD2
 70
     0
  9
$DIMTOLJ
 70
     1
  9
$DIMTZIN
 70
     0
  9
$DIMALTZ
 70
     0
  9
$DIMALTTZ
 70
     0
  9
$DIMUPT
 70
     0
  9
$DIMDEC
 70
     3
  9
$DIMTDEC
 70
     3
  9
$DIMALTU
 70
     2
  9
$DIMALTTD
 70
     2
  9
$DIMTXSTY
  7
Standard
  9
$DIMAUNIT
 70
     0
  9
$DIMADEC
 70
     2
  9
$DIMALTRND
 40
0.0
  9
$DIMAZIN
 70
     0
  9
$DIMDSEP
 70
    46
  9
$DIMATFIT
 70
     3
  9
$DIMFRAC
 70
     0
  9
$DIMLDRBLK
  1

  9
$DIMLUNIT
 70
     2
  9
$DIMLWD
 70
    -2
  9
$DIMLWE
 70
    -2
  9
$DIMTMOVE
 70
     0
  9
$LUNITS
 70
     2
  9
$LUPREC
 70
     3
  9
$SKETCHINC
 40
0.1
  9
$FILLETRAD
 40
0.5
  9
$AUNITS
 70
     0
  9
$AUPREC
 70
     2
  9
$MENU
  1
.
  9
$ELEVATION
 40
0.0
  9
$PELEVATION
 40
0.0
  9
$THICKNESS
 40
0.0
  9
$LIMCHECK
 70
     0
  9
$CHAMFERA
 40
0.0
  9
$CHAMFERB
 40
0.0
  9
$CHAMFERC
 40
0.0
  9
$CHAMFERD
 40
0.0
  9
$SKPOLY
 70
     0
  9
$TDCREATE
 40
2457308.612604896
  9
$TDUCREATE
 40
2457308.820938229
  9
$TDUPDATE
 40
2457308.612609768
  9
$TDUUPDATE
 40
2457308.820943102
  9
$TDINDWG
 40
0.0000000116
  9
$TDUSRTIMER
 40
0.0000000116
  9
$USRTIMER
 70
     1
  9
$ANGBASE
 50
0.0
  9
$ANGDIR
 70
     0
  9
$PDMODE
 70
     0
  9
$PDSIZE
 40
-1.0
  9
$PLINEWID
 40
0.0
  9
$SPLFRAME
 70
     0
  9
$SPLINETYPE
 70
     6
  9
$SPLINESEGS
 70
     8
  9
$HANDSEED
  5
295
  9
$SURFTAB1
 70
     6
  9
$SURFTAB2
 70
     6
  9
$SURFTYPE
 70
     6
  9
$SURFU
 70
     6
  9
$SURFV
 70
     6
  9
$UCSBASE
  2

  9
$UCSNAME
  2

  9
$UCSORG
 10
0.0
 20
0.0
 30
0.0
  9
$UCSXDIR
 10
1.0
 20
0.0
 30
0.0
  9
$UCSYDIR
 10
0.0
 20
1.0
 30
0.0
  9
$UCSORTHOREF
  2

  9
$UCSORTHOVIEW
 70
     0
  9
$UCSORGTOP
 10
0.0
 20
0.0
 30
0.0
  9
$UCSORGBOTTOM
 10
0.0
 20
0.0
 30
0.0
  9
$UCSORGLEFT
 10
0.0
 20
0.0
 30
0.0
  9
$UCSORGRIGHT
 10
0.0
 20
0.0
 30
0.0
  9
$UCSORGFRONT
 10
0.0
 20
0.0
 30
0.0
  9
$UCSORGBACK
 10
0.0
 20
0.0
 30
0.0
  9
$PUCSBASE
  2

  9
$PUCSNAME
  2

  9
$PUCSORG
 10
0.0
 20
0.0
 30
0.0
  9
$PUCSXDIR
 10
1.0
 20
0.0
 30
0.0
  9
$PUCSYDIR
 10
0.0
 20
1.0
 30
0.0
  9
$PUCSORTHOREF
  2

  9
$PUCSORTHOVIEW
 70
     0
  9
$PUCSORGTOP
 10
0.0
 20
0.0
 30
0.0
  9
$PUCSORGBOTTOM
 10
0.0
 20
0.0
 30
0.0
  9
$PUCSORGLEFT
 10
0.0
 20
0.0
 30
0.0
  9
$PUCSORGRIGHT
 10
0.0
 20
0.0
 30
0.0
  9
$PUCSORGFRONT
 10
0.0
 20
0.0
 30
0.0
  9
$PUCSORGBACK
 10
0.0
 20
0.0
 30
0.0
  9
$USERI1
 70
     0
  9
$USERI2
 70
     0
  9
$USERI3
 70
     0
  9
$USERI4
 70
     0
  9
$USERI5
 70
     0
  9
$USERR1
 40
0.0
  9
$USERR2
 40
0.0
  9
$USERR3
 40
0.0
  9
$USERR4
 40
0.0
  9
$USERR5
 40
0.0
  9
$WORLDVIEW
 70
     1
  9
$SHADEDGE
 70
     3
  9
$SHADEDIF
 70
    70
  9
$TILEMODE
 70
     1
  9
$MAXACTVP
 70
    64
  9
$PINSBASE
 10
0.0
 20
0.0
 30
0.0
  9
$PLIMCHECK
 70
     0
  9
$PEXTMIN
 10
1.0000000000E+20
 20
1.0000000000E+20
 30
1.0000000000E+20
  9
$PEXTMAX
 10
-1.0000000000E+20
 20
-1.0000000000E+20
 30
-1.0000000000E+20
  9
$PLIMMIN
 10
0.0
 20
0.0
  9
$PLIMMAX
 10
12.0
 20
9.0
  9
$UNITMODE
 70
     0
  9
$VISRETAIN
 70
     1
  9
$PLINEGEN
 70
     0
  9
$PSLTSCALE
 70
     1
  9
$TREEDEPTH
 70
  3020
  9
$CMLSTYLE
  2
Standard
  9
$CMLJUST
 70
     0
  9
$CMLSCALE
 40
1.0
  9
$PROXYGRAPHICS
 70
     1
  9
$MEASUREMENT
 70
     0
  9
$CELWEIGHT
370
    -1
  9
$ENDCAPS
280
     0
  9
$JOINSTYLE
280
     0
  9
$LWDISPLAY
290
     1
  9
$INSUNITS
 70
     1
  9
$HYPERLINKBASE
  1

  9
$STYLESHEET
  1

  9
$XEDIT
290
     1
  9
$CEPSNTYPE
380
     0
  9
$PSTYLEMODE
290
     1
  9
$FINGERPRINTGUID
  2
{468C2F80-1BAF-4383-93E4-08A4EC426E75}
  9
$VERSIONGUID
  2
{FAEB1C32-E019-11D5-929B-00C0DF256EC4}
  9
$EXTNAMES
290
     1
  9
$PSVPSCALE
 40
0.0
  9
$OLESTARTUP
290
     0
  0
ENDSEC
  0
SECTION
  2
CLASSES
  0
CLASS
  1
ACDBDICTIONARYWDFLT
  2
AcDbDictionaryWithDefault
  3
ObjectDBX Classes
 90
        0
280
     0
281
     0
  0
CLASS
  1
VISUALSTYLE
  2
AcDbVisualStyle
  3
ObjectDBX Classes
 90
     4095
280
     0
281
     0
  0
CLASS
  1
MATERIAL
  2
AcDbMaterial
  3
ObjectDBX Classes
 90
     1153
280
     0
281
     0
  0
CLASS
  1
SCALE
  2
AcDbScale
  3
ObjectDBX Classes
 90
     1153
280
     0
281
     0
  0
CLASS
  1
SUN
  2
AcDbSun
  3
SCENEOE
 90
     1153
280
     0
281
     0
  0
CLASS
  1
ACDBPLACEHOLDER
  2
AcDbPlaceHolder
  3
ObjectDBX Classes
 90
        0
280
     0
281
     0
  0
CLASS
  1
LAYOUT
  2
AcDbLayout
  3
ObjectDBX Classes
 90
        0
280
     0
281
     0
  0
ENDSEC
  0
SECTION
  2
TABLES
  0
TABLE
  2
VPORT
  5
8
330
0
100
AcDbSymbolTable
 70
     1
  0
VPORT
  5
29
330
8
100
AcDbSymbolTableRecord
100
AcDbViewportTableRecord
  2
*Active
 70
     0
 10
0.0
 20
0.0
 11
1.0
 21
1.0
 12
4.25
 22
5.5
 13
0.0
 23
0.0
 14
0.5
 24
0.5
 15
0.5
 25
0.5
 16
0.0
 26
0.0
 36
1.0
 17
0.0
 27
0.0
 37
0.0
 40
11.0
 41
0.7727272727
 42
50.0
 43
0.0
 44
0.0
 50
0.0
 51
0.0
 71
     0
 72
  2000
 73
     1
 74
     3
 75
     0
 76
     0
 77
     0
 78
     0
281
     0
 65
     1
110
0.0
120
0.0
130
0.0
111
1.0
121
0.0
131
0.0
112
0.0
122
1.0
132
0.0
 79
     0
146
0.0
  0
ENDTAB
  0
TABLE
  2
LTYPE
  5
5
330
0
100
AcDbSymbolTable
 70
     6
  0
LTYPE
  5
14
330
5
100
AcDbSymbolTableRecord
100
AcDbLinetypeTableRecord
  2
ByBlock
 70
     0
  3

 72
    65
 73
     0
 40
0.0
  0
LTYPE
  5
15
330
5
100
AcDbSymbolTableRecord
100
AcDbLinetypeTableRecord
  2
ByLayer
 70
     0
  3

 72
    65
 73
     0
 40
0.0
  0
LTYPE
  5
16
330
5
100
AcDbSymbolTableRecord
100
AcDbLinetypeTableRecord
  2
Continuous
 70
     0
  3
Solid line
 72
    65
 73
     0
 40
0.0
  0
LTYPE
  5
6A
330
5
100
AcDbSymbolTableRecord
100
AcDbLinetypeTableRecord
  2
HIDDEN
 70
     0
  3
Hidden __ __ __ __ __ __ __ __ __ __ __ __ __ __
 72
    65
 73
     2
 40
0.075
 49
0.05
 74
     0
 49
-0.025
 74
     0
  0
LTYPE
  5
6B
330
5
100
AcDbSymbolTableRecord
100
AcDbLinetypeTableRecord
  2
PHANTOM
 70
     0
  3
Phantom ______  __  __  ______  __  __  ______
 72
    65
 73
     6
 40
0.5
 49
0.25
 74
     0
 49
-0.05
 74
     0
 49
0.05
 74
     0
 49
-0.05
 74
     0
 49
0.05
 74
     0
 49
-0.05
 74
     0
  0
LTYPE
  5
6C
330
5
100
AcDbSymbolTableRecord
100
AcDbLinetypeTableRecord
  2
CENTER
 70
     0
  3
Center ____ _ ____ _ ____ _ ____ _ ____ _ ____
 72
    65
 73
     4
 40
0.4
 49
0.25
 74
     0
 49
-0.05
 74
     0
 49
0.05
 74
     0
 49
-0.05
 74
     0
  0
LTYPE
  5
6D
330
5
100
AcDbSymbolTableRecord
100
AcDbLinetypeTableRecord
  2
CENTERX2
 70
     0
  3
Center (2x) ________  __  ________  __  _____
 72
    65
 73
     4
 40
0.8
 49
0.5
 74
     0
 49
-0.1
 74
     0
 49
0.1
 74
     0
 49
-0.1
 74
     0
  0
LTYPE
  5
6E
330
5
100
AcDbSymbolTableRecord
100
AcDbLinetypeTableRecord
  2
DOT2
 70
     0
  3
Dot (.5x) ........................................
 72
    65
 73
     2
 40
0.025
 49
0.0
 74
     0
 49
-0.025
 74
     0
  0
ENDTAB
  0
TABLE
  2
LAYER
  5
2
330
0
100
AcDbSymbolTable
 70
    26
  0
LAYER
  5
10
330
2
100
AcDbSymbolTableRecord
100
AcDbLayerTableRecord
  2
0
 70
     0
 62
     7
  6
Continuous
370
    -3
390
F
  0
LAYER
  5
6F
330
2
100
AcDbSymbolTableRecord
100
AcDbLayerTableRecord
  2
SLD-0
 70
     0
 62
   179
  6
Continuous
370
    -3
390
F
  0
LAYER
  5
70
330
2
100
AcDbSymbolTableRecord
100
AcDbLayerTableRecord
  2
SLD-DEFPOINTS
 70
     0
 62
   179
  6
Continuous
370
    -3
390
F
  0
LAYER
  5
71
330
2
100
AcDbSymbolTableRecord
100
AcDbLayerTableRecord
  2
OBJ
 70
     0
 62
   179
  6
Continuous
370
    30
390
F
  0
LAYER
  5
72
330
2
100
AcDbSymbolTableRecord
100
AcDbLayerTableRecord
  2
FORMAT
 70
     0
 62
     7
  6
Continuous
370
    -3
390
F
  0
LAYER
  5
73
330
2
100
AcDbSymbolTableRecord
100
AcDbLayerTableRecord
  2
REV-1
 70
     0
 62
    -7
  6
Continuous
370
    -3
390
F
  0
LAYER
  5
74
330
2
100
AcDbSymbolTableRecord
100
AcDbLayerTableRecord
  2
REV-2
 70
     0
 62
    -7
  6
Continuous
370
    -3
390
F
  0
LAYER
  5
75
330
2
100
AcDbSymbolTableRecord
100
AcDbLayerTableRecord
  2
REV-3
 70
     0
 62
    -7
  6
Continuous
370
    -3
390
F
  0
LAYER
  5
76
330
2
100
AcDbSymbolTableRecord
100
AcDbLayerTableRecord
  2
PAINT
 70
     0
 62
    -7
  6
Continuous
370
    -3
390
F
  0
LAYER
  5
77
330
2
100
AcDbSymbolTableRecord
100
AcDbLayerTableRecord
  2
STAMP-AREA
 70
     0
 62
    -7
  6
Continuous
370
    -3
390
F
  0
LAYER
  5
78
330
2
100
AcDbSymbolTableRecord
100
AcDbLayerTableRecord
  2
TOLERANCES
 70
     0
 62
     7
  6
Continuous
370
    -3
390
F
  0
LAYER
  5
79
330
2
100
AcDbSymbolTableRecord
100
AcDbLayerTableRecord
  2
BLANK-SIZE-1
 70
     0
 62
    -7
  6
Continuous
370
    -3
390
F
  0
LAYER
  5
7A
330
2
100
AcDbSymbolTableRecord
100
AcDbLayerTableRecord
  2
BLANK-SIZE-2
 70
     0
 62
    -7
  6
Continuous
370
    -3
390
F
  0
LAYER
  5
7B
330
2
100
AcDbSymbolTableRecord
100
AcDbLayerTableRecord
  2
BLANK-SIZE-3
 70
     0
 62
    -7
  6
Continuous
370
    -3
390
F
  0
LAYER
  5
7C
330
2
100
AcDbSymbolTableRecord
100
AcDbLayerTableRecord
  2
BLANK-SIZE-4
 70
     0
 62
    -7
  6
Continuous
370
    -3
390
F
  0
LAYER
  5
7D
330
2
100
AcDbSymbolTableRecord
100
AcDbLayerTableRecord
  2
BLANK-SIZE-5
 70
     0
 62
    -7
  6
Continuous
370
    -3
390
F
  0
LAYER
  5
7E
330
2
100
AcDbSymbolTableRecord
100
AcDbLayerTableRecord
  2
HDG
 70
     0
 62
    -7
  6
Continuous
370
    -3
390
F
  0
LAYER
  5
7F
330
2
100
AcDbSymbolTableRecord
100
AcDbLayerTableRecord
  2
FAX-NOTE
 70
     0
 62
    -7
  6
Continuous
370
    -3
390
F
  0
LAYER
  5
80
330
2
100
AcDbSymbolTableRecord
100
AcDbLayerTableRecord
  2
TOP_MOUNT_PAINT
 70
     0
 62
    -7
  6
Continuous
370
    -3
390
F
  0
LAYER
  5
81
330
2
100
AcDbSymbolTableRecord
100
AcDbLayerTableRecord
  2
QTY-BLANK-SIZE-1
 70
     0
 62
     7
  6
Continuous
370
    -3
390
F
  0
LAYER
  5
82
330
2
100
AcDbSymbolTableRecord
100
AcDbLayerTableRecord
  2
BOLD
 70
     0
 62
     1
  6
Continuous
370
    30
390
F
  0
LAYER
  5
83
330
2
100
AcDbSymbolTableRecord
100
AcDbLayerTableRecord
  2
BORDER
 70
     0
 62
   179
  6
Continuous
370
    -3
390
F
  0
LAYER
  5
84
330
2
100
AcDbSymbolTableRecord
100
AcDbLayerTableRecord
  2
ITEM_NUMBER
 70
     0
 62
    -7
  6
Continuous
370
    -3
390
F
  0
LAYER
  5
85
330
2
100
AcDbSymbolTableRecord
100
AcDbLayerTableRecord
  2
SLR
 70
     0
 62
    -7
  6
Continuous
370
    -3
390
F
  0
LAYER
  5
86
330
2
100
AcDbSymbolTableRecord
100
AcDbLayerTableRecord
  2
SLL
 70
     0
 62
     7
  6
Continuous
370
    -3
390
F
  0
LAYER
  5
87
330
2
100
AcDbSymbolTableRecord
100
AcDbLayerTableRecord
  2
DASH
 70
     0
 62
     7
  6
HIDDEN
370
    15
390
F
  0
ENDTAB
  0
TABLE
  2
STYLE
  5
3
330
0
100
AcDbSymbolTable
 70
     3
  0
STYLE
  5
11
330
3
100
AcDbSymbolTableRecord
100
AcDbTextStyleTableRecord
  2
Standard
 70
     0
 40
0.0
 41
1.0
 50
0.0
 71
     0
 42
0.1388888889
  3
txt
  4

  0
STYLE
  5
AC
330
3
100
AcDbSymbolTableRecord
100
AcDbTextStyleTableRecord
  2
SLDTEXTSTYLE0
 70
     0
 40
0.0
 41
0.7
 50
0.0
 71
     0
 42
0.1388888889
  3
TXT
  4

  0
STYLE
  5
B4
330
3
100
AcDbSymbolTableRecord
100
AcDbTextStyleTableRecord
  2
SLDTEXTSTYLE1
 70
     0
 40
0.0
 41
0.605
 50
0.0
 71
     0
 42
0.1388888889
  3
TXT
  4

  0
ENDTAB
  0
TABLE
  2
VIEW
  5
6
330
0
100
AcDbSymbolTable
 70
     0
  0
ENDTAB
  0
TABLE
  2
UCS
  5
7
330
0
100
AcDbSymbolTable
 70
     0
  0
ENDTAB
  0
TABLE
  2
APPID
  5
9
330
0
100
AcDbSymbolTable
 70
     1
  0
APPID
  5
12
330
9
100
AcDbSymbolTableRecord
100
AcDbRegAppTableRecord
  2
ACAD
 70
     0
  0
ENDTAB
  0
TABLE
  2
DIMSTYLE
  5
A
330
0
100
AcDbSymbolTable
 70
     1
100
AcDbDimStyleTable
  0
DIMSTYLE
105
27
330
A
100
AcDbSymbolTableRecord
100
AcDbDimStyleTableRecord
  2
Standard
 70
     0
178
     0
340
11
  0
ENDTAB
  0
TABLE
  2
BLOCK_RECORD
  5
1
330
0
100
AcDbSymbolTable
 70
    12
  0
BLOCK_RECORD
  5
1F
330
1
100
AcDbSymbolTableRecord
100
AcDbBlockTableRecord
  2
*Model_Space
340
22
  0
BLOCK_RECORD
  5
1B
330
1
100
AcDbSymbolTableRecord
100
AcDbBlockTableRecord
  2
*Paper_Space
340
1E
  0
BLOCK_RECORD
  5
23
330
1
100
AcDbSymbolTableRecord
100
AcDbBlockTableRecord
  2
*Paper_Space0
340
26
  0
BLOCK_RECORD
  5
B1
330
1
100
AcDbSymbolTableRecord
100
AcDbBlockTableRecord
  2
SW_NOTE_0
340
0
102
{BLKREFS
331
B9
102
}
  0
BLOCK_RECORD
  5
178
330
1
100
AcDbSymbolTableRecord
100
AcDbBlockTableRecord
  2
SW_CENTERMARKSYMBOL_0
340
0
102
{BLKREFS
331
183
102
}
  0
BLOCK_RECORD
  5
184
330
1
100
AcDbSymbolTableRecord
100
AcDbBlockTableRecord
  2
SW_CENTERMARKSYMBOL_1
340
0
102
{BLKREFS
331
18F
102
}
  0
BLOCK_RECORD
  5
190
330
1
100
AcDbSymbolTableRecord
100
AcDbBlockTableRecord
  2
SW_CENTERMARKSYMBOL_2
340
0
102
{BLKREFS
331
19B
102
}
  0
BLOCK_RECORD
  5
1D5
330
1
100
AcDbSymbolTableRecord
100
AcDbBlockTableRecord
  2
SW_CENTERMARKSYMBOL_3
340
0
102
{BLKREFS
331
1E0
102
}
  0
BLOCK_RECORD
  5
1E1
330
1
100
AcDbSymbolTableRecord
100
AcDbBlockTableRecord
  2
SW_CENTERMARKSYMBOL_4
340
0
102
{BLKREFS
331
1EC
102
}
  0
BLOCK_RECORD
  5
1ED
330
1
100
AcDbSymbolTableRecord
100
AcDbBlockTableRecord
  2
SW_CENTERMARKSYMBOL_5
340
0
102
{BLKREFS
331
1F8
102
}
  0
BLOCK_RECORD
  5
265
330
1
100
AcDbSymbolTableRecord
100
AcDbBlockTableRecord
  2
SW_CENTERMARKSYMBOL_6
340
0
102
{BLKREFS
331
270
102
}
  0
BLOCK_RECORD
  5
271
330
1
100
AcDbSymbolTableRecord
100
AcDbBlockTableRecord
  2
SW_CENTERMARKSYMBOL_7
340
0
102
{BLKREFS
331
27C
102
}
  0
BLOCK_RECORD
  5
27D
330
1
100
AcDbSymbolTableRecord
100
AcDbBlockTableRecord
  2
SW_CENTERMARKSYMBOL_8
340
0
102
{BLKREFS
331
288
102
}
  0
BLOCK_RECORD
  5
289
330
1
100
AcDbSymbolTableRecord
100
AcDbBlockTableRecord
  2
SW_CENTERMARKSYMBOL_9
340
0
102
{BLKREFS
331
294
102
}
  0
ENDTAB
  0
ENDSEC
  0
SECTION
  2
BLOCKS
  0
BLOCK
  5
20
330
1F
100
AcDbEntity
  8
0
100
AcDbBlockBegin
  2
*Model_Space
 70
     0
 10
0.0
 20
0.0
 30
0.0
  3
*Model_Space
  1
*Model_Space
  0
ENDBLK
  5
21
330
1F
100
AcDbEntity
  8
0
100
AcDbBlockEnd
  0
BLOCK
  5
1C
330
1B
100
AcDbEntity
 67
     1
  8
0
100
AcDbBlockBegin
  2
*Paper_Space
 70
     0
 10
0.0
 20
0.0
 30
0.0
  3
*Paper_Space
  1
*Paper_Space
  0
ENDBLK
  5
1D
330
1B
100
AcDbEntity
 67
     1
  8
0
100
AcDbBlockEnd
  0
BLOCK
  5
24
330
23
100
AcDbEntity
  8
0
100
AcDbBlockBegin
  2
*Paper_Space0
 70
     0
 10
0.0
 20
0.0
 30
0.0
  3
*Paper_Space0
  1
*Paper_Space0
  0
ENDBLK
  5
25
330
23
100
AcDbEntity
  8
0
100
AcDbBlockEnd
  0
BLOCK
  5
B2
330
B1
100
AcDbEntity
  8
0
100
AcDbBlockBegin
  2
SW_NOTE_0
 70
     0
 10
0.0
 20
0.0
 30
0.0
  3
SW_NOTE_0
  1
SW_NOTE_0
  0
MTEXT
  5
B5
330
B1
100
AcDbEntity
  8
TOP_MOUNT_PAINT
 62
     0
100
AcDbMText
 10
0.0
 20
0.1342778896
 30
0.0
 40
0.1041666667
 41
0.0
 71
     1
 72
     1
  1
NOTE:
  7
SLDTEXTSTYLE1
 73
     1
 44
1.0
  0
MTEXT
  5
B6
330
B1
100
AcDbEntity
  8
TOP_MOUNT_PAINT
 62
     0
100
AcDbMText
 10
0.0
 20
-0.0046109977
 30
0.0
 40
0.1041666667
 41
0.0
 71
     1
 72
     1
  1
DIMENSIONS IN BRACKETS ARE FOR INFORMATIONAL
  7
SLDTEXTSTYLE1
 73
     1
 44
1.0
  0
MTEXT
  5
B7
330
B1
100
AcDbEntity
  8
TOP_MOUNT_PAINT
 62
     0
100
AcDbMText
 10
0.1171875
 20
-0.1434998849
 30
0.0
 40
0.1041666667
 41
0.0
 71
     1
 72
     1
  1
PURPOSES ONLY. NOT A PRODUCT SPECIFICATION
  7
SLDTEXTSTYLE1
 73
     1
 44
1.0
  0
MTEXT
  5
B8
330
B1
100
AcDbEntity
  8
TOP_MOUNT_PAINT
 62
     0
100
AcDbMText
 10
0.0
 20
-0.2823887721
 30
0.0
 40
0.1041666667
 41
0.0
 71
     1
 72
     1
  1
PAINT PER USP SPECIFICATION AFTER FAGRICATION
  7
SLDTEXTSTYLE1
 73
     1
 44
1.0
  0
ENDBLK
  5
B3
330
B1
100
AcDbEntity
  8
0
100
AcDbBlockEnd
  0
BLOCK
  5
179
330
178
100
AcDbEntity
  8
0
100
AcDbBlockBegin
  2
SW_CENTERMARKSYMBOL_0
 70
     0
 10
0.0
 20
0.0
 30
0.0
  3
SW_CENTERMARKSYMBOL_0
  1
SW_CENTERMARKSYMBOL_0
  0
LINE
  5
17B
330
178
100
AcDbEntity
  8
BLANK-SIZE-2
 62
     0
100
AcDbLine
 10
0.0
 20
0.0
 30
0.0
 11
0.0
 21
0.025
 31
0.0
  0
LINE
  5
17C
330
178
100
AcDbEntity
  8
BLANK-SIZE-2
 62
     0
100
AcDbLine
 10
0.0
 20
0.0
 30
0.0
 11
-0.025
 21
0.0
 31
0.0
  0
LINE
  5
17D
330
178
100
AcDbEntity
  8
BLANK-SIZE-2
 62
     0
100
AcDbLine
 10
0.0
 20
0.0
 30
0.0
 11
0.0
 21
-0.025
 31
0.0
  0
LINE
  5
17E
330
178
100
AcDbEntity
  8
BLANK-SIZE-2
 62
     0
100
AcDbLine
 10
0.0
 20
0.0
 30
0.0
 11
0.025
 21
0.0
 31
0.0
  0
LINE
  5
17F
330
178
100
AcDbEntity
  8
BLANK-SIZE-2
 62
     0
100
AcDbLine
 10
0.0
 20
0.025
 30
0.0
 11
0.0
 21
0.0455
 31
0.0
  0
LINE
  5
180
330
178
100
AcDbEntity
  8
BLANK-SIZE-2
 62
     0
100
AcDbLine
 10
-0.025
 20
0.0
 30
0.0
 11
-0.0455
 21
0.0
 31
0.0
  0
LINE
  5
181
330
178
100
AcDbEntity
  8
BLANK-SIZE-2
 62
     0
100
AcDbLine
 10
0.0
 20
-0.025
 30
0.0
 11
0.0
 21
-0.0455
 31
0.0
  0
LINE
  5
182
330
178
100
AcDbEntity
  8
BLANK-SIZE-2
 62
     0
100
AcDbLine
 10
0.025
 20
0.0
 30
0.0
 11
0.0455
 21
0.0
 31
0.0
  0
ENDBLK
  5
17A
330
178
100
AcDbEntity
  8
0
100
AcDbBlockEnd
  0
BLOCK
  5
185
330
184
100
AcDbEntity
  8
0
100
AcDbBlockBegin
  2
SW_CENTERMARKSYMBOL_1
 70
     0
 10
0.0
 20
0.0
 30
0.0
  3
SW_CENTERMARKSYMBOL_1
  1
SW_CENTERMARKSYMBOL_1
  0
LINE
  5
187
330
184
100
AcDbEntity
  8
BLANK-SIZE-2
 62
     0
100
AcDbLine
 10
0.0
 20
0.0
 30
0.0
 11
0.0
 21
0.025
 31
0.0
  0
LINE
  5
188
330
184
100
AcDbEntity
  8
BLANK-SIZE-2
 62
     0
100
AcDbLine
 10
0.0
 20
0.0
 30
0.0
 11
-0.025
 21
0.0
 31
0.0
  0
LINE
  5
189
330
184
100
AcDbEntity
  8
BLANK-SIZE-2
 62
     0
100
AcDbLine
 10
0.0
 20
0.0
 30
0.0
 11
0.0
 21
-0.025
 31
0.0
  0
LINE
  5
18A
330
184
100
AcDbEntity
  8
BLANK-SIZE-2
 62
     0
100
AcDbLine
 10
0.0
 20
0.0
 30
0.0
 11
0.025
 21
0.0
 31
0.0
  0
LINE
  5
18B
330
184
100
AcDbEntity
  8
BLANK-SIZE-2
 62
     0
100
AcDbLine
 10
0.0
 20
0.025
 30
0.0
 11
0.0
 21
0.0455
 31
0.0
  0
LINE
  5
18C
330
184
100
AcDbEntity
  8
BLANK-SIZE-2
 62
     0
100
AcDbLine
 10
-0.025
 20
0.0
 30
0.0
 11
-0.0455
 21
0.0
 31
0.0
  0
LINE
  5
18D
330
184
100
AcDbEntity
  8
BLANK-SIZE-2
 62
     0
100
AcDbLine
 10
0.0
 20
-0.025
 30
0.0
 11
0.0
 21
-0.0455
 31
0.0
  0
LINE
  5
18E
330
184
100
AcDbEntity
  8
BLANK-SIZE-2
 62
     0
100
AcDbLine
 10
0.025
 20
0.0
 30
0.0
 11
0.0455
 21
0.0
 31
0.0
  0
ENDBLK
  5
186
330
184
100
AcDbEntity
  8
0
100
AcDbBlockEnd
  0
BLOCK
  5
191
330
190
100
AcDbEntity
  8
0
100
AcDbBlockBegin
  2
SW_CENTERMARKSYMBOL_2
 70
     0
 10
0.0
 20
0.0
 30
0.0
  3
SW_CENTERMARKSYMBOL_2
  1
SW_CENTERMARKSYMBOL_2
  0
LINE
  5
193
330
190
100
AcDbEntity
  8
BLANK-SIZE-2
 62
     0
100
AcDbLine
 10
0.0
 20
0.0
 30
0.0
 11
0.0
 21
0.025
 31
0.0
  0
LINE
  5
194
330
190
100
AcDbEntity
  8
BLANK-SIZE-2
 62
     0
100
AcDbLine
 10
0.0
 20
0.0
 30
0.0
 11
-0.025
 21
0.0
 31
0.0
  0
LINE
  5
195
330
190
100
AcDbEntity
  8
BLANK-SIZE-2
 62
     0
100
AcDbLine
 10
0.0
 20
0.0
 30
0.0
 11
0.0
 21
-0.025
 31
0.0
  0
LINE
  5
196
330
190
100
AcDbEntity
  8
BLANK-SIZE-2
 62
     0
100
AcDbLine
 10
0.0
 20
0.0
 30
0.0
 11
0.025
 21
0.0
 31
0.0
  0
LINE
  5
197
330
190
100
AcDbEntity
  8
BLANK-SIZE-2
 62
     0
100
AcDbLine
 10
0.0
 20
0.025
 30
0.0
 11
0.0
 21
0.0455
 31
0.0
  0
LINE
  5
198
330
190
100
AcDbEntity
  8
BLANK-SIZE-2
 62
     0
100
AcDbLine
 10
-0.025
 20
0.0
 30
0.0
 11
-0.0455
 21
0.0
 31
0.0
  0
LINE
  5
199
330
190
100
AcDbEntity
  8
BLANK-SIZE-2
 62
     0
100
AcDbLine
 10
0.0
 20
-0.025
 30
0.0
 11
0.0
 21
-0.0455
 31
0.0
  0
LINE
  5
19A
330
190
100
AcDbEntity
  8
BLANK-SIZE-2
 62
     0
100
AcDbLine
 10
0.025
 20
0.0
 30
0.0
 11
0.0455
 21
0.0
 31
0.0
  0
ENDBLK
  5
192
330
190
100
AcDbEntity
  8
0
100
AcDbBlockEnd
  0
BLOCK
  5
1D6
330
1D5
100
AcDbEntity
  8
0
100
AcDbBlockBegin
  2
SW_CENTERMARKSYMBOL_3
 70
     0
 10
0.0
 20
0.0
 30
0.0
  3
SW_CENTERMARKSYMBOL_3
  1
SW_CENTERMARKSYMBOL_3
  0
LINE
  5
1D8
330
1D5
100
AcDbEntity
  8
BLANK-SIZE-2
 62
     0
100
AcDbLine
 10
0.0
 20
0.0
 30
0.0
 11
0.0
 21
0.025
 31
0.0
  0
LINE
  5
1D9
330
1D5
100
AcDbEntity
  8
BLANK-SIZE-2
 62
     0
100
AcDbLine
 10
0.0
 20
0.0
 30
0.0
 11
-0.025
 21
0.0
 31
0.0
  0
LINE
  5
1DA
330
1D5
100
AcDbEntity
  8
BLANK-SIZE-2
 62
     0
100
AcDbLine
 10
0.0
 20
0.0
 30
0.0
 11
0.0
 21
-0.025
 31
0.0
  0
LINE
  5
1DB
330
1D5
100
AcDbEntity
  8
BLANK-SIZE-2
 62
     0
100
AcDbLine
 10
0.0
 20
0.0
 30
0.0
 11
0.025
 21
0.0
 31
0.0
  0
LINE
  5
1DC
330
1D5
100
AcDbEntity
  8
BLANK-SIZE-2
 62
     0
100
AcDbLine
 10
0.0
 20
0.025
 30
0.0
 11
0.0
 21
0.0455
 31
0.0
  0
LINE
  5
1DD
330
1D5
100
AcDbEntity
  8
BLANK-SIZE-2
 62
     0
100
AcDbLine
 10
-0.025
 20
0.0
 30
0.0
 11
-0.0455
 21
0.0
 31
0.0
  0
LINE
  5
1DE
330
1D5
100
AcDbEntity
  8
BLANK-SIZE-2
 62
     0
100
AcDbLine
 10
0.0
 20
-0.025
 30
0.0
 11
0.0
 21
-0.0455
 31
0.0
  0
LINE
  5
1DF
330
1D5
100
AcDbEntity
  8
BLANK-SIZE-2
 62
     0
100
AcDbLine
 10
0.025
 20
0.0
 30
0.0
 11
0.0455
 21
0.0
 31
0.0
  0
ENDBLK
  5
1D7
330
1D5
100
AcDbEntity
  8
0
100
AcDbBlockEnd
  0
BLOCK
  5
1E2
330
1E1
100
AcDbEntity
  8
0
100
AcDbBlockBegin
  2
SW_CENTERMARKSYMBOL_4
 70
     0
 10
0.0
 20
0.0
 30
0.0
  3
SW_CENTERMARKSYMBOL_4
  1
SW_CENTERMARKSYMBOL_4
  0
LINE
  5
1E4
330
1E1
100
AcDbEntity
  8
BLANK-SIZE-2
 62
     0
100
AcDbLine
 10
0.0
 20
0.0
 30
0.0
 11
0.0
 21
0.025
 31
0.0
  0
LINE
  5
1E5
330
1E1
100
AcDbEntity
  8
BLANK-SIZE-2
 62
     0
100
AcDbLine
 10
0.0
 20
0.0
 30
0.0
 11
-0.025
 21
0.0
 31
0.0
  0
LINE
  5
1E6
330
1E1
100
AcDbEntity
  8
BLANK-SIZE-2
 62
     0
100
AcDbLine
 10
0.0
 20
0.0
 30
0.0
 11
0.0
 21
-0.025
 31
0.0
  0
LINE
  5
1E7
330
1E1
100
AcDbEntity
  8
BLANK-SIZE-2
 62
     0
100
AcDbLine
 10
0.0
 20
0.0
 30
0.0
 11
0.025
 21
0.0
 31
0.0
  0
LINE
  5
1E8
330
1E1
100
AcDbEntity
  8
BLANK-SIZE-2
 62
     0
100
AcDbLine
 10
0.0
 20
0.025
 30
0.0
 11
0.0
 21
0.0455
 31
0.0
  0
LINE
  5
1E9
330
1E1
100
AcDbEntity
  8
BLANK-SIZE-2
 62
     0
100
AcDbLine
 10
-0.025
 20
0.0
 30
0.0
 11
-0.0455
 21
0.0
 31
0.0
  0
LINE
  5
1EA
330
1E1
100
AcDbEntity
  8
BLANK-SIZE-2
 62
     0
100
AcDbLine
 10
0.0
 20
-0.025
 30
0.0
 11
0.0
 21
-0.0455
 31
0.0
  0
LINE
  5
1EB
330
1E1
100
AcDbEntity
  8
BLANK-SIZE-2
 62
     0
100
AcDbLine
 10
0.025
 20
0.0
 30
0.0
 11
0.0455
 21
0.0
 31
0.0
  0
ENDBLK
  5
1E3
330
1E1
100
AcDbEntity
  8
0
100
AcDbBlockEnd
  0
BLOCK
  5
1EE
330
1ED
100
AcDbEntity
  8
0
100
AcDbBlockBegin
  2
SW_CENTERMARKSYMBOL_5
 70
     0
 10
0.0
 20
0.0
 30
0.0
  3
SW_CENTERMARKSYMBOL_5
  1
SW_CENTERMARKSYMBOL_5
  0
LINE
  5
1F0
330
1ED
100
AcDbEntity
  8
BLANK-SIZE-2
 62
     0
100
AcDbLine
 10
0.0
 20
0.0
 30
0.0
 11
0.0
 21
0.025
 31
0.0
  0
LINE
  5
1F1
330
1ED
100
AcDbEntity
  8
BLANK-SIZE-2
 62
     0
100
AcDbLine
 10
0.0
 20
0.0
 30
0.0
 11
-0.025
 21
0.0
 31
0.0
  0
LINE
  5
1F2
330
1ED
100
AcDbEntity
  8
BLANK-SIZE-2
 62
     0
100
AcDbLine
 10
0.0
 20
0.0
 30
0.0
 11
0.0
 21
-0.025
 31
0.0
  0
LINE
  5
1F3
330
1ED
100
AcDbEntity
  8
BLANK-SIZE-2
 62
     0
100
AcDbLine
 10
0.0
 20
0.0
 30
0.0
 11
0.025
 21
0.0
 31
0.0
  0
LINE
  5
1F4
330
1ED
100
AcDbEntity
  8
BLANK-SIZE-2
 62
     0
100
AcDbLine
 10
0.0
 20
0.025
 30
0.0
 11
0.0
 21
0.0455
 31
0.0
  0
LINE
  5
1F5
330
1ED
100
AcDbEntity
  8
BLANK-SIZE-2
 62
     0
100
AcDbLine
 10
-0.025
 20
0.0
 30
0.0
 11
-0.0455
 21
0.0
 31
0.0
  0
LINE
  5
1F6
330
1ED
100
AcDbEntity
  8
BLANK-SIZE-2
 62
     0
100
AcDbLine
 10
0.0
 20
-0.025
 30
0.0
 11
0.0
 21
-0.0455
 31
0.0
  0
LINE
  5
1F7
330
1ED
100
AcDbEntity
  8
BLANK-SIZE-2
 62
     0
100
AcDbLine
 10
0.025
 20
0.0
 30
0.0
 11
0.0455
 21
0.0
 31
0.0
  0
ENDBLK
  5
1EF
330
1ED
100
AcDbEntity
  8
0
100
AcDbBlockEnd
  0
BLOCK
  5
266
330
265
100
AcDbEntity
  8
0
100
AcDbBlockBegin
  2
SW_CENTERMARKSYMBOL_6
 70
     0
 10
0.0
 20
0.0
 30
0.0
  3
SW_CENTERMARKSYMBOL_6
  1
SW_CENTERMARKSYMBOL_6
  0
LINE
  5
268
330
265
100
AcDbEntity
  8
BLANK-SIZE-2
 62
     0
100
AcDbLine
 10
0.0
 20
0.0
 30
0.0
 11
0.0
 21
0.025
 31
0.0
  0
LINE
  5
269
330
265
100
AcDbEntity
  8
BLANK-SIZE-2
 62
     0
100
AcDbLine
 10
0.0
 20
0.0
 30
0.0
 11
-0.025
 21
0.0
 31
0.0
  0
LINE
  5
26A
330
265
100
AcDbEntity
  8
BLANK-SIZE-2
 62
     0
100
AcDbLine
 10
0.0
 20
0.0
 30
0.0
 11
0.0
 21
-0.025
 31
0.0
  0
LINE
  5
26B
330
265
100
AcDbEntity
  8
BLANK-SIZE-2
 62
     0
100
AcDbLine
 10
0.0
 20
0.0
 30
0.0
 11
0.025
 21
0.0
 31
0.0
  0
LINE
  5
26C
330
265
100
AcDbEntity
  8
BLANK-SIZE-2
 62
     0
100
AcDbLine
 10
0.0
 20
0.025
 30
0.0
 11
0.0
 21
0.0475
 31
0.0
  0
LINE
  5
26D
330
265
100
AcDbEntity
  8
BLANK-SIZE-2
 62
     0
100
AcDbLine
 10
-0.025
 20
0.0
 30
0.0
 11
-0.0475
 21
0.0
 31
0.0
  0
LINE
  5
26E
330
265
100
AcDbEntity
  8
BLANK-SIZE-2
 62
     0
100
AcDbLine
 10
0.0
 20
-0.025
 30
0.0
 11
0.0
 21
-0.0475
 31
0.0
  0
LINE
  5
26F
330
265
100
AcDbEntity
  8
BLANK-SIZE-2
 62
     0
100
AcDbLine
 10
0.025
 20
0.0
 30
0.0
 11
0.0475
 21
0.0
 31
0.0
  0
ENDBLK
  5
267
330
265
100
AcDbEntity
  8
0
100
AcDbBlockEnd
  0
BLOCK
  5
272
330
271
100
AcDbEntity
  8
0
100
AcDbBlockBegin
  2
SW_CENTERMARKSYMBOL_7
 70
     0
 10
0.0
 20
0.0
 30
0.0
  3
SW_CENTERMARKSYMBOL_7
  1
SW_CENTERMARKSYMBOL_7
  0
LINE
  5
274
330
271
100
AcDbEntity
  8
BLANK-SIZE-2
 62
     0
100
AcDbLine
 10
0.0
 20
0.0
 30
0.0
 11
0.0
 21
0.025
 31
0.0
  0
LINE
  5
275
330
271
100
AcDbEntity
  8
BLANK-SIZE-2
 62
     0
100
AcDbLine
 10
0.0
 20
0.0
 30
0.0
 11
-0.025
 21
0.0
 31
0.0
  0
LINE
  5
276
330
271
100
AcDbEntity
  8
BLANK-SIZE-2
 62
     0
100
AcDbLine
 10
0.0
 20
0.0
 30
0.0
 11
0.0
 21
-0.025
 31
0.0
  0
LINE
  5
277
330
271
100
AcDbEntity
  8
BLANK-SIZE-2
 62
     0
100
AcDbLine
 10
0.0
 20
0.0
 30
0.0
 11
0.025
 21
0.0
 31
0.0
  0
LINE
  5
278
330
271
100
AcDbEntity
  8
BLANK-SIZE-2
 62
     0
100
AcDbLine
 10
0.0
 20
0.025
 30
0.0
 11
0.0
 21
0.0475
 31
0.0
  0
LINE
  5
279
330
271
100
AcDbEntity
  8
BLANK-SIZE-2
 62
     0
100
AcDbLine
 10
-0.025
 20
0.0
 30
0.0
 11
-0.0475
 21
0.0
 31
0.0
  0
LINE
  5
27A
330
271
100
AcDbEntity
  8
BLANK-SIZE-2
 62
     0
100
AcDbLine
 10
0.0
 20
-0.025
 30
0.0
 11
0.0
 21
-0.0475
 31
0.0
  0
LINE
  5
27B
330
271
100
AcDbEntity
  8
BLANK-SIZE-2
 62
     0
100
AcDbLine
 10
0.025
 20
0.0
 30
0.0
 11
0.0475
 21
0.0
 31
0.0
  0
ENDBLK
  5
273
330
271
100
AcDbEntity
  8
0
100
AcDbBlockEnd
  0
BLOCK
  5
27E
330
27D
100
AcDbEntity
  8
0
100
AcDbBlockBegin
  2
SW_CENTERMARKSYMBOL_8
 70
     0
 10
0.0
 20
0.0
 30
0.0
  3
SW_CENTERMARKSYMBOL_8
  1
SW_CENTERMARKSYMBOL_8
  0
LINE
  5
280
330
27D
100
AcDbEntity
  8
BLANK-SIZE-2
 62
     0
100
AcDbLine
 10
0.0
 20
0.0
 30
0.0
 11
0.0
 21
0.025
 31
0.0
  0
LINE
  5
281
330
27D
100
AcDbEntity
  8
BLANK-SIZE-2
 62
     0
100
AcDbLine
 10
0.0
 20
0.0
 30
0.0
 11
-0.025
 21
0.0
 31
0.0
  0
LINE
  5
282
330
27D
100
AcDbEntity
  8
BLANK-SIZE-2
 62
     0
100
AcDbLine
 10
0.0
 20
0.0
 30
0.0
 11
0.0
 21
-0.025
 31
0.0
  0
LINE
  5
283
330
27D
100
AcDbEntity
  8
BLANK-SIZE-2
 62
     0
100
AcDbLine
 10
0.0
 20
0.0
 30
0.0
 11
0.025
 21
0.0
 31
0.0
  0
LINE
  5
284
330
27D
100
AcDbEntity
  8
BLANK-SIZE-2
 62
     0
100
AcDbLine
 10
0.0
 20
0.025
 30
0.0
 11
0.0
 21
0.0475
 31
0.0
  0
LINE
  5
285
330
27D
100
AcDbEntity
  8
BLANK-SIZE-2
 62
     0
100
AcDbLine
 10
-0.025
 20
0.0
 30
0.0
 11
-0.0475
 21
0.0
 31
0.0
  0
LINE
  5
286
330
27D
100
AcDbEntity
  8
BLANK-SIZE-2
 62
     0
100
AcDbLine
 10
0.0
 20
-0.025
 30
0.0
 11
0.0
 21
-0.0475
 31
0.0
  0
LINE
  5
287
330
27D
100
AcDbEntity
  8
BLANK-SIZE-2
 62
     0
100
AcDbLine
 10
0.025
 20
0.0
 30
0.0
 11
0.0475
 21
0.0
 31
0.0
  0
ENDBLK
  5
27F
330
27D
100
AcDbEntity
  8
0
100
AcDbBlockEnd
  0
BLOCK
  5
28A
330
289
100
AcDbEntity
  8
0
100
AcDbBlockBegin
  2
SW_CENTERMARKSYMBOL_9
 70
     0
 10
0.0
 20
0.0
 30
0.0
  3
SW_CENTERMARKSYMBOL_9
  1
SW_CENTERMARKSYMBOL_9
  0
LINE
  5
28C
330
289
100
AcDbEntity
  8
BLANK-SIZE-2
 62
     0
100
AcDbLine
 10
0.0
 20
0.0
 30
0.0
 11
0.0
 21
0.025
 31
0.0
  0
LINE
  5
28D
330
289
100
AcDbEntity
  8
BLANK-SIZE-2
 62
     0
100
AcDbLine
 10
0.0
 20
0.0
 30
0.0
 11
-0.025
 21
0.0
 31
0.0
  0
LINE
  5
28E
330
289
100
AcDbEntity
  8
BLANK-SIZE-2
 62
     0
100
AcDbLine
 10
0.0
 20
0.0
 30
0.0
 11
0.0
 21
-0.025
 31
0.0
  0
LINE
  5
28F
330
289
100
AcDbEntity
  8
BLANK-SIZE-2
 62
     0
100
AcDbLine
 10
0.0
 20
0.0
 30
0.0
 11
0.025
 21
0.0
 31
0.0
  0
LINE
  5
290
330
289
100
AcDbEntity
  8
BLANK-SIZE-2
 62
     0
100
AcDbLine
 10
0.0
 20
0.025
 30
0.0
 11
0.0
 21
0.0475
 31
0.0
  0
LINE
  5
291
330
289
100
AcDbEntity
  8
BLANK-SIZE-2
 62
     0
100
AcDbLine
 10
-0.025
 20
0.0
 30
0.0
 11
-0.0475
 21
0.0
 31
0.0
  0
LINE
  5
292
330
289
100
AcDbEntity
  8
BLANK-SIZE-2
 62
     0
100
AcDbLine
 10
0.0
 20
-0.025
 30
0.0
 11
0.0
 21
-0.0475
 31
0.0
  0
LINE
  5
293
330
289
100
AcDbEntity
  8
BLANK-SIZE-2
 62
     0
100
AcDbLine
 10
0.025
 20
0.0
 30
0.0
 11
0.0475
 21
0.0
 31
0.0
  0
ENDBLK
  5
28B
330
289
100
AcDbEntity
  8
0
100
AcDbBlockEnd
  0
ENDSEC
  0
SECTION
  2
ENTITIES
  0
LINE
  5
88
330
1F
100
AcDbEntity
  8
REV-1
 62
     7
100
AcDbLine
 10
4.202
 20
2.4018050662
 30
0.0
 11
0.25
 21
2.4018050662
 31
0.0
  0
LINE
  5
89
330
1F
100
AcDbEntity
  8
REV-1
100
AcDbLine
 10
0.5412821291
 20
2.2143050662
 30
0.0
 11
0.5412821291
 21
2.4018050662
 31
0.0
  0
LINE
  5
8A
330
1F
100
AcDbEntity
  8
REV-1
100
AcDbLine
 10
1.102
 20
2.2143050662
 30
0.0
 11
1.102
 21
2.4018050662
 31
0.0
  0
LINE
  5
8B
330
1F
100
AcDbEntity
  8
REV-1
100
AcDbLine
 10
1.702
 20
2.2143050662
 30
0.0
 11
1.702
 21
2.4018050662
 31
0.0
  0
LINE
  5
8C
330
1F
100
AcDbEntity
  8
REV-1
100
AcDbLine
 10
3.754
 20
2.2143050662
 30
0.0
 11
3.754
 21
2.4018050662
 31
0.0
  0
LINE
  5
8D
330
1F
100
AcDbEntity
  8
REV-1
100
AcDbLine
 10
4.202
 20
2.4018050662
 30
0.0
 11
4.202
 21
2.534634198
 31
0.0
  0
LINE
  5
8E
330
1F
100
AcDbEntity
  8
REV-2
 62
     7
100
AcDbLine
 10
4.202
 20
2.5829623634
 30
0.0
 11
0.25
 21
2.5829623634
 31
0.0
  0
LINE
  5
8F
330
1F
100
AcDbEntity
  8
REV-2
100
AcDbLine
 10
3.754
 20
2.3954623634
 30
0.0
 11
3.754
 21
2.5829623634
 31
0.0
  0
LINE
  5
90
330
1F
100
AcDbEntity
  8
STAMP-AREA
100
AcDbLine
 10
0.25
 20
9.1538174151
 30
0.0
 11
4.5074336972
 21
9.1538174151
 31
0.0
  0
LINE
  5
91
330
1F
100
AcDbEntity
  8
REV-2
100
AcDbLine
 10
1.702
 20
2.3954623634
 30
0.0
 11
1.702
 21
2.5829623634
 31
0.0
  0
LINE
  5
92
330
1F
100
AcDbEntity
  8
REV-2
100
AcDbLine
 10
0.5412821291
 20
2.3954623634
 30
0.0
 11
0.5412821291
 21
2.5829623634
 31
0.0
  0
LINE
  5
93
330
1F
100
AcDbEntity
  8
REV-2
100
AcDbLine
 10
1.102
 20
2.3954623634
 30
0.0
 11
1.102
 21
2.5829623634
 31
0.0
  0
LINE
  5
94
330
1F
100
AcDbEntity
  8
STAMP-AREA
100
AcDbLine
 10
4.5074336972
 20
9.1538174151
 30
0.0
 11
4.5074336972
 21
10.7563677639
 31
0.0
  0
LINE
  5
95
330
1F
100
AcDbEntity
  8
REV-3
100
AcDbLine
 10
3.754
 20
2.5766196606
 30
0.0
 11
3.754
 21
2.7641196606
 31
0.0
  0
LINE
  5
96
330
1F
100
AcDbEntity
  8
REV-3
100
AcDbLine
 10
0.5412821291
 20
2.5766196606
 30
0.0
 11
0.5412821291
 21
2.7641196606
 31
0.0
  0
LINE
  5
97
330
1F
100
AcDbEntity
  8
REV-3
100
AcDbLine
 10
1.102
 20
2.5766196606
 30
0.0
 11
1.102
 21
2.7641196606
 31
0.0
  0
LINE
  5
98
330
1F
100
AcDbEntity
  8
REV-3
100
AcDbLine
 10
0.25
 20
2.7641196606
 30
0.0
 11
4.202
 21
2.7641196606
 31
0.0
  0
LINE
  5
99
330
1F
100
AcDbEntity
  8
REV-3
100
AcDbLine
 10
1.702
 20
2.5766196606
 30
0.0
 11
1.702
 21
2.7641196606
 31
0.0
  0
LINE
  5
9A
330
1F
100
AcDbEntity
  8
REV-2
100
AcDbLine
 10
4.202
 20
2.4018050662
 30
0.0
 11
4.202
 21
2.5829623634
 31
0.0
  0
LINE
  5
9B
330
1F
100
AcDbEntity
  8
REV-3
100
AcDbLine
 10
4.202
 20
2.7641196606
 30
0.0
 11
4.202
 21
2.5829623634
 31
0.0
  0
LINE
  5
9C
330
1F
100
AcDbEntity
  8
BLANK-SIZE-2
100
AcDbLine
 10
0.25
 20
10.2935214866
 30
0.0
 11
1.9802740321
 21
10.2935214866
 31
0.0
  0
LINE
  5
9D
330
1F
100
AcDbEntity
  8
BLANK-SIZE-2
100
AcDbLine
 10
1.9802740321
 20
10.2935214866
 30
0.0
 11
1.9802740321
 21
10.5249446252
 31
0.0
  0
LINE
  5
9E
330
1F
100
AcDbEntity
  8
BLANK-SIZE-2
100
AcDbLine
 10
1.9802740321
 20
10.2935214866
 30
0.0
 11
2.2906228045
 21
10.2935214866
 31
0.0
  0
LINE
  5
9F
330
1F
100
AcDbEntity
  8
BLANK-SIZE-2
100
AcDbLine
 10
2.2906228045
 20
10.2935214866
 30
0.0
 11
2.2906228045
 21
10.5249446252
 31
0.0
  0
LINE
  5
A0
330
1F
100
AcDbEntity
  8
BLANK-SIZE-3
100
AcDbLine
 10
0.25
 20
10.0620983479
 30
0.0
 11
1.9802740321
 21
10.0620983479
 31
0.0
  0
LINE
  5
A1
330
1F
100
AcDbEntity
  8
BLANK-SIZE-3
100
AcDbLine
 10
1.9802740321
 20
10.0620983479
 30
0.0
 11
1.9802740321
 21
10.2935214866
 31
0.0
  0
LINE
  5
A2
330
1F
100
AcDbEntity
  8
BLANK-SIZE-3
100
AcDbLine
 10
1.9802740321
 20
10.0620983479
 30
0.0
 11
2.2906228045
 21
10.0620983479
 31
0.0
  0
LINE
  5
A3
330
1F
100
AcDbEntity
  8
BLANK-SIZE-3
100
AcDbLine
 10
2.2906228045
 20
10.0620983479
 30
0.0
 11
2.2906228045
 21
10.2935214866
 31
0.0
  0
LINE
  5
A4
330
1F
100
AcDbEntity
  8
BLANK-SIZE-4
100
AcDbLine
 10
0.25
 20
9.8306752093
 30
0.0
 11
1.9802740321
 21
9.8306752093
 31
0.0
  0
LINE
  5
A5
330
1F
100
AcDbEntity
  8
BLANK-SIZE-4
100
AcDbLine
 10
1.9802740321
 20
9.8306752093
 30
0.0
 11
1.9802740321
 21
10.0620983479
 31
0.0
  0
LINE
  5
A6
330
1F
100
AcDbEntity
  8
BLANK-SIZE-4
100
AcDbLine
 10
1.9802740321
 20
9.8306752093
 30
0.0
 11
2.2906228045
 21
9.8306752093
 31
0.0
  0
LINE
  5
A7
330
1F
100
AcDbEntity
  8
BLANK-SIZE-4
100
AcDbLine
 10
2.2906228045
 20
9.8306752093
 30
0.0
 11
2.2906228045
 21
10.0620983479
 31
0.0
  0
LINE
  5
A8
330
1F
100
AcDbEntity
  8
BLANK-SIZE-5
100
AcDbLine
 10
0.25
 20
9.5992520706
 30
0.0
 11
1.9802740321
 21
9.5992520706
 31
0.0
  0
LINE
  5
A9
330
1F
100
AcDbEntity
  8
BLANK-SIZE-5
100
AcDbLine
 10
1.9802740321
 20
9.5992520706
 30
0.0
 11
1.9802740321
 21
9.8306752093
 31
0.0
  0
LINE
  5
AA
330
1F
100
AcDbEntity
  8
BLANK-SIZE-5
100
AcDbLine
 10
1.9802740321
 20
9.5992520706
 30
0.0
 11
2.2906228045
 21
9.5992520706
 31
0.0
  0
LINE
  5
AB
330
1F
100
AcDbEntity
  8
BLANK-SIZE-5
100
AcDbLine
 10
2.2906228045
 20
9.5992520706
 30
0.0
 11
2.2906228045
 21
9.8306752093
 31
0.0
  0
MTEXT
  5
AD
330
1F
100
AcDbEntity
  8
REV-1
100
AcDbMText
 10
0.3976847055
 20
2.3453210917
 30
0.0
 40
0.072
 41
0.0
 71
     2
 72
     1
  1
A
  7
SLDTEXTSTYLE0
 73
     1
 44
1.0
  0
MTEXT
  5
AE
330
1F
100
AcDbEntity
  8
REV-2
100
AcDbMText
 10
0.3984784563
 20
2.5264783889
 30
0.0
 40
0.072
 41
0.0
 71
     2
 72
     1
  1
B
  7
SLDTEXTSTYLE0
 73
     1
 44
1.0
  0
MTEXT
  5
AF
330
1F
100
AcDbEntity
  8
REV-3
100
AcDbMText
 10
0.3977972056
 20
2.7076356861
 30
0.0
 40
0.072
 41
0.0
 71
     2
 72
     1
  1
C
  7
SLDTEXTSTYLE0
 73
     1
 44
1.0
  0
MTEXT
  5
B0
330
1F
100
AcDbEntity
  8
STAMP-AREA
100
AcDbMText
 10
1.1373617204
 20
10.113025596
 30
0.0
 40
0.1666666667
 41
0.0
 71
     1
 72
     1
  1
STAMP DETAIL AREA
  7
SLDTEXTSTYLE0
 73
     1
 44
1.0
  0
INSERT
  5
B9
330
1F
100
AcDbEntity
  8
TOP_MOUNT_PAINT
100
AcDbBlockReference
  2
SW_NOTE_0
 10
4.3555985743
 20
2.6546366237
 30
0.0
  0
MTEXT
  5
BA
330
1F
100
AcDbEntity
  8
BLANK-SIZE-2
100
AcDbMText
 10
2.0971479706
 20
10.463222502
 30
0.0
 40
0.1041666667
 41
0.0
 71
     1
 72
     1
  1
--
  7
SLDTEXTSTYLE1
 73
     1
 44
1.0
  0
MTEXT
  5
BB
330
1F
100
AcDbEntity
  8
BLANK-SIZE-2
100
AcDbMText
 10
0.3378807908
 20
10.463222502
 30
0.0
 40
0.1041666667
 41
0.0
 71
     1
 72
     1
  1
--
  7
SLDTEXTSTYLE1
 73
     1
 44
1.0
  0
MTEXT
  5
BC
330
1F
100
AcDbEntity
  8
BLANK-SIZE-3
100
AcDbMText
 10
0.3378807908
 20
10.2317993633
 30
0.0
 40
0.1041666667
 41
0.0
 71
     1
 72
     1
  1
--
  7
SLDTEXTSTYLE1
 73
     1
 44
1.0
  0
MTEXT
  5
BD
330
1F
100
AcDbEntity
  8
BLANK-SIZE-3
100
AcDbMText
 10
2.0971479706
 20
10.2317993633
 30
0.0
 40
0.1041666667
 41
0.0
 71
     1
 72
     1
  1
--
  7
SLDTEXTSTYLE1
 73
     1
 44
1.0
  0
MTEXT
  5
BE
330
1F
100
AcDbEntity
  8
BLANK-SIZE-4
100
AcDbMText
 10
2.0971479706
 20
10.0003762247
 30
0.0
 40
0.1041666667
 41
0.0
 71
     1
 72
     1
  1
--
  7
SLDTEXTSTYLE1
 73
     1
 44
1.0
  0
MTEXT
  5
BF
330
1F
100
AcDbEntity
  8
BLANK-SIZE-4
100
AcDbMText
 10
0.3378807908
 20
10.0003762247
 30
0.0
 40
0.1041666667
 41
0.0
 71
     1
 72
     1
  1
--
  7
SLDTEXTSTYLE1
 73
     1
 44
1.0
  0
MTEXT
  5
C0
330
1F
100
AcDbEntity
  8
BLANK-SIZE-5
100
AcDbMText
 10
0.3378807908
 20
9.768953086
 30
0.0
 40
0.1041666667
 41
0.0
 71
     1
 72
     1
  1
--
  7
SLDTEXTSTYLE1
 73
     1
 44
1.0
  0
MTEXT
  5
C1
330
1F
100
AcDbEntity
  8
BLANK-SIZE-5
100
AcDbMText
 10
2.0971479706
 20
9.768953086
 30
0.0
 40
0.1041666667
 41
0.0
 71
     1
 72
     1
  1
--
  7
SLDTEXTSTYLE1
 73
     1
 44
1.0
  0
MTEXT
  5
C2
330
1F
100
AcDbEntity
  8
BLANK-SIZE-2
100
AcDbMText
 10
0.7735977297
 20
0.9124839756
 30
0.0
 40
0.1041666667
 41
0.0
 71
     1
 72
     1
  1
--
  7
SLDTEXTSTYLE1
 73
     1
 44
1.0
  0
ARC
  5
C3
330
1F
100
AcDbEntity
  8
0
  6
Continuous
 62
     7
370
    30
100
AcDbCircle
 10
4.3552986619
 20
3.1609194813
 30
0.0
 40
0.0350000000000001
100
AcDbArc
 50
270.0
 51
360.0
  0
LINE
  5
C4
330
1F
100
AcDbEntity
  8
0
  6
Continuous
 62
     7
370
    30
100
AcDbLine
 10
4.3552986619
 20
3.1434194813
 30
0.0
 11
4.3552986619
 21
3.1259194813
 31
0.0
  0
ARC
  5
C5
330
1F
100
AcDbEntity
  8
0
  6
Continuous
 62
     7
370
    30
100
AcDbCircle
 10
4.3552986619
 20
3.1609194813
 30
0.0
 40
0.0175000000000001
100
AcDbArc
 50
270.0
 51
0.0
  0
LINE
  5
C6
330
1F
100
AcDbEntity
  8
0
  6
Continuous
 62
     7
370
    30
100
AcDbLine
 10
4.3727986619
 20
3.1609194813
 30
0.0
 11
4.3902986619
 21
3.1609194813
 31
0.0
  0
LINE
  5
C7
330
1F
100
AcDbEntity
  8
0
  6
Continuous
 62
     7
370
    30
100
AcDbLine
 10
3.9371736619
 20
3.1259194813
 30
0.0
 11
4.3552986619
 21
3.1259194813
 31
0.0
  0
LINE
  5
C8
330
1F
100
AcDbEntity
  8
0
  6
Continuous
 62
     7
370
    30
100
AcDbLine
 10
3.9371736619
 20
3.1434194813
 30
0.0
 11
3.9371736619
 21
3.1259194813
 31
0.0
  0
LINE
  5
C9
330
1F
100
AcDbEntity
  8
0
  6
Continuous
 62
     7
370
    30
100
AcDbLine
 10
3.9371736619
 20
3.1434194813
 30
0.0
 11
4.3552986619
 21
3.1434194813
 31
0.0
  0
LINE
  5
CA
330
1F
100
AcDbEntity
  8
0
  6
Continuous
 62
     7
370
    30
100
AcDbLine
 10
4.3902986619
 20
4.0740949676
 30
0.0
 11
4.3727986619
 21
4.0740949676
 31
0.0
  0
LINE
  5
CB
330
1F
100
AcDbEntity
  8
0
  6
Continuous
 62
     7
370
    30
100
AcDbLine
 10
4.3727986619
 20
4.0837517486
 30
0.0
 11
4.3902986619
 21
4.0837517486
 31
0.0
  0
LINE
  5
CC
330
1F
100
AcDbEntity
  8
0
  6
Continuous
 62
     7
370
    30
100
AcDbLine
 10
4.3902986619
 20
4.0837517486
 30
0.0
 11
4.3902986619
 21
4.0740949676
 31
0.0
  0
LINE
  5
CD
330
1F
100
AcDbEntity
  8
0
  6
Continuous
 62
     7
370
    30
100
AcDbLine
 10
4.3727986619
 20
4.0740949676
 30
0.0
 11
4.3727986619
 21
4.0837517486
 31
0.0
  0
ARC
  5
CE
330
1F
100
AcDbEntity
  8
0
  6
Continuous
 62
     7
370
    30
100
AcDbCircle
 10
3.9371736619
 20
3.1609194813
 30
0.0
 40
0.0349999999999997
100
AcDbArc
 50
180.0
 51
270.0
  0
LINE
  5
CF
330
1F
100
AcDbEntity
  8
0
  6
Continuous
 62
     7
370
    30
100
AcDbLine
 10
3.9196736619
 20
3.1609194813
 30
0.0
 11
3.9021736619
 21
3.1609194813
 31
0.0
  0
ARC
  5
D0
330
1F
100
AcDbEntity
  8
0
  6
Continuous
 62
     7
370
    30
100
AcDbCircle
 10
3.9371736619
 20
3.1609194813
 30
0.0
 40
0.0175000000000001
100
AcDbArc
 50
180.0
 51
270.0
  0
LINE
  5
D1
330
1F
100
AcDbEntity
  8
0
  6
Continuous
 62
     7
370
    30
100
AcDbLine
 10
4.3902986619
 20
4.0740949676
 30
0.0
 11
4.3902986619
 21
3.1609194813
 31
0.0
  0
LINE
  5
D2
330
1F
100
AcDbEntity
  8
0
  6
Continuous
 62
     7
370
    30
100
AcDbLine
 10
4.3727986619
 20
4.0740949676
 30
0.0
 11
4.3727986619
 21
3.1609194813
 31
0.0
  0
LINE
  5
D3
330
1F
100
AcDbEntity
  8
0
  6
Continuous
 62
     7
370
    30
100
AcDbLine
 10
3.9021736619
 20
4.0837517486
 30
0.0
 11
3.9196736619
 21
4.0837517486
 31
0.0
  0
LINE
  5
D4
330
1F
100
AcDbEntity
  8
0
  6
Continuous
 62
     7
370
    30
100
AcDbLine
 10
3.9196736619
 20
4.0837517486
 30
0.0
 11
3.9196736619
 21
4.0740949676
 31
0.0
  0
LINE
  5
D5
330
1F
100
AcDbEntity
  8
0
  6
Continuous
 62
     7
370
    30
100
AcDbLine
 10
3.9196736619
 20
4.0740949676
 30
0.0
 11
3.9021736619
 21
4.0740949676
 31
0.0
  0
LINE
  5
D6
330
1F
100
AcDbEntity
  8
0
  6
Continuous
 62
     7
370
    30
100
AcDbLine
 10
3.9021736619
 20
4.0740949676
 30
0.0
 11
3.9021736619
 21
4.0837517486
 31
0.0
  0
LINE
  5
D7
330
1F
100
AcDbEntity
  8
0
  6
Continuous
 62
     7
370
    30
100
AcDbLine
 10
3.9196736619
 20
3.1609194813
 30
0.0
 11
3.9196736619
 21
4.0740949676
 31
0.0
  0
LINE
  5
D8
330
1F
100
AcDbEntity
  8
0
  6
Continuous
 62
     7
370
    30
100
AcDbLine
 10
3.9021736619
 20
3.1609194813
 30
0.0
 11
3.9021736619
 21
4.0740949676
 31
0.0
  0
LINE
  5
D9
330
1F
100
AcDbEntity
  8
0
  6
Continuous
 62
     7
370
    30
100
AcDbLine
 10
3.9196736619
 20
5.3074512624
 30
0.0
 11
3.9021736619
 21
5.3074512624
 31
0.0
  0
LINE
  5
DA
330
1F
100
AcDbEntity
  8
0
  6
Continuous
 62
     7
370
    30
100
AcDbLine
 10
3.9196736619
 20
5.3074512624
 30
0.0
 11
3.9196736619
 21
4.0837517486
 31
0.0
  0
LINE
  5
DB
330
1F
100
AcDbEntity
  8
0
  6
Continuous
 62
     7
370
    30
100
AcDbLine
 10
3.9021736619
 20
5.3074512624
 30
0.0
 11
3.9021736619
 21
4.0837517486
 31
0.0
  0
LINE
  5
DC
330
1F
100
AcDbEntity
  8
0
  6
Continuous
 62
     7
370
    30
100
AcDbLine
 10
4.3902986619
 20
5.3074512624
 30
0.0
 11
4.3727986619
 21
5.3074512624
 31
0.0
  0
LINE
  5
DD
330
1F
100
AcDbEntity
  8
0
  6
Continuous
 62
     7
370
    30
100
AcDbLine
 10
4.3902986619
 20
4.0837517486
 30
0.0
 11
4.3902986619
 21
5.3074512624
 31
0.0
  0
LINE
  5
DE
330
1F
100
AcDbEntity
  8
0
  6
Continuous
 62
     7
370
    30
100
AcDbLine
 10
4.3727986619
 20
4.0837517486
 30
0.0
 11
4.3727986619
 21
5.3074512624
 31
0.0
  0
LINE
  5
DF
330
1F
100
AcDbEntity
  8
0
  6
Continuous
 62
     7
370
    30
100
AcDbLine
 10
3.9021736619
 20
5.3290444813
 30
0.0
 11
3.9196736619
 21
5.3290444813
 31
0.0
  0
LINE
  5
E0
330
1F
100
AcDbEntity
  8
0
  6
Continuous
 62
     7
370
    30
100
AcDbLine
 10
3.9196736619
 20
5.3290444813
 30
0.0
 11
3.9196736619
 21
5.3074512624
 31
0.0
  0
LINE
  5
E1
330
1F
100
AcDbEntity
  8
0
  6
Continuous
 62
     7
370
    30
100
AcDbLine
 10
3.9021736619
 20
5.3074512624
 30
0.0
 11
3.9021736619
 21
5.3290444813
 31
0.0
  0
LINE
  5
E2
330
1F
100
AcDbEntity
  8
0
  6
Continuous
 62
     7
370
    30
100
AcDbLine
 10
4.3727986619
 20
5.3290444813
 30
0.0
 11
4.3902986619
 21
5.3290444813
 31
0.0
  0
LINE
  5
E3
330
1F
100
AcDbEntity
  8
0
  6
Continuous
 62
     7
370
    30
100
AcDbLine
 10
4.3902986619
 20
5.3290444813
 30
0.0
 11
4.3902986619
 21
5.3074512624
 31
0.0
  0
LINE
  5
E4
330
1F
100
AcDbEntity
  8
0
  6
Continuous
 62
     7
370
    30
100
AcDbLine
 10
4.3727986619
 20
5.3074512624
 30
0.0
 11
4.3727986619
 21
5.3290444813
 31
0.0
  0
LINE
  5
E5
330
1F
100
AcDbEntity
  8
0
  6
Continuous
 62
     7
370
    30
100
AcDbLine
 10
4.3727986619
 20
3.2684194813
 30
0.0
 11
4.3552986619
 21
3.2684194813
 31
0.0
  0
LINE
  5
E6
330
1F
100
AcDbEntity
  8
0
  6
Continuous
 62
     7
370
    30
100
AcDbLine
 10
4.3552986619
 20
5.3290444813
 30
0.0
 11
4.3552986619
 21
3.2684194813
 31
0.0
  0
LINE
  5
E7
330
1F
100
AcDbEntity
  8
0
  6
Continuous
 62
     7
370
    30
100
AcDbLine
 10
4.3552986619
 20
5.3290444813
 30
0.0
 11
4.3727986619
 21
5.3290444813
 31
0.0
  0
LINE
  5
E8
330
1F
100
AcDbEntity
  8
0
  6
Continuous
 62
     7
370
    30
100
AcDbLine
 10
3.9371736619
 20
3.2684194813
 30
0.0
 11
3.9371736619
 21
5.3290444813
 31
0.0
  0
LINE
  5
E9
330
1F
100
AcDbEntity
  8
0
  6
Continuous
 62
     7
370
    30
100
AcDbLine
 10
3.9371736619
 20
3.2684194813
 30
0.0
 11
3.9196736619
 21
3.2684194813
 31
0.0
  0
LINE
  5
EA
330
1F
100
AcDbEntity
  8
0
  6
Continuous
 62
     7
370
    30
100
AcDbLine
 10
3.9196736619
 20
5.3290444813
 30
0.0
 11
3.9371736619
 21
5.3290444813
 31
0.0
  0
LINE
  5
EB
330
1F
100
AcDbEntity
  8
0
  6
Continuous
 62
     7
370
    30
100
AcDbLine
 10
3.9371736619
 20
5.3290444813
 30
0.0
 11
4.1056236619
 21
5.3290444813
 31
0.0
  0
LINE
  5
EC
330
1F
100
AcDbEntity
  8
0
  6
Continuous
 62
     7
370
    30
100
AcDbLine
 10
4.1014369557
 20
3.7032123367
 30
0.0
 11
4.1056236619
 21
3.695960749
 31
0.0
  0
ARC
  5
ED
330
1F
100
AcDbEntity
  8
0
  6
Continuous
 62
     7
370
    30
100
AcDbCircle
 10
4.0743736619
 20
3.6875873367
 30
0.0
 40
0.03125
100
AcDbArc
 50
30.0
 51
180.0
  0
LINE
  5
EE
330
1F
100
AcDbEntity
  8
0
  6
Continuous
 62
     7
370
    30
100
AcDbLine
 10
4.0431236619
 20
3.6875873367
 30
0.0
 11
4.0431236619
 21
3.2996694813
 31
0.0
  0
ARC
  5
EF
330
1F
100
AcDbEntity
  8
0
  6
Continuous
 62
     7
370
    30
100
AcDbCircle
 10
4.0118736619
 20
3.2996694813
 30
0.0
 40
0.03125
100
AcDbArc
 50
270.0
 51
0.0
  0
LINE
  5
F0
330
1F
100
AcDbEntity
  8
0
  6
Continuous
 62
     7
370
    30
100
AcDbLine
 10
4.0118736619
 20
3.2684194813
 30
0.0
 11
3.9371736619
 21
3.2684194813
 31
0.0
  0
SPLINE
  5
F1
330
1F
100
AcDbEntity
  8
0
  6
Continuous
 62
     7
370
    30
100
AcDbSpline
210
0.0
220
0.0
230
1.0
 70
     8
 71
     3
 72
    14
 73
    10
 74
     0
 42
0.000000001
 43
0.00000001
 40
0.0
 40
0.0
 40
0.0
 40
0.0
 40
0.25
 40
0.25
 40
0.5
 40
0.5
 40
0.75
 40
0.75
 40
1.0
 40
1.0
 40
1.0
 40
1.0
 10
4.123123661857531
 20
3.629303622367616
 30
0.0
 10
4.123123661857531
 20
3.634858382920584
 30
0.0
 10
4.122668183699226
 20
3.640413143473552
 30
0.0
 10
4.12091492365373
 20
3.651522664579486
 30
0.0
 10
4.119617831599498
 20
3.657077425132454
 30
0.0
 10
4.116378229457092
 20
3.668186946238389
 30
0.0
 10
4.114436994014021
 20
3.673741706791357
 30
0.0
 10
4.110204249833817
 20
3.684851227897292
 30
0.0
 10
4.107914406500772
 20
3.69040598845026
 30
0.0
 10
4.10562366185753
 20
3.695960749003227
 30
0.0
  0
SPLINE
  5
F2
330
1F
100
AcDbEntity
  8
0
  6
Continuous
 62
     7
370
    30
100
AcDbSpline
210
0.0
220
0.0
230
1.0
 70
     8
 71
     3
 72
    14
 73
    10
 74
     0
 42
0.000000001
 43
0.00000001
 40
0.0
 40
0.0
 40
0.0
 40
0.0
 40
0.25
 40
0.25
 40
0.5
 40
0.5
 40
0.75
 40
0.75
 40
1.0
 40
1.0
 40
1.0
 40
1.0
 10
4.140623661857531
 20
3.629303622367616
 30
0.0
 10
4.140623661857531
 20
3.634858788389492
 30
0.0
 10
4.139712705540922
 20
3.640413143473552
 30
0.0
 10
4.13620618544993
 20
3.651522664579486
 30
0.0
 10
4.133612001341466
 20
3.657077425132454
 30
0.0
 10
4.127132797056651
 20
3.668186946238389
 30
0.0
 10
4.123250326170511
 20
3.673741706791357
 30
0.0
 10
4.114784837810103
 20
3.684851227897292
 30
0.0
 10
4.110205485569132
 20
3.690405582981351
 30
0.0
 10
4.105623661857528
 20
3.695960749003227
 30
0.0
  0
LINE
  5
F3
330
1F
100
AcDbEntity
  8
0
  6
Continuous
 62
     7
370
    30
100
AcDbLine
 10
4.1231236619
 20
3.6293036224
 30
0.0
 11
4.1406236619
 21
3.6293036224
 31
0.0
  0
LINE
  5
F4
330
1F
100
AcDbEntity
  8
0
  6
Continuous
 62
     7
370
    30
100
AcDbLine
 10
4.1056236619
 20
5.3290444813
 30
0.0
 11
4.1406236619
 21
5.3290444813
 31
0.0
  0
LINE
  5
F5
330
1F
100
AcDbEntity
  8
0
  6
Continuous
 62
     7
370
    30
100
AcDbLine
 10
4.1406236619
 20
3.6293036224
 30
0.0
 11
4.1406236619
 21
5.3290444813
 31
0.0
  0
SPLINE
  5
F6
330
1F
100
AcDbEntity
  8
0
  6
Continuous
 62
     7
370
    30
100
AcDbSpline
210
0.0
220
0.0
230
1.0
 70
     8
 71
     3
 72
    14
 73
    10
 74
     0
 42
0.000000001
 43
0.00000001
 40
0.0
 40
0.0
 40
0.0
 40
0.0
 40
0.25
 40
0.25
 40
0.5
 40
0.5
 40
0.75
 40
0.75
 40
1.0
 40
1.0
 40
1.0
 40
1.0
 10
4.186848661857546
 20
3.727210749003223
 30
0.0
 10
4.184557917214303
 20
3.721655988450256
 30
0.0
 10
4.182268073881259
 20
3.716101227897288
 30
0.0
 10
4.178035329701055
 20
3.704991706791353
 30
0.0
 10
4.176094094257985
 20
3.699436946238386
 30
0.0
 10
4.172854492115578
 20
3.688327425132452
 30
0.0
 10
4.171557400061346
 20
3.682772664579484
 30
0.0
 10
4.16980414001585
 20
3.67166314347355
 30
0.0
 10
4.169348661857545
 20
3.666108382920582
 30
0.0
 10
4.169348661857545
 20
3.660553622367615
 30
0.0
  0
LINE
  5
F7
330
1F
100
AcDbEntity
  8
0
  6
Continuous
 62
     7
370
    30
100
AcDbLine
 10
4.1693486619
 20
3.6605536224
 30
0.0
 11
4.1518486619
 21
3.6605536224
 31
0.0
  0
SPLINE
  5
F8
330
1F
100
AcDbEntity
  8
0
  6
Continuous
 62
     7
370
    30
100
AcDbSpline
210
0.0
220
0.0
230
1.0
 70
     8
 71
     3
 72
    14
 73
    10
 74
     0
 42
0.000000001
 43
0.00000001
 40
0.0
 40
0.0
 40
0.0
 40
0.0
 40
0.25
 40
0.25
 40
0.5
 40
0.5
 40
0.75
 40
0.75
 40
1.0
 40
1.0
 40
1.0
 40
1.0
 10
4.186848661857548
 20
3.727210749003223
 30
0.0
 10
4.182266838145944
 20
3.721655582981348
 30
0.0
 10
4.177687485904972
 20
3.716101227897288
 30
0.0
 10
4.169221997544565
 20
3.704991706791353
 30
0.0
 10
4.165339526658424
 20
3.699436946238386
 30
0.0
 10
4.158860322373609
 20
3.688327425132452
 30
0.0
 10
4.156266138265146
 20
3.682772664579484
 30
0.0
 10
4.152759618174154
 20
3.67166314347355
 30
0.0
 10
4.151848661857545
 20
3.66610878838949
 30
0.0
 10
4.151848661857545
 20
3.660553622367615
 30
0.0
  0
ARC
  5
F9
330
1F
100
AcDbEntity
  8
0
  6
Continuous
 62
     7
370
    30
100
AcDbCircle
 10
4.2180986619
 20
3.7188373367
 30
0.0
 40
0.03125
100
AcDbArc
 50
0.0
 51
150.0
  0
LINE
  5
FA
330
1F
100
AcDbEntity
  8
0
  6
Continuous
 62
     7
370
    30
100
AcDbLine
 10
4.1868486619
 20
3.727210749
 30
0.0
 11
4.191035368
 21
3.7344623367
 31
0.0
  0
LINE
  5
FB
330
1F
100
AcDbEntity
  8
0
  6
Continuous
 62
     7
370
    30
100
AcDbLine
 10
4.1868486619
 20
5.3290444813
 30
0.0
 11
4.3552986619
 21
5.3290444813
 31
0.0
  0
LINE
  5
FC
330
1F
100
AcDbEntity
  8
0
  6
Continuous
 62
     7
370
    30
100
AcDbLine
 10
4.3552986619
 20
3.2684194813
 30
0.0
 11
4.2805986619
 21
3.2684194813
 31
0.0
  0
ARC
  5
FD
330
1F
100
AcDbEntity
  8
0
  6
Continuous
 62
     7
370
    30
100
AcDbCircle
 10
4.2805986619
 20
3.2996694813
 30
0.0
 40
0.03125
100
AcDbArc
 50
180.0
 51
270.0
  0
LINE
  5
FE
330
1F
100
AcDbEntity
  8
0
  6
Continuous
 62
     7
370
    30
100
AcDbLine
 10
4.2493486619
 20
3.2996694813
 30
0.0
 11
4.2493486619
 21
3.7188373367
 31
0.0
  0
LINE
  5
FF
330
1F
100
AcDbEntity
  8
0
  6
Continuous
 62
     7
370
    30
100
AcDbLine
 10
4.1518486619
 20
5.3290444813
 30
0.0
 11
4.1868486619
 21
5.3290444813
 31
0.0
  0
LINE
  5
100
330
1F
100
AcDbEntity
  8
0
  6
Continuous
 62
     7
370
    30
100
AcDbLine
 10
4.1518486619
 20
5.3290444813
 30
0.0
 11
4.1518486619
 21
3.6605536224
 31
0.0
  0
LINE
  5
101
330
1F
100
AcDbEntity
  8
0
  6
Continuous
 62
     7
370
    30
100
AcDbLine
 10
4.1693486619
 20
3.3915444813
 30
0.0
 11
4.1518486619
 21
3.3915444813
 31
0.0
  0
LINE
  5
102
330
1F
100
AcDbEntity
  8
0
  6
Continuous
 62
     7
370
    30
100
AcDbLine
 10
4.1693486619
 20
3.6605536224
 30
0.0
 11
4.1693486619
 21
3.3915444813
 31
0.0
  0
LINE
  5
103
330
1F
100
AcDbEntity
  8
0
  6
Continuous
 62
     7
370
    30
100
AcDbLine
 10
4.1518486619
 20
3.6605536224
 30
0.0
 11
4.1518486619
 21
3.3915444813
 31
0.0
  0
LINE
  5
104
330
1F
100
AcDbEntity
  8
0
  6
Continuous
 62
     7
370
    30
100
AcDbLine
 10
4.1231236619
 20
3.3602944813
 30
0.0
 11
4.1406236619
 21
3.3602944813
 31
0.0
  0
LINE
  5
105
330
1F
100
AcDbEntity
  8
0
  6
Continuous
 62
     7
370
    30
100
AcDbLine
 10
4.1231236619
 20
3.3602944813
 30
0.0
 11
4.1231236619
 21
3.6293036224
 31
0.0
  0
LINE
  5
106
330
1F
100
AcDbEntity
  8
0
  6
Continuous
 62
     7
370
    30
100
AcDbLine
 10
4.1406236619
 20
3.3602944813
 30
0.0
 11
4.1406236619
 21
3.6293036224
 31
0.0
  0
LINE
  5
107
330
1F
100
AcDbEntity
  8
0
  6
Continuous
 62
     7
370
    30
100
AcDbLine
 10
4.1693486619
 20
5.3915444813
 30
0.0
 11
4.1518486619
 21
5.3915444813
 31
0.0
  0
LINE
  5
108
330
1F
100
AcDbEntity
  8
0
  6
Continuous
 62
     7
370
    30
100
AcDbLine
 10
4.1693486619
 20
5.3915444813
 30
0.0
 11
4.1693486619
 21
5.3290444813
 31
0.0
  0
LINE
  5
109
330
1F
100
AcDbEntity
  8
0
  6
Continuous
 62
     7
370
    30
100
AcDbLine
 10
4.1518486619
 20
5.3915444813
 30
0.0
 11
4.1518486619
 21
5.3290444813
 31
0.0
  0
LINE
  5
10A
330
1F
100
AcDbEntity
  8
0
  6
Continuous
 62
     7
370
    30
100
AcDbLine
 10
4.1518486619
 20
5.4227944813
 30
0.0
 11
4.1693486619
 21
5.4227944813
 31
0.0
  0
LINE
  5
10B
330
1F
100
AcDbEntity
  8
0
  6
Continuous
 62
     7
370
    30
100
AcDbLine
 10
4.1693486619
 20
5.4227944813
 30
0.0
 11
4.1693486619
 21
5.3915444813
 31
0.0
  0
LINE
  5
10C
330
1F
100
AcDbEntity
  8
0
  6
Continuous
 62
     7
370
    30
100
AcDbLine
 10
4.1518486619
 20
5.3915444813
 30
0.0
 11
4.1518486619
 21
5.4227944813
 31
0.0
  0
LINE
  5
10D
330
1F
100
AcDbEntity
  8
0
  6
Continuous
 62
     7
370
    30
100
AcDbLine
 10
4.1406236619
 20
5.3915444813
 30
0.0
 11
4.1231236619
 21
5.3915444813
 31
0.0
  0
LINE
  5
10E
330
1F
100
AcDbEntity
  8
0
  6
Continuous
 62
     7
370
    30
100
AcDbLine
 10
4.1231236619
 20
5.3290444813
 30
0.0
 11
4.1231236619
 21
5.3915444813
 31
0.0
  0
LINE
  5
10F
330
1F
100
AcDbEntity
  8
0
  6
Continuous
 62
     7
370
    30
100
AcDbLine
 10
4.1406236619
 20
5.3290444813
 30
0.0
 11
4.1406236619
 21
5.3915444813
 31
0.0
  0
LINE
  5
110
330
1F
100
AcDbEntity
  8
0
  6
Continuous
 62
     7
370
    30
100
AcDbLine
 10
4.1231236619
 20
5.4227944813
 30
0.0
 11
4.1406236619
 21
5.4227944813
 31
0.0
  0
LINE
  5
111
330
1F
100
AcDbEntity
  8
0
  6
Continuous
 62
     7
370
    30
100
AcDbLine
 10
4.1231236619
 20
5.3915444813
 30
0.0
 11
4.1231236619
 21
5.4227944813
 31
0.0
  0
LINE
  5
112
330
1F
100
AcDbEntity
  8
0
  6
Continuous
 62
     7
370
    30
100
AcDbLine
 10
4.1406236619
 20
5.4227944813
 30
0.0
 11
4.1406236619
 21
5.3915444813
 31
0.0
  0
LINE
  5
113
330
1F
100
AcDbEntity
  8
0
  6
Continuous
 62
     7
370
    30
100
AcDbLine
 10
4.1868486619
 20
5.4227944813
 30
0.0
 11
4.1693486619
 21
5.4227944813
 31
0.0
  0
LINE
  5
114
330
1F
100
AcDbEntity
  8
0
  6
Continuous
 62
     7
370
    30
100
AcDbLine
 10
4.1868486619
 20
5.3290444813
 30
0.0
 11
4.1868486619
 21
5.4227944813
 31
0.0
  0
LINE
  5
115
330
1F
100
AcDbEntity
  8
0
  6
Continuous
 62
     7
370
    30
100
AcDbLine
 10
4.1056236619
 20
5.4227944813
 30
0.0
 11
4.1056236619
 21
5.3290444813
 31
0.0
  0
LINE
  5
116
330
1F
100
AcDbEntity
  8
0
  6
Continuous
 62
     7
370
    30
100
AcDbLine
 10
4.1231236619
 20
5.4227944813
 30
0.0
 11
4.1056236619
 21
5.4227944813
 31
0.0
  0
LINE
  5
117
330
1F
100
AcDbEntity
  8
0
  6
Continuous
 62
     7
370
    30
100
AcDbLine
 10
4.7318486619
 20
4.9721142865
 30
0.0
 11
4.763668467
 21
4.9402944813
 31
0.0
  0
LINE
  5
118
330
1F
100
AcDbEntity
  8
0
  6
Continuous
 62
     7
370
    30
100
AcDbLine
 10
4.7000288567
 20
4.9402944813
 30
0.0
 11
4.7318486619
 21
4.9721142865
 31
0.0
  0
LINE
  5
119
330
1F
100
AcDbEntity
  8
0
  6
Continuous
 62
     7
370
    30
100
AcDbLine
 10
4.7318486619
 20
4.9084746762
 30
0.0
 11
4.7000288567
 21
4.9402944813
 31
0.0
  0
LINE
  5
11A
330
1F
100
AcDbEntity
  8
0
  6
Continuous
 62
     7
370
    30
100
AcDbLine
 10
4.763668467
 20
4.9402944813
 30
0.0
 11
4.7318486619
 21
4.9084746762
 31
0.0
  0
LINE
  5
11B
330
1F
100
AcDbEntity
  8
0
  6
Continuous
 62
     7
370
    30
100
AcDbLine
 10
4.1868486619
 20
5.4227944813
 30
0.0
 11
4.2006111619
 21
5.4227944813
 31
0.0
  0
ARC
  5
11C
330
1F
100
AcDbEntity
  8
0
  6
Continuous
 62
     7
370
    30
100
AcDbCircle
 10
4.2006111619
 20
5.4540444813
 30
0.0
 40
0.03125
100
AcDbArc
 50
270.0
 51
0.0
  0
LINE
  5
11D
330
1F
100
AcDbEntity
  8
0
  6
Continuous
 62
     7
370
    30
100
AcDbLine
 10
4.2318611619
 20
5.4540444813
 30
0.0
 11
4.2318611619
 21
5.4852944813
 31
0.0
  0
LINE
  5
11E
330
1F
100
AcDbEntity
  8
0
  6
Continuous
 62
     7
370
    30
100
AcDbLine
 10
4.9193611619
 20
5.4852944813
 30
0.0
 11
4.9193611619
 21
5.4227944813
 31
0.0
  0
LINE
  5
11F
330
1F
100
AcDbEntity
  8
0
  6
Continuous
 62
     7
370
    30
100
AcDbLine
 10
4.9193611619
 20
5.4227944813
 30
0.0
 11
4.9193486619
 21
5.4227944813
 31
0.0
  0
LINE
  5
120
330
1F
100
AcDbEntity
  8
0
  6
Continuous
 62
     7
370
    30
100
AcDbLine
 10
4.9193486619
 20
5.4227944813
 30
0.0
 11
4.9193486619
 21
5.2089939951
 31
0.0
  0
ARC
  5
121
330
1F
100
AcDbEntity
  8
0
  6
Continuous
 62
     7
370
    30
100
AcDbCircle
 10
4.8880986619
 20
5.2089939951
 30
0.0
 40
0.03125
100
AcDbArc
 50
342.0
 51
0.0
  0
LINE
  5
122
330
1F
100
AcDbEntity
  8
0
  6
Continuous
 62
     7
370
    30
100
AcDbLine
 10
4.3902986619
 20
3.575796006
 30
0.0
 11
4.917819178
 21
5.199337214
 31
0.0
  0
LINE
  5
123
330
1F
100
AcDbEntity
  8
0
  6
Continuous
 62
     7
370
    30
100
AcDbLine
 10
3.3746531457
 20
5.199337214
 30
0.0
 11
3.9021736619
 21
3.575796006
 31
0.0
  0
ARC
  5
124
330
1F
100
AcDbEntity
  8
0
  6
Continuous
 62
     7
370
    30
100
AcDbCircle
 10
3.4043736619
 20
5.2089939951
 30
0.0
 40
0.0312500000000004
100
AcDbArc
 50
180.0
 51
198.0
  0
LINE
  5
125
330
1F
100
AcDbEntity
  8
0
  6
Continuous
 62
     7
370
    30
100
AcDbLine
 10
3.3731236619
 20
5.2089939951
 30
0.0
 11
3.3731236619
 21
5.4852944813
 31
0.0
  0
LINE
  5
126
330
1F
100
AcDbEntity
  8
0
  6
Continuous
 62
     7
370
    30
100
AcDbLine
 10
4.0606236619
 20
5.4852944813
 30
0.0
 11
4.0606236619
 21
5.4540444813
 31
0.0
  0
ARC
  5
127
330
1F
100
AcDbEntity
  8
0
  6
Continuous
 62
     7
370
    30
100
AcDbCircle
 10
4.0918736619
 20
5.4540444813
 30
0.0
 40
0.0312500000000009
100
AcDbArc
 50
180.0
 51
270.0
  0
LINE
  5
128
330
1F
100
AcDbEntity
  8
0
  6
Continuous
 62
     7
370
    30
100
AcDbLine
 10
4.0918736619
 20
5.4227944813
 30
0.0
 11
4.1056236619
 21
5.4227944813
 31
0.0
  0
LINE
  5
129
330
1F
100
AcDbEntity
  8
0
  6
Continuous
 62
     7
370
    30
100
AcDbLine
 10
3.592443467
 20
4.9402944813
 30
0.0
 11
3.5606236619
 21
4.9721142865
 31
0.0
  0
LINE
  5
12A
330
1F
100
AcDbEntity
  8
0
  6
Continuous
 62
     7
370
    30
100
AcDbLine
 10
3.5606236619
 20
4.9721142865
 30
0.0
 11
3.5288038567
 21
4.9402944813
 31
0.0
  0
LINE
  5
12B
330
1F
100
AcDbEntity
  8
0
  6
Continuous
 62
     7
370
    30
100
AcDbLine
 10
3.5288038567
 20
4.9402944813
 30
0.0
 11
3.5606236619
 21
4.9084746762
 31
0.0
  0
LINE
  5
12C
330
1F
100
AcDbEntity
  8
0
  6
Continuous
 62
     7
370
    30
100
AcDbLine
 10
3.5606236619
 20
4.9084746762
 30
0.0
 11
3.592443467
 21
4.9402944813
 31
0.0
  0
LINE
  5
12D
330
1F
100
AcDbEntity
  8
0
  6
Continuous
 62
     7
370
    30
100
AcDbLine
 10
4.2318611619
 20
5.5202944813
 30
0.0
 11
4.2318611619
 21
5.4852944813
 31
0.0
  0
LINE
  5
12E
330
1F
100
AcDbEntity
  8
0
  6
Continuous
 62
     7
370
    30
100
AcDbLine
 10
4.9193611619
 20
5.5202944813
 30
0.0
 11
4.2318611619
 21
5.5202944813
 31
0.0
  0
LINE
  5
12F
330
1F
100
AcDbEntity
  8
0
  6
Continuous
 62
     7
370
    30
100
AcDbLine
 10
4.9193611619
 20
5.4852944813
 30
0.0
 11
4.9193611619
 21
5.5202944813
 31
0.0
  0
LINE
  5
130
330
1F
100
AcDbEntity
  8
0
  6
Continuous
 62
     7
370
    30
100
AcDbLine
 10
3.3731236619
 20
5.5202944813
 30
0.0
 11
3.3731236619
 21
5.4852944813
 31
0.0
  0
LINE
  5
131
330
1F
100
AcDbEntity
  8
0
  6
Continuous
 62
     7
370
    30
100
AcDbLine
 10
4.0606236619
 20
5.5202944813
 30
0.0
 11
3.3731236619
 21
5.5202944813
 31
0.0
  0
LINE
  5
132
330
1F
100
AcDbEntity
  8
0
  6
Continuous
 62
     7
370
    30
100
AcDbLine
 10
4.0606236619
 20
5.4852944813
 30
0.0
 11
4.0606236619
 21
5.5202944813
 31
0.0
  0
LINE
  5
133
330
1F
100
AcDbEntity
  8
OBJ
  6
CENTERX2
100
AcDbLine
 10
3.3899755621
 20
5.5027944813
 30
0.0
 11
4.0387861865
 21
5.5027944813
 31
0.0
  0
LINE
  5
134
330
1F
100
AcDbEntity
  8
OBJ
  6
CENTERX2
100
AcDbLine
 10
4.2504154031
 20
5.5027944813
 30
0.0
 11
4.8880876477
 21
5.5027944813
 31
0.0
  0
LINE
  5
135
330
1F
100
AcDbEntity
  8
OBJ
  6
CENTERX2
100
AcDbLine
 10
4.1231236619
 20
5.3290444813
 30
0.0
 11
4.1231236619
 21
4.8752560992
 31
0.0
  0
LINE
  5
136
330
1F
100
AcDbEntity
  8
0
  6
Continuous
 62
     7
370
    30
100
AcDbLine
 10
2.4890796338
 20
5.5202944813
 30
0.0
 11
2.4890796338
 21
5.5027944813
 31
0.0
  0
LINE
  5
137
330
1F
100
AcDbEntity
  8
0
  6
Continuous
 62
     7
370
    30
100
AcDbLine
 10
2.4578296338
 20
5.5027944813
 30
0.0
 11
2.4578296338
 21
5.5202944813
 31
0.0
  0
LINE
  5
138
330
1F
100
AcDbEntity
  8
0
  6
Continuous
 62
     7
370
    30
100
AcDbLine
 10
2.4578296338
 20
5.5202944813
 30
0.0
 11
2.4890796338
 21
5.5202944813
 31
0.0
  0
LINE
  5
139
330
1F
100
AcDbEntity
  8
0
  6
Continuous
 62
     7
370
    30
100
AcDbLine
 10
2.4890796338
 20
5.5027944813
 30
0.0
 11
2.4578296338
 21
5.5027944813
 31
0.0
  0
LINE
  5
13A
330
1F
100
AcDbEntity
  8
0
  6
Continuous
 62
     7
370
    30
100
AcDbLine
 10
1.8503296338
 20
5.5027944813
 30
0.0
 11
1.8503296338
 21
5.5202944813
 31
0.0
  0
LINE
  5
13B
330
1F
100
AcDbEntity
  8
0
  6
Continuous
 62
     7
370
    30
100
AcDbLine
 10
1.8503296338
 20
5.5202944813
 30
0.0
 11
2.4578296338
 21
5.5202944813
 31
0.0
  0
LINE
  5
13C
330
1F
100
AcDbEntity
  8
0
  6
Continuous
 62
     7
370
    30
100
AcDbLine
 10
1.8503296338
 20
5.5027944813
 30
0.0
 11
2.4578296338
 21
5.5027944813
 31
0.0
  0
LINE
  5
13D
330
1F
100
AcDbEntity
  8
0
  6
Continuous
 62
     7
370
    30
100
AcDbLine
 10
1.8153296338
 20
5.4227944813
 30
0.0
 11
1.8328296338
 21
5.4227944813
 31
0.0
  0
LINE
  5
13E
330
1F
100
AcDbEntity
  8
0
  6
Continuous
 62
     7
370
    30
100
AcDbLine
 10
1.8153296338
 20
5.4852944813
 30
0.0
 11
1.8328296338
 21
5.4852944813
 31
0.0
  0
LINE
  5
13F
330
1F
100
AcDbEntity
  8
0
  6
Continuous
 62
     7
370
    30
100
AcDbLine
 10
1.8153296338
 20
5.4852944813
 30
0.0
 11
1.8153296338
 21
5.4227944813
 31
0.0
  0
LINE
  5
140
330
1F
100
AcDbEntity
  8
0
  6
Continuous
 62
     7
370
    30
100
AcDbLine
 10
1.8328296338
 20
5.4852944813
 30
0.0
 11
1.8328296338
 21
5.4227944813
 31
0.0
  0
ARC
  5
141
330
1F
100
AcDbEntity
  8
0
  6
Continuous
 62
     7
370
    30
100
AcDbCircle
 10
1.8503296338
 20
5.4852944813
 30
0.0
 40
0.0175000000000001
100
AcDbArc
 50
90.0
 51
180.0
  0
ARC
  5
142
330
1F
100
AcDbEntity
  8
0
  6
Continuous
 62
     7
370
    30
100
AcDbCircle
 10
1.8503296338
 20
5.4852944813
 30
0.0
 40
0.0350000000000001
100
AcDbArc
 50
90.0
 51
180.0
  0
LINE
  5
143
330
1F
100
AcDbEntity
  8
0
  6
Continuous
 62
     7
370
    30
100
AcDbLine
 10
1.8153296338
 20
5.2089939951
 30
0.0
 11
1.8328296338
 21
5.2089939951
 31
0.0
  0
LINE
  5
144
330
1F
100
AcDbEntity
  8
0
  6
Continuous
 62
     7
370
    30
100
AcDbLine
 10
1.8328296338
 20
5.199337214
 30
0.0
 11
1.8153296338
 21
5.199337214
 31
0.0
  0
LINE
  5
145
330
1F
100
AcDbEntity
  8
0
  6
Continuous
 62
     7
370
    30
100
AcDbLine
 10
1.8153296338
 20
5.199337214
 30
0.0
 11
1.8153296338
 21
5.2089939951
 31
0.0
  0
LINE
  5
146
330
1F
100
AcDbEntity
  8
0
  6
Continuous
 62
     7
370
    30
100
AcDbLine
 10
1.8328296338
 20
5.2089939951
 30
0.0
 11
1.8328296338
 21
5.199337214
 31
0.0
  0
LINE
  5
147
330
1F
100
AcDbEntity
  8
0
  6
Continuous
 62
     7
370
    30
100
AcDbLine
 10
1.8153296338
 20
5.4227944813
 30
0.0
 11
1.8153296338
 21
5.2089939951
 31
0.0
  0
LINE
  5
148
330
1F
100
AcDbEntity
  8
0
  6
Continuous
 62
     7
370
    30
100
AcDbLine
 10
1.8328296338
 20
5.4227944813
 30
0.0
 11
1.8328296338
 21
5.2089939951
 31
0.0
  0
LINE
  5
149
330
1F
100
AcDbEntity
  8
0
  6
Continuous
 62
     7
370
    30
100
AcDbLine
 10
1.8153296338
 20
3.3506377002
 30
0.0
 11
1.8328296338
 21
3.3506377002
 31
0.0
  0
LINE
  5
14A
330
1F
100
AcDbEntity
  8
0
  6
Continuous
 62
     7
370
    30
100
AcDbLine
 10
1.8153296338
 20
3.3506377002
 30
0.0
 11
1.8153296338
 21
5.199337214
 31
0.0
  0
LINE
  5
14B
330
1F
100
AcDbEntity
  8
0
  6
Continuous
 62
     7
370
    30
100
AcDbLine
 10
1.8328296338
 20
3.3506377002
 30
0.0
 11
1.8328296338
 21
5.199337214
 31
0.0
  0
LINE
  5
14C
330
1F
100
AcDbEntity
  8
0
  6
Continuous
 62
     7
370
    30
100
AcDbLine
 10
1.4209546338
 20
3.2684194813
 30
0.0
 11
1.4347046338
 21
3.2684194813
 31
0.0
  0
ARC
  5
14D
330
1F
100
AcDbEntity
  8
0
  6
Continuous
 62
     7
370
    30
100
AcDbCircle
 10
1.4209546338
 20
3.2371694813
 30
0.0
 40
0.0312500000000004
100
AcDbArc
 50
90.0
 51
180.0
  0
LINE
  5
14E
330
1F
100
AcDbEntity
  8
0
  6
Continuous
 62
     7
370
    30
100
AcDbLine
 10
1.3897046338
 20
3.1609194813
 30
0.0
 11
1.3897046338
 21
3.2371694813
 31
0.0
  0
LINE
  5
14F
330
1F
100
AcDbEntity
  8
0
  6
Continuous
 62
     7
370
    30
100
AcDbLine
 10
0.8897046338
 20
4.0740949676
 30
0.0
 11
0.8897046338
 21
3.1609194813
 31
0.0
  0
ARC
  5
150
330
1F
100
AcDbEntity
  8
0
  6
Continuous
 62
     7
370
    30
100
AcDbCircle
 10
0.9209546338
 20
4.0740949676
 30
0.0
 40
0.0312500000000001
100
AcDbArc
 50
162.0
 51
180.0
  0
LINE
  5
151
330
1F
100
AcDbEntity
  8
0
  6
Continuous
 62
     7
370
    30
100
AcDbLine
 10
0.8912341176
 20
4.0837517486
 30
0.0
 11
1.2888381919
 21
5.3074512624
 31
0.0
  0
ARC
  5
152
330
1F
100
AcDbEntity
  8
0
  6
Continuous
 62
     7
370
    30
100
AcDbCircle
 10
1.318558708
 20
5.2977944813
 30
0.0
 40
0.0312500000000009
100
AcDbArc
 50
90.0
 51
162.0
  0
LINE
  5
153
330
1F
100
AcDbEntity
  8
0
  6
Continuous
 62
     7
370
    30
100
AcDbLine
 10
1.4347046338
 20
5.3290444813
 30
0.0
 11
1.318558708
 21
5.3290444813
 31
0.0
  0
CIRCLE
  5
154
330
1F
100
AcDbEntity
  8
0
  6
Continuous
 62
     7
370
    30
100
AcDbCircle
 10
0.9522046338
 20
3.2684194813
 30
0.0
 40
0.0204999999999997
  0
CIRCLE
  5
155
330
1F
100
AcDbEntity
  8
0
  6
Continuous
 62
     7
370
    30
100
AcDbCircle
 10
1.2022046338
 20
3.3934194813
 30
0.0
 40
0.0204999999999993
  0
CIRCLE
  5
156
330
1F
100
AcDbEntity
  8
0
  6
Continuous
 62
     7
370
    30
100
AcDbCircle
 10
1.2647046338
 20
3.8934194813
 30
0.0
 40
0.0205000000000002
  0
LINE
  5
157
330
1F
100
AcDbEntity
  8
0
  6
Continuous
 62
     7
370
    30
100
AcDbLine
 10
1.4697046338
 20
5.3290444813
 30
0.0
 11
1.4347046338
 21
5.3290444813
 31
0.0
  0
LINE
  5
158
330
1F
100
AcDbEntity
  8
0
  6
Continuous
 62
     7
370
    30
100
AcDbLine
 10
1.4697046338
 20
3.2684194813
 30
0.0
 11
1.4697046338
 21
5.3290444813
 31
0.0
  0
LINE
  5
159
330
1F
100
AcDbEntity
  8
0
  6
Continuous
 62
     7
370
    30
100
AcDbLine
 10
1.4347046338
 20
3.2684194813
 30
0.0
 11
1.4697046338
 21
3.2684194813
 31
0.0
  0
LINE
  5
15A
330
1F
100
AcDbEntity
  8
0
  6
Continuous
 62
     7
370
    30
100
AcDbLine
 10
1.3897046338
 20
3.1259194813
 30
0.0
 11
1.3897046338
 21
3.1609194813
 31
0.0
  0
LINE
  5
15B
330
1F
100
AcDbEntity
  8
0
  6
Continuous
 62
     7
370
    30
100
AcDbLine
 10
1.3897046338
 20
3.1259194813
 30
0.0
 11
0.8897046338
 21
3.1259194813
 31
0.0
  0
LINE
  5
15C
330
1F
100
AcDbEntity
  8
0
  6
Continuous
 62
     7
370
    30
100
AcDbLine
 10
0.8897046338
 20
3.1609194813
 30
0.0
 11
0.8897046338
 21
3.1259194813
 31
0.0
  0
LINE
  5
15D
330
1F
100
AcDbEntity
  8
0
  6
Continuous
 62
     7
370
    30
100
AcDbLine
 10
1.8328296338
 20
3.3290444813
 30
0.0
 11
1.8153296338
 21
3.3290444813
 31
0.0
  0
LINE
  5
15E
330
1F
100
AcDbEntity
  8
0
  6
Continuous
 62
     7
370
    30
100
AcDbLine
 10
1.8153296338
 20
3.3290444813
 30
0.0
 11
1.8153296338
 21
3.3506377002
 31
0.0
  0
LINE
  5
15F
330
1F
100
AcDbEntity
  8
0
  6
Continuous
 62
     7
370
    30
100
AcDbLine
 10
1.8328296338
 20
3.3506377002
 30
0.0
 11
1.8328296338
 21
3.3290444813
 31
0.0
  0
SPLINE
  5
160
330
1F
100
AcDbEntity
  8
0
  6
Continuous
 62
     7
370
    30
100
AcDbSpline
210
0.0
220
0.0
230
1.0
 70
     8
 71
     3
 72
    14
 73
    10
 74
     0
 42
0.000000001
 43
0.00000001
 40
0.0
 40
0.0
 40
0.0
 40
0.0
 40
0.25
 40
0.25
 40
0.5
 40
0.5
 40
0.75
 40
0.75
 40
1.0
 40
1.0
 40
1.0
 40
1.0
 10
1.46970463375796
 20
3.727210749003223
 30
0.0
 10
1.46970463375796
 20
3.721655988450256
 30
0.0
 10
1.470160111916265
 20
3.716101227897288
 30
0.0
 10
1.47191337196176
 20
3.704991706791353
 30
0.0
 10
1.473210464015992
 20
3.699436946238386
 30
0.0
 10
1.476450066158399
 20
3.688327425132452
 30
0.0
 10
1.478391301601469
 20
3.682772664579484
 30
0.0
 10
1.482624045781673
 20
3.67166314347355
 30
0.0
 10
1.484913889114718
 20
3.666108382920582
 30
0.0
 10
1.48720463375796
 20
3.660553622367615
 30
0.0
  0
SPLINE
  5
161
330
1F
100
AcDbEntity
  8
0
  6
Continuous
 62
     7
370
    30
100
AcDbSpline
210
0.0
220
0.0
230
1.0
 70
     8
 71
     3
 72
     9
 73
     5
 74
     0
 42
0.000000001
 43
0.00000001
 40
0.0
 40
0.0
 40
0.0
 40
0.0
 40
0.2655783714906171
 40
1.0
 40
1.0
 40
1.0
 40
1.0
 10
1.469704633757961
 20
3.683243969454375
 30
0.0
 10
1.471040688723299
 20
3.681235280978423
 30
0.0
 10
1.476071425819244
 20
3.673671831949502
 30
0.0
 10
1.48249040016534
 20
3.666108382920582
 30
0.0
 10
1.48720463375796
 20
3.660553622367615
 30
0.0
  0
LINE
  5
162
330
1F
100
AcDbEntity
  8
0
  6
Continuous
 62
     7
370
    30
100
AcDbLine
 10
1.4872046338
 20
5.3290444813
 30
0.0
 11
1.4697046338
 21
5.3290444813
 31
0.0
  0
LINE
  5
163
330
1F
100
AcDbEntity
  8
0
  6
Continuous
 62
     7
370
    30
100
AcDbLine
 10
1.4872046338
 20
3.6605536224
 30
0.0
 11
1.4872046338
 21
5.3290444813
 31
0.0
  0
SPLINE
  5
164
330
1F
100
AcDbEntity
  8
0
  6
Continuous
 62
     7
370
    30
100
AcDbSpline
210
0.0
220
0.0
230
1.0
 70
     8
 71
     3
 72
    14
 73
    10
 74
     0
 42
0.000000001
 43
0.00000001
 40
0.0
 40
0.0
 40
0.0
 40
0.0
 40
0.25
 40
0.25
 40
0.5
 40
0.5
 40
0.75
 40
0.75
 40
1.0
 40
1.0
 40
1.0
 40
1.0
 10
1.79782963375796
 20
3.660553622367606
 30
0.0
 10
1.800120378401203
 20
3.666108382920573
 30
0.0
 10
1.802410221734248
 20
3.671663143473541
 30
0.0
 10
1.806642965914451
 20
3.682772664579475
 30
0.0
 10
1.808584201357521
 20
3.688327425132443
 30
0.0
 10
1.811823803499928
 20
3.699436946238378
 30
0.0
 10
1.81312089555416
 20
3.704991706791345
 30
0.0
 10
1.814874155599656
 20
3.71610122789728
 30
0.0
 10
1.81532963375796
 20
3.721655988450248
 30
0.0
 10
1.815329633757961
 20
3.727210749003215
 30
0.0
  0
SPLINE
  5
165
330
1F
100
AcDbEntity
  8
0
  6
Continuous
 62
     7
370
    30
100
AcDbSpline
210
0.0
220
0.0
230
1.0
 70
     8
 71
     3
 72
     9
 73
     5
 74
     0
 42
0.000000001
 43
0.00000001
 40
0.0
 40
0.0
 40
0.0
 40
0.0
 40
0.7344216285092431
 40
1.0
 40
1.0
 40
1.0
 40
1.0
 10
1.79782963375796
 20
3.660553622367606
 30
0.0
 10
1.80254386735058
 20
3.666108382920573
 30
0.0
 10
1.808962841696677
 20
3.673671831949495
 30
0.0
 10
1.813993578792622
 20
3.681235280978417
 30
0.0
 10
1.815329633757961
 20
3.683243969454371
 30
0.0
  0
LINE
  5
166
330
1F
100
AcDbEntity
  8
0
  6
Continuous
 62
     7
370
    30
100
AcDbLine
 10
1.7978296338
 20
5.4227944813
 30
0.0
 11
1.7978296338
 21
3.6605536224
 31
0.0
  0
LINE
  5
167
330
1F
100
AcDbEntity
  8
0
  6
Continuous
 62
     7
370
    30
100
AcDbLine
 10
1.8153296338
 20
5.4227944813
 30
0.0
 11
1.7978296338
 21
5.4227944813
 31
0.0
  0
LINE
  5
168
330
1F
100
AcDbEntity
  8
0
  6
Continuous
 62
     7
370
    30
100
AcDbLine
 10
1.4872046338
 20
5.3290444813
 30
0.0
 11
1.5147046338
 21
5.3290444813
 31
0.0
  0
LINE
  5
169
330
1F
100
AcDbEntity
  8
0
  6
Continuous
 62
     7
370
    30
100
AcDbLine
 10
1.5147046338
 20
5.3915444813
 30
0.0
 11
1.5147046338
 21
5.3290444813
 31
0.0
  0
ARC
  5
16A
330
1F
100
AcDbEntity
  8
0
  6
Continuous
 62
     7
370
    30
100
AcDbCircle
 10
1.5459546338
 20
5.3915444813
 30
0.0
 40
0.0312500000000002
100
AcDbArc
 50
90.0
 51
180.0
  0
LINE
  5
16B
330
1F
100
AcDbEntity
  8
0
  6
Continuous
 62
     7
370
    30
100
AcDbLine
 10
1.7978296338
 20
5.4227944813
 30
0.0
 11
1.5459546338
 21
5.4227944813
 31
0.0
  0
CIRCLE
  5
16C
330
1F
100
AcDbEntity
  8
0
  6
Continuous
 62
     7
370
    30
100
AcDbCircle
 10
1.6425171338
 20
4.7827944813
 30
0.0
 40
0.03125
  0
CIRCLE
  5
16D
330
1F
100
AcDbEntity
  8
0
  6
Continuous
 62
     7
370
    30
100
AcDbCircle
 10
1.6425171338
 20
4.0327944813
 30
0.0
 40
0.03125
  0
CIRCLE
  5
16E
330
1F
100
AcDbEntity
  8
0
  6
Continuous
 62
     7
370
    30
100
AcDbCircle
 10
1.6425171338
 20
4.2827944813
 30
0.0
 40
0.046875
  0
CIRCLE
  5
16F
330
1F
100
AcDbEntity
  8
0
  6
Continuous
 62
     7
370
    30
100
AcDbCircle
 10
1.6425171338
 20
3.7827944813
 30
0.0
 40
0.046875
  0
LINE
  5
170
330
1F
100
AcDbEntity
  8
0
  6
Continuous
 62
     7
370
    30
100
AcDbLine
 10
1.4872046338
 20
3.6605536224
 30
0.0
 11
1.6425171338
 21
3.3915444813
 31
0.0
  0
LINE
  5
171
330
1F
100
AcDbEntity
  8
0
  6
Continuous
 62
     7
370
    30
100
AcDbLine
 10
1.6425171338
 20
3.3915444813
 30
0.0
 11
1.7978296338
 21
3.6605536224
 31
0.0
  0
LINE
  5
172
330
1F
100
AcDbEntity
  8
0
  6
Continuous
 62
     7
370
    30
100
AcDbLine
 10
1.4872046338
 20
3.6293036224
 30
0.0
 11
1.4872046338
 21
3.6605536224
 31
0.0
  0
SPLINE
  5
173
330
1F
100
AcDbEntity
  8
0
  6
Continuous
 62
     7
370
    30
100
AcDbSpline
210
0.0
220
0.0
230
1.0
 70
     8
 71
     3
 72
     9
 73
     5
 74
     0
 42
0.000000001
 43
0.00000001
 40
0.0
 40
0.0
 40
0.0
 40
0.0
 40
0.7344216285092856
 40
1.0
 40
1.0
 40
1.0
 40
1.0
 10
1.487204633757961
 20
3.629303622367616
 30
0.0
 10
1.482490400165341
 20
3.634858382920584
 30
0.0
 10
1.476071425819244
 20
3.642421831949505
 30
0.0
 10
1.471040688723299
 20
3.649985280978427
 30
0.0
 10
1.46970463375796
 20
3.651993969454381
 30
0.0
  0
LINE
  5
174
330
1F
100
AcDbEntity
  8
0
  6
Continuous
 62
     7
370
    30
100
AcDbLine
 10
1.7978296338
 20
3.6293036224
 30
0.0
 11
1.7978296338
 21
3.6605536224
 31
0.0
  0
LINE
  5
175
330
1F
100
AcDbEntity
  8
0
  6
Continuous
 62
     7
370
    30
100
AcDbLine
 10
1.7978296338
 20
3.6293036224
 30
0.0
 11
1.6425171338
 21
3.3602944813
 31
0.0
  0
LINE
  5
176
330
1F
100
AcDbEntity
  8
0
  6
Continuous
 62
     7
370
    30
100
AcDbLine
 10
1.6425171338
 20
3.3602944813
 30
0.0
 11
1.4872046338
 21
3.6293036224
 31
0.0
  0
SPLINE
  5
177
330
1F
100
AcDbEntity
  8
0
  6
Continuous
 62
     7
370
    30
100
AcDbSpline
210
0.0
220
0.0
230
1.0
 70
     8
 71
     3
 72
     9
 73
     5
 74
     0
 42
0.000000001
 43
0.00000001
 40
0.0
 40
0.0
 40
0.0
 40
0.0
 40
0.2655783714907084
 40
1.0
 40
1.0
 40
1.0
 40
1.0
 10
1.815329633757961
 20
3.651993969454376
 30
0.0
 10
1.813993578792622
 20
3.649985280978422
 30
0.0
 10
1.808962841696677
 20
3.642421831949501
 30
0.0
 10
1.802543867350581
 20
3.63485838292058
 30
0.0
 10
1.797829633757961
 20
3.629303622367611
 30
0.0
  0
INSERT
  5
183
330
1F
100
AcDbEntity
  8
BLANK-SIZE-2
100
AcDbBlockReference
  2
SW_CENTERMARKSYMBOL_0
 10
0.9522046338
 20
3.2684194813
 30
0.0
  0
INSERT
  5
18F
330
1F
100
AcDbEntity
  8
BLANK-SIZE-2
100
AcDbBlockReference
  2
SW_CENTERMARKSYMBOL_1
 10
1.2022046338
 20
3.3934194813
 30
0.0
  0
INSERT
  5
19B
330
1F
100
AcDbEntity
  8
BLANK-SIZE-2
100
AcDbBlockReference
  2
SW_CENTERMARKSYMBOL_2
 10
1.2647046338
 20
3.8934194813
 30
0.0
  0
LINE
  5
19C
330
1F
100
AcDbEntity
  8
0
  6
Continuous
 62
     7
370
    30
100
AcDbLine
 10
6.2188541193
 20
5.5027944813
 30
0.0
 11
6.2188541193
 21
5.5202944813
 31
0.0
  0
LINE
  5
19D
330
1F
100
AcDbEntity
  8
0
  6
Continuous
 62
     7
370
    30
100
AcDbLine
 10
5.6113541193
 20
5.5027944813
 30
0.0
 11
6.2188541193
 21
5.5027944813
 31
0.0
  0
LINE
  5
19E
330
1F
100
AcDbEntity
  8
0
  6
Continuous
 62
     7
370
    30
100
AcDbLine
 10
5.6113541193
 20
5.5202944813
 30
0.0
 11
5.6113541193
 21
5.5027944813
 31
0.0
  0
LINE
  5
19F
330
1F
100
AcDbEntity
  8
0
  6
Continuous
 62
     7
370
    30
100
AcDbLine
 10
5.6113541193
 20
5.5202944813
 30
0.0
 11
6.2188541193
 21
5.5202944813
 31
0.0
  0
LINE
  5
1A0
330
1F
100
AcDbEntity
  8
0
  6
Continuous
 62
     7
370
    30
100
AcDbLine
 10
5.6113541193
 20
5.5027944813
 30
0.0
 11
5.5801041193
 21
5.5027944813
 31
0.0
  0
LINE
  5
1A1
330
1F
100
AcDbEntity
  8
0
  6
Continuous
 62
     7
370
    30
100
AcDbLine
 10
5.5801041193
 20
5.5027944813
 30
0.0
 11
5.5801041193
 21
5.5202944813
 31
0.0
  0
LINE
  5
1A2
330
1F
100
AcDbEntity
  8
0
  6
Continuous
 62
     7
370
    30
100
AcDbLine
 10
5.5801041193
 20
5.5202944813
 30
0.0
 11
5.6113541193
 21
5.5202944813
 31
0.0
  0
LINE
  5
1A3
330
1F
100
AcDbEntity
  8
0
  6
Continuous
 62
     7
370
    30
100
AcDbLine
 10
6.2538541193
 20
5.4852944813
 30
0.0
 11
6.2363541193
 21
5.4852944813
 31
0.0
  0
LINE
  5
1A4
330
1F
100
AcDbEntity
  8
0
  6
Continuous
 62
     7
370
    30
100
AcDbLine
 10
6.2363541193
 20
5.2089939951
 30
0.0
 11
6.2538541193
 21
5.2089939951
 31
0.0
  0
LINE
  5
1A5
330
1F
100
AcDbEntity
  8
0
  6
Continuous
 62
     7
370
    30
100
AcDbLine
 10
6.2363541193
 20
5.2089939951
 30
0.0
 11
6.2363541193
 21
5.4852944813
 31
0.0
  0
LINE
  5
1A6
330
1F
100
AcDbEntity
  8
0
  6
Continuous
 62
     7
370
    30
100
AcDbLine
 10
6.2538541193
 20
5.2089939951
 30
0.0
 11
6.2538541193
 21
5.4852944813
 31
0.0
  0
LINE
  5
1A7
330
1F
100
AcDbEntity
  8
0
  6
Continuous
 62
     7
370
    30
100
AcDbLine
 10
6.2538541193
 20
5.199337214
 30
0.0
 11
6.2363541193
 21
5.199337214
 31
0.0
  0
LINE
  5
1A8
330
1F
100
AcDbEntity
  8
0
  6
Continuous
 62
     7
370
    30
100
AcDbLine
 10
6.2363541193
 20
5.199337214
 30
0.0
 11
6.2363541193
 21
5.2089939951
 31
0.0
  0
LINE
  5
1A9
330
1F
100
AcDbEntity
  8
0
  6
Continuous
 62
     7
370
    30
100
AcDbLine
 10
6.2538541193
 20
5.2089939951
 30
0.0
 11
6.2538541193
 21
5.199337214
 31
0.0
  0
ARC
  5
1AA
330
1F
100
AcDbEntity
  8
0
  6
Continuous
 62
     7
370
    30
100
AcDbCircle
 10
6.2188541193
 20
5.4852944813
 30
0.0
 40
0.0350000000000001
100
AcDbArc
 50
0.0
 51
90.0
  0
ARC
  5
1AB
330
1F
100
AcDbEntity
  8
0
  6
Continuous
 62
     7
370
    30
100
AcDbCircle
 10
6.2188541193
 20
5.4852944813
 30
0.0
 40
0.0175000000000001
100
AcDbArc
 50
0.0
 51
90.0
  0
LINE
  5
1AC
330
1F
100
AcDbEntity
  8
0
  6
Continuous
 62
     7
370
    30
100
AcDbLine
 10
6.2363541193
 20
3.3506377002
 30
0.0
 11
6.2538541193
 21
3.3506377002
 31
0.0
  0
LINE
  5
1AD
330
1F
100
AcDbEntity
  8
0
  6
Continuous
 62
     7
370
    30
100
AcDbLine
 10
6.2363541193
 20
5.199337214
 30
0.0
 11
6.2363541193
 21
3.3506377002
 31
0.0
  0
LINE
  5
1AE
330
1F
100
AcDbEntity
  8
0
  6
Continuous
 62
     7
370
    30
100
AcDbLine
 10
6.2538541193
 20
5.199337214
 30
0.0
 11
6.2538541193
 21
3.3506377002
 31
0.0
  0
LINE
  5
1AF
330
1F
100
AcDbEntity
  8
0
  6
Continuous
 62
     7
370
    30
100
AcDbLine
 10
6.6794791193
 20
3.2371694813
 30
0.0
 11
6.6794791193
 21
3.1609194813
 31
0.0
  0
ARC
  5
1B0
330
1F
100
AcDbEntity
  8
0
  6
Continuous
 62
     7
370
    30
100
AcDbCircle
 10
6.6482291193
 20
3.2371694813
 30
0.0
 40
0.03125
100
AcDbArc
 50
0.0
 51
90.0
  0
LINE
  5
1B1
330
1F
100
AcDbEntity
  8
0
  6
Continuous
 62
     7
370
    30
100
AcDbLine
 10
6.6344791193
 20
3.2684194813
 30
0.0
 11
6.6482291193
 21
3.2684194813
 31
0.0
  0
LINE
  5
1B2
330
1F
100
AcDbEntity
  8
0
  6
Continuous
 62
     7
370
    30
100
AcDbLine
 10
6.750625045
 20
5.3290444813
 30
0.0
 11
6.6344791193
 21
5.3290444813
 31
0.0
  0
ARC
  5
1B3
330
1F
100
AcDbEntity
  8
0
  6
Continuous
 62
     7
370
    30
100
AcDbCircle
 10
6.750625045
 20
5.2977944813
 30
0.0
 40
0.0312500000000009
100
AcDbArc
 50
18.0
 51
90.0
  0
LINE
  5
1B4
330
1F
100
AcDbEntity
  8
0
  6
Continuous
 62
     7
370
    30
100
AcDbLine
 10
6.7803455612
 20
5.3074512624
 30
0.0
 11
7.1779496354
 21
4.0837517486
 31
0.0
  0
ARC
  5
1B5
330
1F
100
AcDbEntity
  8
0
  6
Continuous
 62
     7
370
    30
100
AcDbCircle
 10
7.1482291193
 20
4.0740949676
 30
0.0
 40
0.0312500000000001
100
AcDbArc
 50
0.0
 51
18.0
  0
LINE
  5
1B6
330
1F
100
AcDbEntity
  8
0
  6
Continuous
 62
     7
370
    30
100
AcDbLine
 10
7.1794791193
 20
3.1609194813
 30
0.0
 11
7.1794791193
 21
4.0740949676
 31
0.0
  0
CIRCLE
  5
1B7
330
1F
100
AcDbEntity
  8
0
  6
Continuous
 62
     7
370
    30
100
AcDbCircle
 10
6.8669791193
 20
3.8309194813
 30
0.0
 40
0.0205000000000002
  0
CIRCLE
  5
1B8
330
1F
100
AcDbEntity
  8
0
  6
Continuous
 62
     7
370
    30
100
AcDbCircle
 10
6.8357291193
 20
3.4559194813
 30
0.0
 40
0.0204999999999997
  0
CIRCLE
  5
1B9
330
1F
100
AcDbEntity
  8
0
  6
Continuous
 62
     7
370
    30
100
AcDbCircle
 10
7.0857291193
 20
3.3309194813
 30
0.0
 40
0.0205000000000002
  0
LINE
  5
1BA
330
1F
100
AcDbEntity
  8
0
  6
Continuous
 62
     7
370
    30
100
AcDbLine
 10
6.5994791193
 20
3.2684194813
 30
0.0
 11
6.6344791193
 21
3.2684194813
 31
0.0
  0
LINE
  5
1BB
330
1F
100
AcDbEntity
  8
0
  6
Continuous
 62
     7
370
    30
100
AcDbLine
 10
6.5994791193
 20
5.3290444813
 30
0.0
 11
6.5994791193
 21
3.2684194813
 31
0.0
  0
LINE
  5
1BC
330
1F
100
AcDbEntity
  8
0
  6
Continuous
 62
     7
370
    30
100
AcDbLine
 10
6.6344791193
 20
5.3290444813
 30
0.0
 11
6.5994791193
 21
5.3290444813
 31
0.0
  0
LINE
  5
1BD
330
1F
100
AcDbEntity
  8
0
  6
Continuous
 62
     7
370
    30
100
AcDbLine
 10
6.6794791193
 20
3.1609194813
 30
0.0
 11
6.6794791193
 21
3.1259194813
 31
0.0
  0
LINE
  5
1BE
330
1F
100
AcDbEntity
  8
0
  6
Continuous
 62
     7
370
    30
100
AcDbLine
 10
7.1794791193
 20
3.1259194813
 30
0.0
 11
7.1794791193
 21
3.1609194813
 31
0.0
  0
LINE
  5
1BF
330
1F
100
AcDbEntity
  8
0
  6
Continuous
 62
     7
370
    30
100
AcDbLine
 10
7.1794791193
 20
3.1259194813
 30
0.0
 11
6.6794791193
 21
3.1259194813
 31
0.0
  0
LINE
  5
1C0
330
1F
100
AcDbEntity
  8
0
  6
Continuous
 62
     7
370
    30
100
AcDbLine
 10
6.2538541193
 20
3.3290444813
 30
0.0
 11
6.2363541193
 21
3.3290444813
 31
0.0
  0
LINE
  5
1C1
330
1F
100
AcDbEntity
  8
0
  6
Continuous
 62
     7
370
    30
100
AcDbLine
 10
6.2363541193
 20
3.3290444813
 30
0.0
 11
6.2363541193
 21
3.3506377002
 31
0.0
  0
LINE
  5
1C2
330
1F
100
AcDbEntity
  8
0
  6
Continuous
 62
     7
370
    30
100
AcDbLine
 10
6.2538541193
 20
3.3506377002
 30
0.0
 11
6.2538541193
 21
3.3290444813
 31
0.0
  0
SPLINE
  5
1C3
330
1F
100
AcDbEntity
  8
0
  6
Continuous
 62
     7
370
    30
100
AcDbSpline
210
0.0
220
0.0
230
1.0
 70
     8
 71
     3
 72
    14
 73
    10
 74
     0
 42
0.000000001
 43
0.00000001
 40
0.0
 40
0.0
 40
0.0
 40
0.0
 40
0.25
 40
0.25
 40
0.5
 40
0.5
 40
0.75
 40
0.75
 40
1.0
 40
1.0
 40
1.0
 40
1.0
 10
6.581979119311188
 20
3.629303622367616
 30
0.0
 10
6.584269863954431
 20
3.634858382920584
 30
0.0
 10
6.586559707287476
 20
3.640413143473552
 30
0.0
 10
6.590792451467679
 20
3.651522664579486
 30
0.0
 10
6.59273368691075
 20
3.657077425132454
 30
0.0
 10
6.595973289053157
 20
3.668186946238389
 30
0.0
 10
6.597270381107388
 20
3.673741706791357
 30
0.0
 10
6.599023641152884
 20
3.684851227897292
 30
0.0
 10
6.599479119311189
 20
3.69040598845026
 30
0.0
 10
6.599479119311189
 20
3.695960749003227
 30
0.0
  0
LINE
  5
1C4
330
1F
100
AcDbEntity
  8
0
  6
Continuous
 62
     7
370
    30
100
AcDbLine
 10
6.5819791193
 20
5.3290444813
 30
0.0
 11
6.5819791193
 21
3.6293036224
 31
0.0
  0
LINE
  5
1C5
330
1F
100
AcDbEntity
  8
0
  6
Continuous
 62
     7
370
    30
100
AcDbLine
 10
6.5994791193
 20
5.3290444813
 30
0.0
 11
6.5819791193
 21
5.3290444813
 31
0.0
  0
SPLINE
  5
1C6
330
1F
100
AcDbEntity
  8
0
  6
Continuous
 62
     7
370
    30
100
AcDbSpline
210
0.0
220
0.0
230
1.0
 70
     8
 71
     3
 72
     9
 73
     5
 74
     0
 42
0.000000001
 43
0.00000001
 40
0.0
 40
0.0
 40
0.0
 40
0.0
 40
0.734421628509309
 40
1.0
 40
1.0
 40
1.0
 40
1.0
 10
6.581979119311188
 20
3.629303622367616
 30
0.0
 10
6.586693352903809
 20
3.634858382920584
 30
0.0
 10
6.593112327249906
 20
3.642421831949505
 30
0.0
 10
6.598143064345851
 20
3.649985280978427
 30
0.0
 10
6.59947911931119
 20
3.65199396945438
 30
0.0
  0
SPLINE
  5
1C7
330
1F
100
AcDbEntity
  8
0
  6
Continuous
 62
     7
370
    30
100
AcDbSpline
210
0.0
220
0.0
230
1.0
 70
     8
 71
     3
 72
    14
 73
    10
 74
     0
 42
0.000000001
 43
0.00000001
 40
0.0
 40
0.0
 40
0.0
 40
0.0
 40
0.25
 40
0.25
 40
0.5
 40
0.5
 40
0.75
 40
0.75
 40
1.0
 40
1.0
 40
1.0
 40
1.0
 10
6.253854119311189
 20
3.695960749003221
 30
0.0
 10
6.253854119311189
 20
3.690405988450253
 30
0.0
 10
6.254309597469493
 20
3.684851227897286
 30
0.0
 10
6.25606285751499
 20
3.673741706791351
 30
0.0
 10
6.257359949569221
 20
3.668186946238384
 30
0.0
 10
6.260599551711628
 20
3.657077425132449
 30
0.0
 10
6.262540787154698
 20
3.651522664579482
 30
0.0
 10
6.266773531334901
 20
3.640413143473547
 30
0.0
 10
6.269063374667946
 20
3.634858382920579
 30
0.0
 10
6.271354119311188
 20
3.629303622367611
 30
0.0
  0
SPLINE
  5
1C8
330
1F
100
AcDbEntity
  8
0
  6
Continuous
 62
     7
370
    30
100
AcDbSpline
210
0.0
220
0.0
230
1.0
 70
     8
 71
     3
 72
     9
 73
     5
 74
     0
 42
0.000000001
 43
0.00000001
 40
0.0
 40
0.0
 40
0.0
 40
0.0
 40
0.2655783714906242
 40
1.0
 40
1.0
 40
1.0
 40
1.0
 10
6.25385411931119
 20
3.651993969454374
 30
0.0
 10
6.255190174276529
 20
3.649985280978421
 30
0.0
 10
6.260220911372473
 20
3.6424218319495
 30
0.0
 10
6.266639885718569
 20
3.634858382920579
 30
0.0
 10
6.271354119311188
 20
3.629303622367611
 30
0.0
  0
LINE
  5
1C9
330
1F
100
AcDbEntity
  8
0
  6
Continuous
 62
     7
370
    30
100
AcDbLine
 10
6.2713541193
 20
5.4227944813
 30
0.0
 11
6.2538541193
 21
5.4227944813
 31
0.0
  0
LINE
  5
1CA
330
1F
100
AcDbEntity
  8
0
  6
Continuous
 62
     7
370
    30
100
AcDbLine
 10
6.2713541193
 20
3.6293036224
 30
0.0
 11
6.2713541193
 21
5.4227944813
 31
0.0
  0
LINE
  5
1CB
330
1F
100
AcDbEntity
  8
0
  6
Continuous
 62
     7
370
    30
100
AcDbLine
 10
6.5544791193
 20
5.3290444813
 30
0.0
 11
6.5819791193
 21
5.3290444813
 31
0.0
  0
LINE
  5
1CC
330
1F
100
AcDbEntity
  8
0
  6
Continuous
 62
     7
370
    30
100
AcDbLine
 10
6.4266666193
 20
3.3602944813
 30
0.0
 11
6.5819791193
 21
3.6293036224
 31
0.0
  0
LINE
  5
1CD
330
1F
100
AcDbEntity
  8
0
  6
Continuous
 62
     7
370
    30
100
AcDbLine
 10
6.2713541193
 20
3.6293036224
 30
0.0
 11
6.4266666193
 21
3.3602944813
 31
0.0
  0
LINE
  5
1CE
330
1F
100
AcDbEntity
  8
0
  6
Continuous
 62
     7
370
    30
100
AcDbLine
 10
6.5232291193
 20
5.4227944813
 30
0.0
 11
6.2713541193
 21
5.4227944813
 31
0.0
  0
ARC
  5
1CF
330
1F
100
AcDbEntity
  8
0
  6
Continuous
 62
     7
370
    30
100
AcDbCircle
 10
6.5232291193
 20
5.3915444813
 30
0.0
 40
0.0312499999999991
100
AcDbArc
 50
360.0
 51
90.0
  0
LINE
  5
1D0
330
1F
100
AcDbEntity
  8
0
  6
Continuous
 62
     7
370
    30
100
AcDbLine
 10
6.5544791193
 20
5.3290444813
 30
0.0
 11
6.5544791193
 21
5.3915444813
 31
0.0
  0
CIRCLE
  5
1D1
330
1F
100
AcDbEntity
  8
0
  6
Continuous
 62
     7
370
    30
100
AcDbCircle
 10
6.4266666193
 20
4.7827944813
 30
0.0
 40
0.03125
  0
CIRCLE
  5
1D2
330
1F
100
AcDbEntity
  8
0
  6
Continuous
 62
     7
370
    30
100
AcDbCircle
 10
6.4266666193
 20
4.0327944813
 30
0.0
 40
0.03125
  0
CIRCLE
  5
1D3
330
1F
100
AcDbEntity
  8
0
  6
Continuous
 62
     7
370
    30
100
AcDbCircle
 10
6.4266666193
 20
4.2827944813
 30
0.0
 40
0.046875
  0
CIRCLE
  5
1D4
330
1F
100
AcDbEntity
  8
0
  6
Continuous
 62
     7
370
    30
100
AcDbCircle
 10
6.4266666193
 20
3.7827944813
 30
0.0
 40
0.046875
  0
INSERT
  5
1E0
330
1F
100
AcDbEntity
  8
BLANK-SIZE-2
100
AcDbBlockReference
  2
SW_CENTERMARKSYMBOL_3
 10
6.8669791193
 20
3.8309194813
 30
0.0
  0
INSERT
  5
1EC
330
1F
100
AcDbEntity
  8
BLANK-SIZE-2
100
AcDbBlockReference
  2
SW_CENTERMARKSYMBOL_4
 10
6.8357291193
 20
3.4559194813
 30
0.0
  0
INSERT
  5
1F8
330
1F
100
AcDbEntity
  8
BLANK-SIZE-2
100
AcDbBlockReference
  2
SW_CENTERMARKSYMBOL_5
 10
7.0857291193
 20
3.3309194813
 30
0.0
  0
LINE
  5
1F9
330
1F
100
AcDbEntity
  8
0
  6
Continuous
 62
     7
370
    30
100
AcDbLine
 10
4.2318611619
 20
9.9518981963
 30
0.0
 11
4.2318611619
 21
9.3443981963
 31
0.0
  0
ARC
  5
1FA
330
1F
100
AcDbEntity
  8
0
  6
Continuous
 62
     7
370
    30
100
AcDbCircle
 10
4.2631111619
 20
9.9518981963
 30
0.0
 40
0.03125
100
AcDbArc
 50
90.0
 51
180.0
  0
LINE
  5
1FB
330
1F
100
AcDbEntity
  8
0
  6
Continuous
 62
     7
370
    30
100
AcDbLine
 10
4.8881111619
 20
9.9831481963
 30
0.0
 11
4.2631111619
 21
9.9831481963
 31
0.0
  0
ARC
  5
1FC
330
1F
100
AcDbEntity
  8
0
  6
Continuous
 62
     7
370
    30
100
AcDbCircle
 10
4.8881111619
 20
9.9518981963
 30
0.0
 40
0.0312500000000018
100
AcDbArc
 50
0.0
 51
90.0
  0
LINE
  5
1FD
330
1F
100
AcDbEntity
  8
0
  6
Continuous
 62
     7
370
    30
100
AcDbLine
 10
4.9193611619
 20
9.3443981963
 30
0.0
 11
4.9193611619
 21
9.9518981963
 31
0.0
  0
CIRCLE
  5
1FE
330
1F
100
AcDbEntity
  8
0
  6
Continuous
 62
     7
370
    30
100
AcDbCircle
 10
4.4506111619
 20
9.9050231963
 30
0.0
 40
0.0224999999999991
  0
CIRCLE
  5
1FF
330
1F
100
AcDbEntity
  8
0
  6
Continuous
 62
     7
370
    30
100
AcDbCircle
 10
4.6381111619
 20
9.8425231963
 30
0.0
 40
0.0224999999999991
  0
CIRCLE
  5
200
330
1F
100
AcDbEntity
  8
0
  6
Continuous
 62
     7
370
    30
100
AcDbCircle
 10
4.8256111619
 20
9.9362731963
 30
0.0
 40
0.0225000000000009
  0
LINE
  5
201
330
1F
100
AcDbEntity
  8
0
  6
Continuous
 62
     7
370
    30
100
AcDbLine
 10
3.3731236619
 20
9.9518981963
 30
0.0
 11
3.3731236619
 21
9.3443981963
 31
0.0
  0
ARC
  5
202
330
1F
100
AcDbEntity
  8
0
  6
Continuous
 62
     7
370
    30
100
AcDbCircle
 10
3.4043736619
 20
9.9518981963
 30
0.0
 40
0.0312500000000018
100
AcDbArc
 50
90.0
 51
180.0
  0
LINE
  5
203
330
1F
100
AcDbEntity
  8
0
  6
Continuous
 62
     7
370
    30
100
AcDbLine
 10
4.0293736619
 20
9.9831481963
 30
0.0
 11
3.4043736619
 21
9.9831481963
 31
0.0
  0
ARC
  5
204
330
1F
100
AcDbEntity
  8
0
  6
Continuous
 62
     7
370
    30
100
AcDbCircle
 10
4.0293736619
 20
9.9518981963
 30
0.0
 40
0.03125
100
AcDbArc
 50
0.0
 51
90.0
  0
LINE
  5
205
330
1F
100
AcDbEntity
  8
0
  6
Continuous
 62
     7
370
    30
100
AcDbLine
 10
4.0606236619
 20
9.3443981963
 30
0.0
 11
4.0606236619
 21
9.9518981963
 31
0.0
  0
CIRCLE
  5
206
330
1F
100
AcDbEntity
  8
0
  6
Continuous
 62
     7
370
    30
100
AcDbCircle
 10
3.8418736619
 20
9.8737731963
 30
0.0
 40
0.0224999999999991
  0
CIRCLE
  5
207
330
1F
100
AcDbEntity
  8
0
  6
Continuous
 62
     7
370
    30
100
AcDbCircle
 10
3.6543736619
 20
9.8112731963
 30
0.0
 40
0.0225000000000009
  0
CIRCLE
  5
208
330
1F
100
AcDbEntity
  8
0
  6
Continuous
 62
     7
370
    30
100
AcDbCircle
 10
3.4668736619
 20
9.9362731963
 30
0.0
 40
0.0225000000000009
  0
LINE
  5
209
330
1F
100
AcDbEntity
  8
0
  6
Continuous
 62
     7
370
    30
100
AcDbLine
 10
4.2318611619
 20
9.3443981963
 30
0.0
 11
4.2318611619
 21
9.3093981963
 31
0.0
  0
LINE
  5
20A
330
1F
100
AcDbEntity
  8
0
  6
Continuous
 62
     7
370
    30
100
AcDbLine
 10
4.2318611619
 20
9.3093981963
 30
0.0
 11
4.9193611619
 21
9.3093981963
 31
0.0
  0
LINE
  5
20B
330
1F
100
AcDbEntity
  8
0
  6
Continuous
 62
     7
370
    30
100
AcDbLine
 10
4.9193611619
 20
9.3093981963
 30
0.0
 11
4.9193611619
 21
9.3443981963
 31
0.0
  0
LINE
  5
20C
330
1F
100
AcDbEntity
  8
0
  6
Continuous
 62
     7
370
    30
100
AcDbLine
 10
3.3731236619
 20
9.3443981963
 30
0.0
 11
3.3731236619
 21
9.3093981963
 31
0.0
  0
LINE
  5
20D
330
1F
100
AcDbEntity
  8
0
  6
Continuous
 62
     7
370
    30
100
AcDbLine
 10
3.3731236619
 20
9.3093981963
 30
0.0
 11
4.0606236619
 21
9.3093981963
 31
0.0
  0
LINE
  5
20E
330
1F
100
AcDbEntity
  8
0
  6
Continuous
 62
     7
370
    30
100
AcDbLine
 10
4.0606236619
 20
9.3093981963
 30
0.0
 11
4.0606236619
 21
9.3443981963
 31
0.0
  0
LINE
  5
20F
330
1F
100
AcDbEntity
  8
0
  6
Continuous
 62
     7
370
    30
100
AcDbLine
 10
4.2006111619
 20
9.3093981963
 30
0.0
 11
4.2006111619
 21
9.3268981963
 31
0.0
  0
LINE
  5
210
330
1F
100
AcDbEntity
  8
0
  6
Continuous
 62
     7
370
    30
100
AcDbLine
 10
4.2318611619
 20
9.3093981963
 30
0.0
 11
4.2006111619
 21
9.3093981963
 31
0.0
  0
LINE
  5
211
330
1F
100
AcDbEntity
  8
0
  6
Continuous
 62
     7
370
    30
100
AcDbLine
 10
4.2006111619
 20
9.3268981963
 30
0.0
 11
4.2318611619
 21
9.3268981963
 31
0.0
  0
LINE
  5
212
330
1F
100
AcDbEntity
  8
0
  6
Continuous
 62
     7
370
    30
100
AcDbLine
 10
4.0918736619
 20
9.3268981963
 30
0.0
 11
4.0918736619
 21
9.3093981963
 31
0.0
  0
LINE
  5
213
330
1F
100
AcDbEntity
  8
0
  6
Continuous
 62
     7
370
    30
100
AcDbLine
 10
4.0606236619
 20
9.3268981963
 30
0.0
 11
4.0918736619
 21
9.3268981963
 31
0.0
  0
LINE
  5
214
330
1F
100
AcDbEntity
  8
0
  6
Continuous
 62
     7
370
    30
100
AcDbLine
 10
4.0918736619
 20
9.3093981963
 30
0.0
 11
4.0606236619
 21
9.3093981963
 31
0.0
  0
LINE
  5
215
330
1F
100
AcDbEntity
  8
0
  6
Continuous
 62
     7
370
    30
100
AcDbLine
 10
4.1518486619
 20
9.0400231963
 30
0.0
 11
4.1693486619
 21
9.0400231963
 31
0.0
  0
LINE
  5
216
330
1F
100
AcDbEntity
  8
0
  6
Continuous
 62
     7
370
    30
100
AcDbLine
 10
4.1693486619
 20
9.0087731963
 30
0.0
 11
4.1518486619
 21
9.0087731963
 31
0.0
  0
LINE
  5
217
330
1F
100
AcDbEntity
  8
0
  6
Continuous
 62
     7
370
    30
100
AcDbLine
 10
4.1693486619
 20
9.0400231963
 30
0.0
 11
4.1693486619
 21
9.0087731963
 31
0.0
  0
LINE
  5
218
330
1F
100
AcDbEntity
  8
0
  6
Continuous
 62
     7
370
    30
100
AcDbLine
 10
4.1518486619
 20
9.0087731963
 30
0.0
 11
4.1518486619
 21
9.0400231963
 31
0.0
  0
LINE
  5
219
330
1F
100
AcDbEntity
  8
0
  6
Continuous
 62
     7
370
    30
100
AcDbLine
 10
4.1868486619
 20
9.3093981963
 30
0.0
 11
4.1868486619
 21
9.3268981963
 31
0.0
  0
LINE
  5
21A
330
1F
100
AcDbEntity
  8
0
  6
Continuous
 62
     7
370
    30
100
AcDbLine
 10
4.1868486619
 20
9.3093981963
 30
0.0
 11
4.2006111619
 21
9.3093981963
 31
0.0
  0
LINE
  5
21B
330
1F
100
AcDbEntity
  8
0
  6
Continuous
 62
     7
370
    30
100
AcDbLine
 10
4.1868486619
 20
9.3268981963
 30
0.0
 11
4.2006111619
 21
9.3268981963
 31
0.0
  0
LINE
  5
21C
330
1F
100
AcDbEntity
  8
0
  6
Continuous
 62
     7
370
    30
100
AcDbLine
 10
4.1518486619
 20
9.2918981963
 30
0.0
 11
4.1693486619
 21
9.2918981963
 31
0.0
  0
LINE
  5
21D
330
1F
100
AcDbEntity
  8
0
  6
Continuous
 62
     7
370
    30
100
AcDbLine
 10
4.1693486619
 20
9.2918981963
 30
0.0
 11
4.1693486619
 21
9.0400231963
 31
0.0
  0
LINE
  5
21E
330
1F
100
AcDbEntity
  8
0
  6
Continuous
 62
     7
370
    30
100
AcDbLine
 10
4.1518486619
 20
9.2918981963
 30
0.0
 11
4.1518486619
 21
9.0400231963
 31
0.0
  0
LINE
  5
21F
330
1F
100
AcDbEntity
  8
0
  6
Continuous
 62
     7
370
    30
100
AcDbLine
 10
4.1406236619
 20
9.0087731963
 30
0.0
 11
4.1231236619
 21
9.0087731963
 31
0.0
  0
LINE
  5
220
330
1F
100
AcDbEntity
  8
0
  6
Continuous
 62
     7
370
    30
100
AcDbLine
 10
4.1231236619
 20
9.0400231963
 30
0.0
 11
4.1406236619
 21
9.0400231963
 31
0.0
  0
LINE
  5
221
330
1F
100
AcDbEntity
  8
0
  6
Continuous
 62
     7
370
    30
100
AcDbLine
 10
4.1231236619
 20
9.0087731963
 30
0.0
 11
4.1231236619
 21
9.0400231963
 31
0.0
  0
LINE
  5
222
330
1F
100
AcDbEntity
  8
0
  6
Continuous
 62
     7
370
    30
100
AcDbLine
 10
4.1406236619
 20
9.0400231963
 30
0.0
 11
4.1406236619
 21
9.0087731963
 31
0.0
  0
ARC
  5
223
330
1F
100
AcDbEntity
  8
0
  6
Continuous
 62
     7
370
    30
100
AcDbCircle
 10
4.1868486619
 20
9.2918981963
 30
0.0
 40
0.0175000000000001
100
AcDbArc
 50
90.0
 51
180.0
  0
ARC
  5
224
330
1F
100
AcDbEntity
  8
0
  6
Continuous
 62
     7
370
    30
100
AcDbCircle
 10
4.1868486619
 20
9.2918981963
 30
0.0
 40
0.0350000000000001
100
AcDbArc
 50
90.0
 51
180.0
  0
LINE
  5
225
330
1F
100
AcDbEntity
  8
0
  6
Continuous
 62
     7
370
    30
100
AcDbLine
 10
4.1406236619
 20
9.2918981963
 30
0.0
 11
4.1231236619
 21
9.2918981963
 31
0.0
  0
LINE
  5
226
330
1F
100
AcDbEntity
  8
0
  6
Continuous
 62
     7
370
    30
100
AcDbLine
 10
4.1231236619
 20
9.0400231963
 30
0.0
 11
4.1231236619
 21
9.2918981963
 31
0.0
  0
LINE
  5
227
330
1F
100
AcDbEntity
  8
0
  6
Continuous
 62
     7
370
    30
100
AcDbLine
 10
4.1406236619
 20
9.0400231963
 30
0.0
 11
4.1406236619
 21
9.2918981963
 31
0.0
  0
LINE
  5
228
330
1F
100
AcDbEntity
  8
0
  6
Continuous
 62
     7
370
    30
100
AcDbLine
 10
4.1056236619
 20
9.3093981963
 30
0.0
 11
4.1056236619
 21
9.3268981963
 31
0.0
  0
ARC
  5
229
330
1F
100
AcDbEntity
  8
0
  6
Continuous
 62
     7
370
    30
100
AcDbCircle
 10
4.1056236619
 20
9.2918981963
 30
0.0
 40
0.0175000000000001
100
AcDbArc
 50
0.0
 51
90.0
  0
ARC
  5
22A
330
1F
100
AcDbEntity
  8
0
  6
Continuous
 62
     7
370
    30
100
AcDbCircle
 10
4.1056236619
 20
9.2918981963
 30
0.0
 40
0.0350000000000001
100
AcDbArc
 50
0.0
 51
90.0
  0
LINE
  5
22B
330
1F
100
AcDbEntity
  8
0
  6
Continuous
 62
     7
370
    30
100
AcDbLine
 10
4.0918736619
 20
9.3268981963
 30
0.0
 11
4.1056236619
 21
9.3268981963
 31
0.0
  0
LINE
  5
22C
330
1F
100
AcDbEntity
  8
0
  6
Continuous
 62
     7
370
    30
100
AcDbLine
 10
4.0918736619
 20
9.3093981963
 30
0.0
 11
4.1056236619
 21
9.3093981963
 31
0.0
  0
LINE
  5
22D
330
1F
100
AcDbEntity
  8
0
  6
Continuous
 62
     7
370
    30
100
AcDbLine
 10
4.3902986619
 20
8.7829067545
 30
0.0
 11
4.3727986619
 21
8.7829067545
 31
0.0
  0
LINE
  5
22E
330
1F
100
AcDbEntity
  8
0
  6
Continuous
 62
     7
370
    30
100
AcDbLine
 10
4.3727986619
 20
8.7829067545
 30
0.0
 11
4.3727986619
 21
8.8126272706
 31
0.0
  0
LINE
  5
22F
330
1F
100
AcDbEntity
  8
0
  6
Continuous
 62
     7
370
    30
100
AcDbLine
 10
4.3727986619
 20
8.8126272706
 30
0.0
 11
4.3902986619
 21
8.8126272706
 31
0.0
  0
LINE
  5
230
330
1F
100
AcDbEntity
  8
0
  6
Continuous
 62
     7
370
    30
100
AcDbLine
 10
4.3902986619
 20
8.8126272706
 30
0.0
 11
4.3902986619
 21
8.7829067545
 31
0.0
  0
LINE
  5
231
330
1F
100
AcDbEntity
  8
0
  6
Continuous
 62
     7
370
    30
100
AcDbLine
 10
3.9021736619
 20
8.8126272706
 30
0.0
 11
3.9196736619
 21
8.8126272706
 31
0.0
  0
LINE
  5
232
330
1F
100
AcDbEntity
  8
0
  6
Continuous
 62
     7
370
    30
100
AcDbLine
 10
3.9196736619
 20
8.8126272706
 30
0.0
 11
3.9196736619
 21
8.7829067545
 31
0.0
  0
LINE
  5
233
330
1F
100
AcDbEntity
  8
0
  6
Continuous
 62
     7
370
    30
100
AcDbLine
 10
3.9196736619
 20
8.7829067545
 30
0.0
 11
3.9021736619
 21
8.7829067545
 31
0.0
  0
LINE
  5
234
330
1F
100
AcDbEntity
  8
0
  6
Continuous
 62
     7
370
    30
100
AcDbLine
 10
3.9021736619
 20
8.7829067545
 30
0.0
 11
3.9021736619
 21
8.8126272706
 31
0.0
  0
LINE
  5
235
330
1F
100
AcDbEntity
  8
0
  6
Continuous
 62
     7
370
    30
100
AcDbLine
 10
4.3727986619
 20
8.9287731963
 30
0.0
 11
4.3902986619
 21
8.9287731963
 31
0.0
  0
LINE
  5
236
330
1F
100
AcDbEntity
  8
0
  6
Continuous
 62
     7
370
    30
100
AcDbLine
 10
4.3902986619
 20
8.9287731963
 30
0.0
 11
4.3902986619
 21
8.8126272706
 31
0.0
  0
LINE
  5
237
330
1F
100
AcDbEntity
  8
0
  6
Continuous
 62
     7
370
    30
100
AcDbLine
 10
4.3727986619
 20
8.9287731963
 30
0.0
 11
4.3727986619
 21
8.8126272706
 31
0.0
  0
LINE
  5
238
330
1F
100
AcDbEntity
  8
0
  6
Continuous
 62
     7
370
    30
100
AcDbLine
 10
3.9196736619
 20
8.9287731963
 30
0.0
 11
3.9021736619
 21
8.9287731963
 31
0.0
  0
LINE
  5
239
330
1F
100
AcDbEntity
  8
0
  6
Continuous
 62
     7
370
    30
100
AcDbLine
 10
3.9196736619
 20
8.8126272706
 30
0.0
 11
3.9196736619
 21
8.9287731963
 31
0.0
  0
LINE
  5
23A
330
1F
100
AcDbEntity
  8
0
  6
Continuous
 62
     7
370
    30
100
AcDbLine
 10
3.9021736619
 20
8.8126272706
 30
0.0
 11
3.9021736619
 21
8.9287731963
 31
0.0
  0
ARC
  5
23B
330
1F
100
AcDbEntity
  8
0
  6
Continuous
 62
     7
370
    30
100
AcDbCircle
 10
3.9371736619
 20
8.9287731963
 30
0.0
 40
0.0350000000000001
100
AcDbArc
 50
90.0
 51
180.0
  0
LINE
  5
23C
330
1F
100
AcDbEntity
  8
0
  6
Continuous
 62
     7
370
    30
100
AcDbLine
 10
3.9371736619
 20
8.9462731963
 30
0.0
 11
3.9371736619
 21
8.9637731963
 31
0.0
  0
ARC
  5
23D
330
1F
100
AcDbEntity
  8
0
  6
Continuous
 62
     7
370
    30
100
AcDbCircle
 10
3.9371736619
 20
8.9287731963
 30
0.0
 40
0.0175000000000001
100
AcDbArc
 50
90.0
 51
180.0
  0
LINE
  5
23E
330
1F
100
AcDbEntity
  8
0
  6
Continuous
 62
     7
370
    30
100
AcDbLine
 10
4.1056236619
 20
8.9462731963
 30
0.0
 11
4.1056236619
 21
8.9637731963
 31
0.0
  0
LINE
  5
23F
330
1F
100
AcDbEntity
  8
0
  6
Continuous
 62
     7
370
    30
100
AcDbLine
 10
4.1231236619
 20
8.9812731963
 30
0.0
 11
4.1406236619
 21
8.9812731963
 31
0.0
  0
ARC
  5
240
330
1F
100
AcDbEntity
  8
0
  6
Continuous
 62
     7
370
    30
100
AcDbCircle
 10
4.1056236619
 20
8.9812731963
 30
0.0
 40
0.0350000000000001
100
AcDbArc
 50
270.0
 51
0.0
  0
ARC
  5
241
330
1F
100
AcDbEntity
  8
0
  6
Continuous
 62
     7
370
    30
100
AcDbCircle
 10
4.1056236619
 20
8.9812731963
 30
0.0
 40
0.0175000000000001
100
AcDbArc
 50
270.0
 51
0.0
  0
LINE
  5
242
330
1F
100
AcDbEntity
  8
0
  6
Continuous
 62
     7
370
    30
100
AcDbLine
 10
4.1231236619
 20
9.0087731963
 30
0.0
 11
4.1231236619
 21
8.9812731963
 31
0.0
  0
LINE
  5
243
330
1F
100
AcDbEntity
  8
0
  6
Continuous
 62
     7
370
    30
100
AcDbLine
 10
4.1406236619
 20
9.0087731963
 30
0.0
 11
4.1406236619
 21
8.9812731963
 31
0.0
  0
LINE
  5
244
330
1F
100
AcDbEntity
  8
0
  6
Continuous
 62
     7
370
    30
100
AcDbLine
 10
3.9371736619
 20
8.9462731963
 30
0.0
 11
4.1056236619
 21
8.9462731963
 31
0.0
  0
LINE
  5
245
330
1F
100
AcDbEntity
  8
0
  6
Continuous
 62
     7
370
    30
100
AcDbLine
 10
3.9371736619
 20
8.9637731963
 30
0.0
 11
4.1056236619
 21
8.9637731963
 31
0.0
  0
LINE
  5
246
330
1F
100
AcDbEntity
  8
0
  6
Continuous
 62
     7
370
    30
100
AcDbLine
 10
4.1693486619
 20
8.9812731963
 30
0.0
 11
4.1518486619
 21
8.9812731963
 31
0.0
  0
LINE
  5
247
330
1F
100
AcDbEntity
  8
0
  6
Continuous
 62
     7
370
    30
100
AcDbLine
 10
4.1693486619
 20
8.9812731963
 30
0.0
 11
4.1693486619
 21
9.0087731963
 31
0.0
  0
LINE
  5
248
330
1F
100
AcDbEntity
  8
0
  6
Continuous
 62
     7
370
    30
100
AcDbLine
 10
4.1518486619
 20
8.9812731963
 30
0.0
 11
4.1518486619
 21
9.0087731963
 31
0.0
  0
LINE
  5
249
330
1F
100
AcDbEntity
  8
0
  6
Continuous
 62
     7
370
    30
100
AcDbLine
 10
4.1868486619
 20
8.9462731963
 30
0.0
 11
4.1868486619
 21
8.9637731963
 31
0.0
  0
LINE
  5
24A
330
1F
100
AcDbEntity
  8
0
  6
Continuous
 62
     7
370
    30
100
AcDbLine
 10
4.3552986619
 20
8.9462731963
 30
0.0
 11
4.3552986619
 21
8.9637731963
 31
0.0
  0
LINE
  5
24B
330
1F
100
AcDbEntity
  8
0
  6
Continuous
 62
     7
370
    30
100
AcDbLine
 10
4.1868486619
 20
8.9637731963
 30
0.0
 11
4.3552986619
 21
8.9637731963
 31
0.0
  0
LINE
  5
24C
330
1F
100
AcDbEntity
  8
0
  6
Continuous
 62
     7
370
    30
100
AcDbLine
 10
4.1868486619
 20
8.9462731963
 30
0.0
 11
4.3552986619
 21
8.9462731963
 31
0.0
  0
ARC
  5
24D
330
1F
100
AcDbEntity
  8
0
  6
Continuous
 62
     7
370
    30
100
AcDbCircle
 10
4.1868486619
 20
8.9812731963
 30
0.0
 40
0.0175000000000001
100
AcDbArc
 50
180.0
 51
270.0
  0
ARC
  5
24E
330
1F
100
AcDbEntity
  8
0
  6
Continuous
 62
     7
370
    30
100
AcDbCircle
 10
4.1868486619
 20
8.9812731963
 30
0.0
 40
0.0350000000000001
100
AcDbArc
 50
180.0
 51
270.0
  0
ARC
  5
24F
330
1F
100
AcDbEntity
  8
0
  6
Continuous
 62
     7
370
    30
100
AcDbCircle
 10
4.3552986619
 20
8.9287731963
 30
0.0
 40
0.0350000000000001
100
AcDbArc
 50
0.0
 51
90.0
  0
ARC
  5
250
330
1F
100
AcDbEntity
  8
0
  6
Continuous
 62
     7
370
    30
100
AcDbCircle
 10
4.3552986619
 20
8.9287731963
 30
0.0
 40
0.0175000000000001
100
AcDbArc
 50
360.0
 51
90.0
  0
LINE
  5
251
330
1F
100
AcDbEntity
  8
0
  6
Continuous
 62
     7
370
    30
100
AcDbLine
 10
3.9021736619
 20
8.3853026802
 30
0.0
 11
3.9196736619
 21
8.3853026802
 31
0.0
  0
LINE
  5
252
330
1F
100
AcDbEntity
  8
0
  6
Continuous
 62
     7
370
    30
100
AcDbLine
 10
3.9021736619
 20
8.7829067545
 30
0.0
 11
3.9021736619
 21
8.3853026802
 31
0.0
  0
LINE
  5
253
330
1F
100
AcDbEntity
  8
0
  6
Continuous
 62
     7
370
    30
100
AcDbLine
 10
3.9196736619
 20
8.7829067545
 30
0.0
 11
3.9196736619
 21
8.3853026802
 31
0.0
  0
LINE
  5
254
330
1F
100
AcDbEntity
  8
0
  6
Continuous
 62
     7
370
    30
100
AcDbLine
 10
4.3727986619
 20
8.3853026802
 30
0.0
 11
4.3902986619
 21
8.3853026802
 31
0.0
  0
LINE
  5
255
330
1F
100
AcDbEntity
  8
0
  6
Continuous
 62
     7
370
    30
100
AcDbLine
 10
4.3727986619
 20
8.3853026802
 30
0.0
 11
4.3727986619
 21
8.7829067545
 31
0.0
  0
LINE
  5
256
330
1F
100
AcDbEntity
  8
0
  6
Continuous
 62
     7
370
    30
100
AcDbLine
 10
4.3902986619
 20
8.3853026802
 30
0.0
 11
4.3902986619
 21
8.7829067545
 31
0.0
  0
LINE
  5
257
330
1F
100
AcDbEntity
  8
0
  6
Continuous
 62
     7
370
    30
100
AcDbLine
 10
4.3902986619
 20
8.3837731963
 30
0.0
 11
4.3727986619
 21
8.3837731963
 31
0.0
  0
LINE
  5
258
330
1F
100
AcDbEntity
  8
0
  6
Continuous
 62
     7
370
    30
100
AcDbLine
 10
4.3727986619
 20
8.3837731963
 30
0.0
 11
4.3727986619
 21
8.3853026802
 31
0.0
  0
LINE
  5
259
330
1F
100
AcDbEntity
  8
0
  6
Continuous
 62
     7
370
    30
100
AcDbLine
 10
4.3902986619
 20
8.3853026802
 30
0.0
 11
4.3902986619
 21
8.3837731963
 31
0.0
  0
LINE
  5
25A
330
1F
100
AcDbEntity
  8
0
  6
Continuous
 62
     7
370
    30
100
AcDbLine
 10
3.9196736619
 20
8.3837731963
 30
0.0
 11
3.9021736619
 21
8.3837731963
 31
0.0
  0
LINE
  5
25B
330
1F
100
AcDbEntity
  8
0
  6
Continuous
 62
     7
370
    30
100
AcDbLine
 10
3.9021736619
 20
8.3837731963
 30
0.0
 11
3.9021736619
 21
8.3853026802
 31
0.0
  0
LINE
  5
25C
330
1F
100
AcDbEntity
  8
0
  6
Continuous
 62
     7
370
    30
100
AcDbLine
 10
3.9196736619
 20
8.3853026802
 30
0.0
 11
3.9196736619
 21
8.3837731963
 31
0.0
  0
LINE
  5
25D
330
1F
100
AcDbEntity
  8
0
  6
Continuous
 62
     7
370
    30
100
AcDbLine
 10
4.3552986619
 20
8.8837731963
 30
0.0
 11
4.3727986619
 21
8.8837731963
 31
0.0
  0
LINE
  5
25E
330
1F
100
AcDbEntity
  8
0
  6
Continuous
 62
     7
370
    30
100
AcDbLine
 10
4.3727986619
 20
8.3837731963
 30
0.0
 11
4.3552986619
 21
8.3837731963
 31
0.0
  0
LINE
  5
25F
330
1F
100
AcDbEntity
  8
0
  6
Continuous
 62
     7
370
    30
100
AcDbLine
 10
4.3552986619
 20
8.8837731963
 30
0.0
 11
4.3552986619
 21
8.3837731963
 31
0.0
  0
LINE
  5
260
330
1F
100
AcDbEntity
  8
0
  6
Continuous
 62
     7
370
    30
100
AcDbLine
 10
3.9196736619
 20
8.8837731963
 30
0.0
 11
3.9371736619
 21
8.8837731963
 31
0.0
  0
LINE
  5
261
330
1F
100
AcDbEntity
  8
0
  6
Continuous
 62
     7
370
    30
100
AcDbLine
 10
3.9371736619
 20
8.3837731963
 30
0.0
 11
3.9371736619
 21
8.8837731963
 31
0.0
  0
LINE
  5
262
330
1F
100
AcDbEntity
  8
0
  6
Continuous
 62
     7
370
    30
100
AcDbLine
 10
3.9371736619
 20
8.3837731963
 30
0.0
 11
3.9196736619
 21
8.3837731963
 31
0.0
  0
LINE
  5
263
330
1F
100
AcDbEntity
  8
0
  6
Continuous
 62
     7
370
    30
100
AcDbLine
 10
4.3552986619
 20
8.8837731963
 30
0.0
 11
3.9371736619
 21
8.8837731963
 31
0.0
  0
LINE
  5
264
330
1F
100
AcDbEntity
  8
0
  6
Continuous
 62
     7
370
    30
100
AcDbLine
 10
3.9371736619
 20
8.3837731963
 30
0.0
 11
4.3552986619
 21
8.3837731963
 31
0.0
  0
INSERT
  5
270
330
1F
100
AcDbEntity
  8
BLANK-SIZE-2
100
AcDbBlockReference
  2
SW_CENTERMARKSYMBOL_6
 10
3.8418736619
 20
9.8737731963
 30
0.0
  0
INSERT
  5
27C
330
1F
100
AcDbEntity
  8
BLANK-SIZE-2
100
AcDbBlockReference
  2
SW_CENTERMARKSYMBOL_7
 10
3.6543736619
 20
9.8112731963
 30
0.0
  0
INSERT
  5
288
330
1F
100
AcDbEntity
  8
BLANK-SIZE-2
100
AcDbBlockReference
  2
SW_CENTERMARKSYMBOL_8
 10
4.4506111619
 20
9.9050231963
 30
0.0
  0
INSERT
  5
294
330
1F
100
AcDbEntity
  8
BLANK-SIZE-2
100
AcDbBlockReference
  2
SW_CENTERMARKSYMBOL_9
 10
4.6381111619
 20
9.8425231963
 30
0.0
  0
ENDSEC
  0
SECTION
  2
OBJECTS
  0
DICTIONARY
  5
C
330
0
100
AcDbDictionary
281
     1
  3
ACAD_GROUP
350
D
  3
ACAD_LAYOUT
350
1A
  3
ACAD_MLINESTYLE
350
17
  3
ACAD_PLOTSETTINGS
350
19
  3
ACAD_PLOTSTYLENAME
350
E
  3
ACAD_SCALELIST
350
47
  0
DICTIONARY
  5
D
102
{ACAD_REACTORS
330
C
102
}
330
C
100
AcDbDictionary
281
     1
  0
DICTIONARY
  5
1A
102
{ACAD_REACTORS
330
C
102
}
330
C
100
AcDbDictionary
281
     1
  3
Layout1
350
1E
  3
Layout2
350
26
  3
Model
350
22
  0
DICTIONARY
  5
17
102
{ACAD_REACTORS
330
C
102
}
330
C
100
AcDbDictionary
281
     1
  3
Standard
350
18
  0
DICTIONARY
  5
19
102
{ACAD_REACTORS
330
C
102
}
330
C
100
AcDbDictionary
281
     1
  0
ACDBDICTIONARYWDFLT
  5
E
102
{ACAD_REACTORS
330
C
102
}
330
C
100
AcDbDictionary
281
     1
  3
Normal
350
F
100
AcDbDictionaryWithDefault
340
F
  0
DICTIONARY
  5
47
102
{ACAD_REACTORS
330
C
102
}
330
C
100
AcDbDictionary
281
     1
  3
A0
350
48
  3
A1
350
49
  3
A2
350
4A
  3
A3
350
4B
  3
A4
350
4C
  3
A5
350
4D
  3
A6
350
4E
  3
A7
350
4F
  3
A8
350
50
  3
A9
350
51
  3
B0
350
52
  3
B1
350
53
  3
B2
350
54
  3
B3
350
55
  3
B4
350
56
  3
B5
350
57
  3
B6
350
58
  3
B7
350
59
  3
B8
350
5A
  3
B9
350
5B
  3
C0
350
5C
  3
C1
350
5D
  3
C2
350
5E
  3
C3
350
5F
  3
C4
350
60
  3
C5
350
61
  3
C6
350
62
  3
C7
350
63
  3
C8
350
64
  3
C9
350
65
  3
D0
350
66
  3
D1
350
67
  3
D2
350
68
  0
LAYOUT
  5
1E
102
{ACAD_REACTORS
330
1A
102
}
330
1A
100
AcDbPlotSettings
  1

  2
none_device
  4

  6

 40
0.0
 41
0.0
 42
0.0
 43
0.0
 44
0.0
 45
0.0
 46
0.0
 47
0.0
 48
0.0
 49
0.0
140
0.0
141
0.0
142
1.0
143
1.0
 70
   688
 72
     0
 73
     0
 74
     5
  7

 75
    16
147
1.0
148
0.0
149
0.0
100
AcDbLayout
  1
Layout1
 70
     1
 71
     1
 10
0.0
 20
0.0
 11
12.0
 21
9.0
 12
0.0
 22
0.0
 32
0.0
 14
1.0000000000E+20
 24
1.0000000000E+20
 34
1.0000000000E+20
 15
-1.0000000000E+20
 25
-1.0000000000E+20
 35
-1.0000000000E+20
146
0.0
 13
0.0
 23
0.0
 33
0.0
 16
1.0
 26
0.0
 36
0.0
 17
0.0
 27
1.0
 37
0.0
 76
     0
330
1B
  0
LAYOUT
  5
26
102
{ACAD_REACTORS
330
1A
102
}
330
1A
100
AcDbPlotSettings
  1

  2
none_device
  4

  6

 40
0.0
 41
0.0
 42
0.0
 43
0.0
 44
0.0
 45
0.0
 46
0.0
 47
0.0
 48
0.0
 49
0.0
140
0.0
141
0.0
142
1.0
143
1.0
 70
   688
 72
     0
 73
     0
 74
     5
  7

 75
    16
147
1.0
148
0.0
149
0.0
100
AcDbLayout
  1
Layout2
 70
     1
 71
     2
 10
0.0
 20
0.0
 11
0.0
 21
0.0
 12
0.0
 22
0.0
 32
0.0
 14
0.0
 24
0.0
 34
0.0
 15
0.0
 25
0.0
 35
0.0
146
0.0
 13
0.0
 23
0.0
 33
0.0
 16
1.0
 26
0.0
 36
0.0
 17
0.0
 27
1.0
 37
0.0
 76
     0
330
23
  0
LAYOUT
  5
22
102
{ACAD_REACTORS
330
1A
102
}
330
1A
100
AcDbPlotSettings
  1

  2
none_device
  4
Letter_(8.50_x_11.00_Inches)
  6

 40
6.35
 41
6.35
 42
6.35000508
 43
6.35000508
 44
215.9
 45
279.4
 46
0.0
 47
0.0
 48
0.0
 49
0.0
140
0.0
141
0.0
142
1.0
143
1.0
 70
  1712
 72
     0
 73
     0
 74
     0
  7

 75
     0
147
1.0
148
0.0
149
0.0
100
AcDbLayout
  1
Model
 70
     1
 71
     0
 10
0.0
 20
0.0
 11
8.5
 21
11.0
 12
0.0
 22
0.0
 32
0.0
 14
0.0
 24
0.0
 34
0.0
 15
8.5
 25
11.0
 35
0.0
146
0.0
 13
0.0
 23
0.0
 33
0.0
 16
1.0
 26
0.0
 36
0.0
 17
0.0
 27
1.0
 37
0.0
 76
     0
330
1F
331
29
  0
MLINESTYLE
  5
18
102
{ACAD_REACTORS
330
17
102
}
330
17
100
AcDbMlineStyle
  2
Standard
 70
     0
  3

 62
   256
 51
90.0
 52
90.0
 71
     2
 49
0.5
 62
   256
  6
BYLAYER
 49
-0.5
 62
   256
  6
BYLAYER
  0
ACDBPLACEHOLDER
  5
F
102
{ACAD_REACTORS
330
E
102
}
330
E
  0
SCALE
  5
48
102
{ACAD_REACTORS
330
47
102
}
330
47
100
AcDbScale
 70
     0
300
1:1
140
1.0
141
1.0
290
     1
  0
SCALE
  5
49
102
{ACAD_REACTORS
330
47
102
}
330
47
100
AcDbScale
 70
     0
300
1:2
140
1.0
141
2.0
290
     0
  0
SCALE
  5
4A
102
{ACAD_REACTORS
330
47
102
}
330
47
100
AcDbScale
 70
     0
300
1:4
140
1.0
141
4.0
290
     0
  0
SCALE
  5
4B
102
{ACAD_REACTORS
330
47
102
}
330
47
100
AcDbScale
 70
     0
300
1:5
140
1.0
141
5.0
290
     0
  0
SCALE
  5
4C
102
{ACAD_REACTORS
330
47
102
}
330
47
100
AcDbScale
 70
     0
300
1:8
140
1.0
141
8.0
290
     0
  0
SCALE
  5
4D
102
{ACAD_REACTORS
330
47
102
}
330
47
100
AcDbScale
 70
     0
300
1:10
140
1.0
141
10.0
290
     0
  0
SCALE
  5
4E
102
{ACAD_REACTORS
330
47
102
}
330
47
100
AcDbScale
 70
     0
300
1:16
140
1.0
141
16.0
290
     0
  0
SCALE
  5
4F
102
{ACAD_REACTORS
330
47
102
}
330
47
100
AcDbScale
 70
     0
300
1:20
140
1.0
141
20.0
290
     0
  0
SCALE
  5
50
102
{ACAD_REACTORS
330
47
102
}
330
47
100
AcDbScale
 70
     0
300
1:30
140
1.0
141
30.0
290
     0
  0
SCALE
  5
51
102
{ACAD_REACTORS
330
47
102
}
330
47
100
AcDbScale
 70
     0
300
1:40
140
1.0
141
40.0
290
     0
  0
SCALE
  5
52
102
{ACAD_REACTORS
330
47
102
}
330
47
100
AcDbScale
 70
     0
300
1:50
140
1.0
141
50.0
290
     0
  0
SCALE
  5
53
102
{ACAD_REACTORS
330
47
102
}
330
47
100
AcDbScale
 70
     0
300
1:100
140
1.0
141
100.0
290
     0
  0
SCALE
  5
54
102
{ACAD_REACTORS
330
47
102
}
330
47
100
AcDbScale
 70
     0
300
2:1
140
2.0
141
1.0
290
     0
  0
SCALE
  5
55
102
{ACAD_REACTORS
330
47
102
}
330
47
100
AcDbScale
 70
     0
300
4:1
140
4.0
141
1.0
290
     0
  0
SCALE
  5
56
102
{ACAD_REACTORS
330
47
102
}
330
47
100
AcDbScale
 70
     0
300
8:1
140
8.0
141
1.0
290
     0
  0
SCALE
  5
57
102
{ACAD_REACTORS
330
47
102
}
330
47
100
AcDbScale
 70
     0
300
10:1
140
10.0
141
1.0
290
     0
  0
SCALE
  5
58
102
{ACAD_REACTORS
330
47
102
}
330
47
100
AcDbScale
 70
     0
300
100:1
140
100.0
141
1.0
290
     0
  0
SCALE
  5
59
102
{ACAD_REACTORS
330
47
102
}
330
47
100
AcDbScale
 70
     0
300
1/128" = 1'-0"
140
0.0078125
141
12.0
290
     0
  0
SCALE
  5
5A
102
{ACAD_REACTORS
330
47
102
}
330
47
100
AcDbScale
 70
     0
300
1/64" = 1'-0"
140
0.015625
141
12.0
290
     0
  0
SCALE
  5
5B
102
{ACAD_REACTORS
330
47
102
}
330
47
100
AcDbScale
 70
     0
300
1/32" = 1'-0"
140
0.03125
141
12.0
290
     0
  0
SCALE
  5
5C
102
{ACAD_REACTORS
330
47
102
}
330
47
100
AcDbScale
 70
     0
300
1/16" = 1'-0"
140
0.0625
141
12.0
290
     0
  0
SCALE
  5
5D
102
{ACAD_REACTORS
330
47
102
}
330
47
100
AcDbScale
 70
     0
300
3/32" = 1'-0"
140
0.09375
141
12.0
290
     0
  0
SCALE
  5
5E
102
{ACAD_REACTORS
330
47
102
}
330
47
100
AcDbScale
 70
     0
300
1/8" = 1'-0"
140
0.125
141
12.0
290
     0
  0
SCALE
  5
5F
102
{ACAD_REACTORS
330
47
102
}
330
47
100
AcDbScale
 70
     0
300
3/16" = 1'-0"
140
0.1875
141
12.0
290
     0
  0
SCALE
  5
60
102
{ACAD_REACTORS
330
47
102
}
330
47
100
AcDbScale
 70
     0
300
1/4" = 1'-0"
140
0.25
141
12.0
290
     0
  0
SCALE
  5
61
102
{ACAD_REACTORS
330
47
102
}
330
47
100
AcDbScale
 70
     0
300
3/8" = 1'-0"
140
0.375
141
12.0
290
     0
  0
SCALE
  5
62
102
{ACAD_REACTORS
330
47
102
}
330
47
100
AcDbScale
 70
     0
300
1/2" = 1'-0"
140
0.5
141
12.0
290
     0
  0
SCALE
  5
63
102
{ACAD_REACTORS
330
47
102
}
330
47
100
AcDbScale
 70
     0
300
3/4" = 1'-0"
140
0.75
141
12.0
290
     0
  0
SCALE
  5
64
102
{ACAD_REACTORS
330
47
102
}
330
47
100
AcDbScale
 70
     0
300
1" = 1'-0"
140
1.0
141
12.0
290
     0
  0
SCALE
  5
65
102
{ACAD_REACTORS
330
47
102
}
330
47
100
AcDbScale
 70
     0
300
1-1/2" = 1'-0"
140
1.5
141
12.0
290
     0
  0
SCALE
  5
66
102
{ACAD_REACTORS
330
47
102
}
330
47
100
AcDbScale
 70
     0
300
3" = 1'-0"
140
3.0
141
12.0
290
     0
  0
SCALE
  5
67
102
{ACAD_REACTORS
330
47
102
}
330
47
100
AcDbScale
 70
     0
300
6" = 1'-0"
140
6.0
141
12.0
290
     0
  0
SCALE
  5
68
102
{ACAD_REACTORS
330
47
102
}
330
47
100
AcDbScale
 70
     0
300
1'-0" = 1'-0"
140
12.0
141
12.0
290
     0
  0
ENDSEC
  0
EOF
