  0
SECTION
  2
HEADER
  9
$ACADVER
  1
AC1018
  9
$ACADMAINTVER
 70
     0
  9
$DWGCODEPAGE
  3
ANSI_1252
  9
$INSBASE
 10
0.0
 20
0.0
 30
0.0
  9
$EXTMIN
 10
1.119049093358974
 20
-0.9469909422879432
 30
-0.0015258207003583
  9
$EXTMAX
 10
6.858261126277806
 20
12.6368408478294
 30
0.0000000349246037
  9
$LIMMIN
 10
0.0
 20
0.0
  9
$LIMMAX
 10
8.5
 20
11.0
  9
$ORTHOMODE
 70
     0
  9
$REGENMODE
 70
     1
  9
$FILLMODE
 70
     1
  9
$QTEXTMODE
 70
     0
  9
$MIRRTEXT
 70
     1
  9
$LTSCALE
 40
1.0
  9
$ATTMODE
 70
     1
  9
$TEXTSIZE
 40
0.09100341796875
  9
$TRACEWID
 40
0.05
  9
$TEXTSTYLE
  7
Standard
  9
$CLAYER
  8
0
  9
$CELTYPE
  6
ByLayer
  9
$CECOLOR
 62
   256
  9
$CELTSCALE
 40
1.0
  9
$DISPSILH
 70
     0
  9
$DIMSCALE
 40
1.0
  9
$DIMASZ
 40
0.13
  9
$DIMEXO
 40
0.05
  9
$DIMDLI
 40
0.38
  9
$DIMRND
 40
0.0
  9
$DIMDLE
 40
0.0
  9
$DIMEXE
 40
0.125
  9
$DIMTP
 40
0.0
  9
$DIMTM
 40
0.0
  9
$DIMTXT
 40
0.125
  9
$DIMCEN
 40
0.09
  9
$DIMTSZ
 40
0.0
  9
$DIMTOL
 70
     0
  9
$DIMLIM
 70
     0
  9
$DIMTIH
 70
     1
  9
$DIMTOH
 70
     1
  9
$DIMSE1
 70
     0
  9
$DIMSE2
 70
     0
  9
$DIMTAD
 70
     0
  9
$DIMZIN
 70
     0
  9
$DIMBLK
  1

  9
$DIMASO
 70
     1
  9
$DIMSHO
 70
     1
  9
$DIMPOST
  1

  9
$DIMAPOST
  1

  9
$DIMALT
 70
     0
  9
$DIMALTD
 70
     2
  9
$DIMALTF
 40
25.4
  9
$DIMLFAC
 40
1.0
  9
$DIMTOFL
 70
     0
  9
$DIMTVP
 40
0.0
  9
$DIMTIX
 70
     0
  9
$DIMSOXD
 70
     0
  9
$DIMSAH
 70
     0
  9
$DIMBLK1
  1

  9
$DIMBLK2
  1

  9
$DIMSTYLE
  2
Standard
  9
$DIMCLRD
 70
     0
  9
$DIMCLRE
 70
     0
  9
$DIMCLRT
 70
     0
  9
$DIMTFAC
 40
1.0
  9
$DIMGAP
 40
0.06
  9
$DIMJUST
 70
     0
  9
$DIMSD1
 70
     0
  9
$DIMSD2
 70
     0
  9
$DIMTOLJ
 70
     1
  9
$DIMTZIN
 70
     0
  9
$DIMALTZ
 70
     0
  9
$DIMALTTZ
 70
     0
  9
$DIMUPT
 70
     0
  9
$DIMDEC
 70
     2
  9
$DIMTDEC
 70
     2
  9
$DIMALTU
 70
     2
  9
$DIMALTTD
 70
     2
  9
$DIMTXSTY
  7
Standard
  9
$DIMAUNIT
 70
     0
  9
$DIMADEC
 70
     0
  9
$DIMALTRND
 40
0.0
  9
$DIMAZIN
 70
     0
  9
$DIMDSEP
 70
    46
  9
$DIMATFIT
 70
     3
  9
$DIMFRAC
 70
     0
  9
$DIMLDRBLK
  1

  9
$DIMLUNIT
 70
     2
  9
$DIMLWD
 70
    -2
  9
$DIMLWE
 70
    -2
  9
$DIMTMOVE
 70
     0
  9
$LUNITS
 70
     2
  9
$LUPREC
 70
     2
  9
$SKETCHINC
 40
0.1
  9
$FILLETRAD
 40
0.5
  9
$AUNITS
 70
     0
  9
$AUPREC
 70
     0
  9
$MENU
  1
.
  9
$ELEVATION
 40
0.0
  9
$PELEVATION
 40
0.0
  9
$THICKNESS
 40
0.0
  9
$LIMCHECK
 70
     0
  9
$CHAMFERA
 40
0.0
  9
$CHAMFERB
 40
0.0
  9
$CHAMFERC
 40
0.0
  9
$CHAMFERD
 40
0.0
  9
$SKPOLY
 70
     0
  9
$TDCREATE
 40
2457424.440703287
  9
$TDUCREATE
 40
2457424.690703287
  9
$TDUPDATE
 40
2457424.464368275
  9
$TDUUPDATE
 40
2457424.714368276
  9
$TDINDWG
 40
0.0013164815
  9
$TDUSRTIMER
 40
0.0013164815
  9
$USRTIMER
 70
     1
  9
$ANGBASE
 50
0.0
  9
$ANGDIR
 70
     0
  9
$PDMODE
 70
     0
  9
$PDSIZE
 40
-1.0
  9
$PLINEWID
 40
0.0
  9
$SPLFRAME
 70
     0
  9
$SPLINETYPE
 70
     6
  9
$SPLINESEGS
 70
     8
  9
$HANDSEED
  5
33D
  9
$SURFTAB1
 70
     6
  9
$SURFTAB2
 70
     6
  9
$SURFTYPE
 70
     6
  9
$SURFU
 70
     6
  9
$SURFV
 70
     6
  9
$UCSBASE
  2

  9
$UCSNAME
  2

  9
$UCSORG
 10
0.0
 20
0.0
 30
0.0
  9
$UCSXDIR
 10
1.0
 20
0.0
 30
0.0
  9
$UCSYDIR
 10
0.0
 20
1.0
 30
0.0
  9
$UCSORTHOREF
  2

  9
$UCSORTHOVIEW
 70
     0
  9
$UCSORGTOP
 10
0.0
 20
0.0
 30
0.0
  9
$UCSORGBOTTOM
 10
0.0
 20
0.0
 30
0.0
  9
$UCSORGLEFT
 10
0.0
 20
0.0
 30
0.0
  9
$UCSORGRIGHT
 10
0.0
 20
0.0
 30
0.0
  9
$UCSORGFRONT
 10
0.0
 20
0.0
 30
0.0
  9
$UCSORGBACK
 10
0.0
 20
0.0
 30
0.0
  9
$PUCSBASE
  2

  9
$PUCSNAME
  2

  9
$PUCSORG
 10
0.0
 20
0.0
 30
0.0
  9
$PUCSXDIR
 10
1.0
 20
0.0
 30
0.0
  9
$PUCSYDIR
 10
0.0
 20
1.0
 30
0.0
  9
$PUCSORTHOREF
  2

  9
$PUCSORTHOVIEW
 70
     0
  9
$PUCSORGTOP
 10
0.0
 20
0.0
 30
0.0
  9
$PUCSORGBOTTOM
 10
0.0
 20
0.0
 30
0.0
  9
$PUCSORGLEFT
 10
0.0
 20
0.0
 30
0.0
  9
$PUCSORGRIGHT
 10
0.0
 20
0.0
 30
0.0
  9
$PUCSORGFRONT
 10
0.0
 20
0.0
 30
0.0
  9
$PUCSORGBACK
 10
0.0
 20
0.0
 30
0.0
  9
$USERI1
 70
     0
  9
$USERI2
 70
     0
  9
$USERI3
 70
     0
  9
$USERI4
 70
     0
  9
$USERI5
 70
     0
  9
$USERR1
 40
0.0
  9
$USERR2
 40
0.0
  9
$USERR3
 40
0.0
  9
$USERR4
 40
0.0
  9
$USERR5
 40
0.0
  9
$WORLDVIEW
 70
     1
  9
$SHADEDGE
 70
     3
  9
$SHADEDIF
 70
    70
  9
$TILEMODE
 70
     1
  9
$MAXACTVP
 70
    64
  9
$PINSBASE
 10
0.0
 20
0.0
 30
0.0
  9
$PLIMCHECK
 70
     0
  9
$PEXTMIN
 10
1.000000000000000E+20
 20
1.000000000000000E+20
 30
1.000000000000000E+20
  9
$PEXTMAX
 10
-1.000000000000000E+20
 20
-1.000000000000000E+20
 30
-1.000000000000000E+20
  9
$PLIMMIN
 10
0.0
 20
0.0
  9
$PLIMMAX
 10
12.0
 20
9.0
  9
$UNITMODE
 70
     0
  9
$VISRETAIN
 70
     1
  9
$PLINEGEN
 70
     0
  9
$PSLTSCALE
 70
     1
  9
$TREEDEPTH
 70
  3020
  9
$CMLSTYLE
  2
Standard
  9
$CMLJUST
 70
     0
  9
$CMLSCALE
 40
1.0
  9
$PROXYGRAPHICS
 70
     1
  9
$MEASUREMENT
 70
     0
  9
$CELWEIGHT
370
    -1
  9
$ENDCAPS
280
     0
  9
$JOINSTYLE
280
     0
  9
$LWDISPLAY
290
     1
  9
$INSUNITS
 70
     1
  9
$HYPERLINKBASE
  1

  9
$STYLESHEET
  1
monochrome.ctb
  9
$XEDIT
290
     1
  9
$CEPSNTYPE
380
     0
  9
$PSTYLEMODE
290
     1
  9
$FINGERPRINTGUID
  2
{09270383-05CB-47A4-BAC1-B135CA9C9E55}
  9
$VERSIONGUID
  2
{19A1D9FF-541B-4BEE-81EC-C9CFEAB5D40C}
  9
$EXTNAMES
290
     1
  9
$PSVPSCALE
 40
0.0
  9
$OLESTARTUP
290
     0
  9
$SORTENTS
280
   127
  9
$INDEXCTL
280
     0
  9
$HIDETEXT
280
     0
  9
$XCLIPFRAME
290
     0
  9
$HALOGAP
280
     0
  9
$OBSCOLOR
 70
   257
  9
$OBSLTYPE
280
     0
  9
$INTERSECTIONDISPLAY
280
     0
  9
$INTERSECTIONCOLOR
 70
   257
  9
$DIMASSOC
280
     1
  9
$PROJECTNAME
  1

  0
ENDSEC
  0
SECTION
  2
CLASSES
  0
CLASS
  1
ACDBDICTIONARYWDFLT
  2
AcDbDictionaryWithDefault
  3
ObjectDBX Classes
 90
        0
 91
        1
280
     0
281
     0
  0
CLASS
  1
VISUALSTYLE
  2
AcDbVisualStyle
  3
ObjectDBX Classes
 90
     4095
 91
        0
280
     0
281
     0
  0
CLASS
  1
MATERIAL
  2
AcDbMaterial
  3
ObjectDBX Classes
 90
        0
 91
        0
280
     0
281
     0
  0
CLASS
  1
SCALE
  2
AcDbScale
  3
ObjectDBX Classes
 90
     1153
 91
       33
280
     0
281
     0
  0
CLASS
  1
TABLESTYLE
  2
AcDbTableStyle
  3
ObjectDBX Classes
 90
     4095
 91
        0
280
     0
281
     0
  0
CLASS
  1
MLEADERSTYLE
  2
AcDbMLeaderStyle
  3
ACDB_MLEADERSTYLE_CLASS
 90
     4095
 91
        0
280
     0
281
     0
  0
CLASS
  1
SUN
  2
AcDbSun
  3
SCENEOE
 90
     1153
 91
        1
280
     0
281
     0
  0
CLASS
  1
ACDBPLACEHOLDER
  2
AcDbPlaceHolder
  3
ObjectDBX Classes
 90
        0
 91
        1
280
     0
281
     0
  0
CLASS
  1
LAYOUT
  2
AcDbLayout
  3
ObjectDBX Classes
 90
        0
 91
        3
280
     0
281
     0
  0
ENDSEC
  0
SECTION
  2
TABLES
  0
TABLE
  2
VPORT
  5
8
330
0
100
AcDbSymbolTable
 70
     8
  0
VPORT
  5
33C
330
8
100
AcDbSymbolTableRecord
100
AcDbViewportTableRecord
  2
*Active
 70
     0
 10
0.0
 20
0.0
 11
1.0
 21
1.0
 12
3.706315858738925
 22
11.34486550613763
 13
0.0
 23
0.0
 14
0.5
 24
0.5
 15
0.5
 25
0.5
 16
0.0
 26
0.0
 36
1.0
 17
0.0
 27
0.0
 37
0.0
 40
35.02874779052009
 41
2.251219512195121
 42
50.0
 43
0.0
 44
0.0
 50
0.0
 51
0.0
 71
     0
 72
  2000
 73
     1
 74
     3
 75
     0
 76
     0
 77
     0
 78
     0
281
     0
 65
     1
110
0.0
120
0.0
130
0.0
111
1.0
121
0.0
131
0.0
112
0.0
122
1.0
132
0.0
 79
     0
146
0.0
  0
ENDTAB
  0
TABLE
  2
LTYPE
  5
5
330
0
100
AcDbSymbolTable
 70
     6
  0
LTYPE
  5
14
330
5
100
AcDbSymbolTableRecord
100
AcDbLinetypeTableRecord
  2
ByBlock
 70
     0
  3

 72
    65
 73
     0
 40
0.0
  0
LTYPE
  5
15
330
5
100
AcDbSymbolTableRecord
100
AcDbLinetypeTableRecord
  2
ByLayer
 70
     0
  3

 72
    65
 73
     0
 40
0.0
  0
LTYPE
  5
16
330
5
100
AcDbSymbolTableRecord
100
AcDbLinetypeTableRecord
  2
Continuous
 70
     0
  3
Solid line
 72
    65
 73
     0
 40
0.0
  0
LTYPE
  5
6E
330
5
100
AcDbSymbolTableRecord
100
AcDbLinetypeTableRecord
  2
HIDDEN
 70
     0
  3
Hidden __ __ __ __ __ __ __ __ __ __ __ __ __ __
 72
    65
 73
     2
 40
0.075
 49
0.05
 74
     0
 49
-0.025
 74
     0
  0
LTYPE
  5
6F
330
5
100
AcDbSymbolTableRecord
100
AcDbLinetypeTableRecord
  2
PHANTOM
 70
     0
  3
Phantom ______  __  __  ______  __  __  ______
 72
    65
 73
     6
 40
0.5
 49
0.25
 74
     0
 49
-0.05
 74
     0
 49
0.05
 74
     0
 49
-0.05
 74
     0
 49
0.05
 74
     0
 49
-0.05
 74
     0
  0
LTYPE
  5
70
330
5
100
AcDbSymbolTableRecord
100
AcDbLinetypeTableRecord
  2
CENTER
 70
     0
  3
Center ____ _ ____ _ ____ _ ____ _ ____ _ ____
 72
    65
 73
     4
 40
0.4
 49
0.25
 74
     0
 49
-0.05
 74
     0
 49
0.05
 74
     0
 49
-0.05
 74
     0
  0
LTYPE
  5
71
330
5
100
AcDbSymbolTableRecord
100
AcDbLinetypeTableRecord
  2
CENTERX2
 70
     0
  3
Center (2x) ________  __  ________  __  _____
 72
    65
 73
     4
 40
0.8
 49
0.5
 74
     0
 49
-0.1
 74
     0
 49
0.1
 74
     0
 49
-0.1
 74
     0
  0
LTYPE
  5
72
330
5
100
AcDbSymbolTableRecord
100
AcDbLinetypeTableRecord
  2
DOT2
 70
     0
  3
Dot (.5x) ........................................
 72
    65
 73
     2
 40
0.025
 49
0.0
 74
     0
 49
-0.025
 74
     0
  0
ENDTAB
  0
TABLE
  2
LAYER
  5
2
330
0
100
AcDbSymbolTable
 70
     1
  0
LAYER
  5
10
330
2
100
AcDbSymbolTableRecord
100
AcDbLayerTableRecord
  2
0
 70
     0
 62
     7
  6
Continuous
370
    -3
390
F
  0
ENDTAB
  0
TABLE
  2
STYLE
  5
3
330
0
100
AcDbSymbolTable
 70
     3
  0
STYLE
  5
11
330
3
100
AcDbSymbolTableRecord
100
AcDbTextStyleTableRecord
  2
Standard
 70
     0
 40
0.0
 41
1.0
 50
0.0
 71
     0
 42
0.09100341796875
  3
txt
  4

  0
STYLE
  5
97
330
3
100
AcDbSymbolTableRecord
100
AcDbTextStyleTableRecord
  2
SLDTEXTSTYLE0
 70
     0
 40
0.0
 41
0.7
 50
0.0
 71
     0
 42
0.09100341796875
  3
TXT
  4

  0
STYLE
  5
9F
330
3
100
AcDbSymbolTableRecord
100
AcDbTextStyleTableRecord
  2
SLDTEXTSTYLE1
 70
     0
 40
0.0
 41
0.605
 50
0.0
 71
     0
 42
0.09100341796875
  3
TXT
  4

  0
ENDTAB
  0
TABLE
  2
VIEW
  5
6
330
0
100
AcDbSymbolTable
 70
     0
  0
ENDTAB
  0
TABLE
  2
UCS
  5
7
330
0
100
AcDbSymbolTable
 70
     0
  0
ENDTAB
  0
TABLE
  2
APPID
  5
9
330
0
100
AcDbSymbolTable
 70
     1
  0
APPID
  5
12
330
9
100
AcDbSymbolTableRecord
100
AcDbRegAppTableRecord
  2
ACAD
 70
     0
  0
ENDTAB
  0
TABLE
  2
DIMSTYLE
  5
A
330
0
100
AcDbSymbolTable
 70
     1
100
AcDbDimStyleTable
 71
     0
  0
DIMSTYLE
105
27
330
A
100
AcDbSymbolTableRecord
100
AcDbDimStyleTableRecord
  2
Standard
 70
     0
340
11
  0
ENDTAB
  0
TABLE
  2
BLOCK_RECORD
  5
1
330
0
100
AcDbSymbolTable
 70
     2
  0
BLOCK_RECORD
  5
1F
330
1
100
AcDbSymbolTableRecord
100
AcDbBlockTableRecord
  2
*Model_Space
340
22
  0
BLOCK_RECORD
  5
1B
330
1
100
AcDbSymbolTableRecord
100
AcDbBlockTableRecord
  2
*Paper_Space
340
1E
  0
BLOCK_RECORD
  5
23
330
1
100
AcDbSymbolTableRecord
100
AcDbBlockTableRecord
  2
*Paper_Space0
340
26
  0
BLOCK_RECORD
  5
9C
330
1
100
AcDbSymbolTableRecord
100
AcDbBlockTableRecord
  2
SW_NOTE_0
340
0
  0
ENDTAB
  0
ENDSEC
  0
SECTION
  2
BLOCKS
  0
BLOCK
  5
20
330
1F
100
AcDbEntity
  8
0
100
AcDbBlockBegin
  2
*Model_Space
 70
     0
 10
0.0
 20
0.0
 30
0.0
  3
*Model_Space
  1

  0
ENDBLK
  5
21
330
1F
100
AcDbEntity
  8
0
100
AcDbBlockEnd
  0
BLOCK
  5
1C
330
1B
100
AcDbEntity
 67
     1
  8
0
100
AcDbBlockBegin
  2
*Paper_Space
 70
     0
 10
0.0
 20
0.0
 30
0.0
  3
*Paper_Space
  1

  0
ENDBLK
  5
1D
330
1B
100
AcDbEntity
 67
     1
  8
0
100
AcDbBlockEnd
  0
BLOCK
  5
24
330
23
100
AcDbEntity
  8
0
100
AcDbBlockBegin
  2
*Paper_Space0
 70
     0
 10
0.0
 20
0.0
 30
0.0
  3
*Paper_Space0
  1

  0
ENDBLK
  5
25
330
23
100
AcDbEntity
  8
0
100
AcDbBlockEnd
  0
BLOCK
  5
9D
330
9C
100
AcDbEntity
  8
0
100
AcDbBlockBegin
  2
SW_NOTE_0
 70
     0
 10
0.0
 20
0.0
 30
0.0
  3
SW_NOTE_0
  1

  0
MTEXT
  5
A0
330
9C
100
AcDbEntity
  8
0
  6
Continuous
 62
     0
370
     0
100
AcDbMText
 10
0.0
 20
0.1173095703125
 30
0.0
 40
0.09100341796875
 41
0.0
 71
     1
 72
     1
  1
NOTE:
  7
SLDTEXTSTYLE1
 73
     1
 44
1.0
  0
MTEXT
  5
A1
330
9C
100
AcDbEntity
  8
0
  6
Continuous
 62
     0
370
     0
100
AcDbMText
 10
0.0
 20
-0.0130639302683627
 30
0.0
 40
0.09100341796875
 41
0.0
 71
     1
 72
     1
  1
DIMENSIONS IN BRACKETS ARE FOR INFORMATIONAL
  7
SLDTEXTSTYLE1
 73
     1
 44
1.0
  0
MTEXT
  5
A2
330
9C
100
AcDbEntity
  8
0
  6
Continuous
 62
     0
370
     0
100
AcDbMText
 10
0.1023788452148437
 20
-0.1434374308492255
 30
0.0
 40
0.09100341796875
 41
0.0
 71
     1
 72
     1
  1
PURPOSES ONLY. NOT A PRODUCT SPECIFICATION
  7
SLDTEXTSTYLE1
 73
     1
 44
1.0
  0
MTEXT
  5
A3
330
9C
100
AcDbEntity
  8
0
  6
Continuous
 62
     0
370
     0
100
AcDbMText
 10
0.0
 20
-0.2738109314300882
 30
0.0
 40
0.09100341796875
 41
0.0
 71
     1
 72
     1
  1
PAINT PER USP SPECIFICATION AFTER FAGRICATION
  7
SLDTEXTSTYLE1
 73
     1
 44
1.0
  0
ENDBLK
  5
9E
330
9C
100
AcDbEntity
  8
0
100
AcDbBlockEnd
  0
ENDSEC
  0
SECTION
  2
ENTITIES
  0
ARC
  5
AE
330
1F
100
AcDbEntity
  8
0
  6
Continuous
 62
     7
370
     5
100
AcDbCircle
 10
2.928004839024781
 20
5.60124705937206
 30
0.0
 40
0.0100000000000004
100
AcDbArc
 50
180.0
 51
244.0107664161682
  0
ARC
  5
AF
330
1F
100
AcDbEntity
  8
0
  6
Continuous
 62
     7
370
     5
100
AcDbCircle
 10
1.200004841900428
 20
5.351247059372059
 30
0.0
 40
0.0100000000000005
100
AcDbArc
 50
295.9892335838345
 51
0.0
  0
ARC
  5
B0
330
1F
100
AcDbEntity
  8
0
  6
Continuous
 62
     7
370
     5
100
AcDbCircle
 10
1.200004841900427
 20
-0.7407529406279391
 30
0.0
 40
0.0100000000000005
100
AcDbArc
 50
0.0
 51
64.01076641616711
  0
ARC
  5
B1
330
1F
100
AcDbEntity
  8
0
  6
Continuous
 62
     7
370
     5
100
AcDbCircle
 10
2.92800483902478
 20
-0.7407529406279402
 30
0.0
 40
0.0100000000000001
100
AcDbArc
 50
115.9892335838306
 51
180.0
  0
ARC
  5
B2
330
1F
100
AcDbEntity
  8
0
  6
Continuous
 62
     7
370
     5
100
AcDbCircle
 10
2.869504839024782
 20
5.481247059372059
 30
0.0
 40
0.1235000000000001
100
AcDbArc
 50
0.0
 51
64.01076641616754
  0
LINE
  5
B3
330
1F
100
AcDbEntity
  8
0
  6
Continuous
 62
     7
370
     5
100
AcDbLine
 10
2.993004828575468
 20
-0.6207529492635742
 30
0.0
 11
2.993004828575468
 21
5.481247039911846
 31
0.0
  0
ARC
  5
B4
330
1F
100
AcDbEntity
  8
0
  6
Continuous
 62
     7
370
     5
100
AcDbCircle
 10
1.258504841900428
 20
5.231247059372059
 30
0.0
 40
0.1234999999999996
100
AcDbArc
 50
115.9892335838329
 51
180.0
  0
LINE
  5
B5
330
1F
100
AcDbEntity
  8
0
  6
Continuous
 62
     7
370
     5
100
AcDbLine
 10
1.135004852349742
 20
5.231247061266267
 30
0.0
 11
1.135004852349742
 21
-0.6207529492635742
 31
0.0
  0
ARC
  5
B6
330
1F
100
AcDbEntity
  8
0
  6
Continuous
 62
     7
370
     5
100
AcDbCircle
 10
1.258504841900427
 20
-0.6207529406279394
 30
0.0
 40
0.1234999999999995
100
AcDbArc
 50
180.0000000000013
 51
244.0107664161678
  0
ARC
  5
B7
330
1F
100
AcDbEntity
  8
0
  6
Continuous
 62
     7
370
     5
100
AcDbCircle
 10
2.869504839024781
 20
-0.6207529406279394
 30
0.0
 40
0.1234999999999995
100
AcDbArc
 50
295.9892335838337
 51
0.0000000000003053
  0
LINE
  5
B8
330
1F
100
AcDbEntity
  8
0
  6
Continuous
 62
     7
370
     5
100
AcDbLine
 10
2.845004838283985
 20
7.470638298294268
 30
0.0
 11
2.845004838283985
 21
6.054152541658602
 31
0.0
  0
LINE
  5
B9
330
1F
100
AcDbEntity
  8
0
  6
Continuous
 62
     7
370
     5
100
AcDbLine
 10
2.918004834981794
 20
7.470638298294268
 30
0.0
 11
2.845004838283985
 21
7.470638298294268
 31
0.0
  0
LINE
  5
BA
330
1F
100
AcDbEntity
  8
0
  6
Continuous
 62
     7
370
     5
100
AcDbLine
 10
2.918004834981794
 20
7.470638298294268
 30
0.0
 11
2.918004834981794
 21
6.054152541658602
 31
0.0
  0
LINE
  5
BB
330
1F
100
AcDbEntity
  8
0
  6
Continuous
 62
     7
370
     5
100
AcDbLine
 10
1.210004845943416
 20
7.470638298294268
 30
0.0
 11
1.210004845943416
 21
6.054152541658602
 31
0.0
  0
LINE
  5
BC
330
1F
100
AcDbEntity
  8
0
  6
Continuous
 62
     7
370
     5
100
AcDbLine
 10
1.283004842641225
 20
7.470638298294268
 30
0.0
 11
1.210004845943416
 21
7.470638298294268
 31
0.0
  0
LINE
  5
BD
330
1F
100
AcDbEntity
  8
0
  6
Continuous
 62
     7
370
     5
100
AcDbLine
 10
1.283004842641225
 20
7.470638298294268
 30
0.0
 11
1.283004842641225
 21
6.054152541658602
 31
0.0
  0
LINE
  5
BE
330
1F
100
AcDbEntity
  8
0
  6
Continuous
 62
     7
370
     5
100
AcDbLine
 10
1.220004830422742
 20
4.204247060257915
 30
0.0
 11
1.210004845943416
 21
4.204247060257915
 31
0.0
  0
LINE
  5
BF
330
1F
100
AcDbEntity
  8
0
  6
Continuous
 62
     7
370
     5
100
AcDbLine
 10
1.210004845943416
 20
6.054074809223241
 30
0.0
 11
1.283004842641225
 21
6.054074809223241
 31
0.0
  0
LINE
  5
C0
330
1F
100
AcDbEntity
  8
0
  6
Continuous
 62
     7
370
     5
100
AcDbLine
 10
1.283004842641225
 20
-0.8209254101875574
 30
0.0
 11
1.283004842641225
 21
6.054074809223241
 31
0.0
  0
LINE
  5
C1
330
1F
100
AcDbEntity
  8
0
  6
Continuous
 62
     7
370
     5
100
AcDbLine
 10
1.283004842641225
 20
-0.8209254101875574
 30
0.0
 11
1.210004845943416
 21
-0.8209254101875574
 31
0.0
  0
LINE
  5
C2
330
1F
100
AcDbEntity
  8
0
  6
Continuous
 62
     7
370
     5
100
AcDbLine
 10
1.220004830422742
 20
4.194247057445468
 30
0.0
 11
1.210004845943416
 21
4.194247057445468
 31
0.0
  0
LINE
  5
C3
330
1F
100
AcDbEntity
  8
0
  6
Continuous
 62
     7
370
     5
100
AcDbLine
 10
1.220004830422742
 20
4.194247057445468
 30
0.0
 11
1.220004830422742
 21
4.204247060257915
 31
0.0
  0
LINE
  5
C4
330
1F
100
AcDbEntity
  8
0
  6
Continuous
 62
     7
370
     5
100
AcDbLine
 10
1.210004845943416
 20
-0.8209254101875574
 30
0.0
 11
1.210004845943416
 21
4.194247057445468
 31
0.0
  0
LINE
  5
C5
330
1F
100
AcDbEntity
  8
0
  6
Continuous
 62
     7
370
     5
100
AcDbLine
 10
1.210004845943416
 20
4.204247060257915
 30
0.0
 11
1.210004845943416
 21
6.054074809223241
 31
0.0
  0
LINE
  5
C6
330
1F
100
AcDbEntity
  8
0
  6
Continuous
 62
     7
370
     5
100
AcDbLine
 10
2.845004838283985
 20
9.67924353096482
 30
0.0
 11
2.918004834981794
 21
9.67924353096482
 31
0.0
  0
LINE
  5
C7
330
1F
100
AcDbEntity
  8
0
  6
Continuous
 62
     7
370
     5
100
AcDbLine
 10
2.845004838283985
 20
9.67924353096482
 30
0.0
 11
2.845004838283985
 21
7.470638298294268
 31
0.0
  0
LINE
  5
C8
330
1F
100
AcDbEntity
  8
0
  6
Continuous
 62
     7
370
     5
100
AcDbLine
 10
2.918004834981794
 20
9.67924353096482
 30
0.0
 11
2.918004834981794
 21
7.470638298294268
 31
0.0
  0
LINE
  5
C9
330
1F
100
AcDbEntity
  8
0
  6
Continuous
 62
     7
370
     5
100
AcDbLine
 10
2.918004834981794
 20
4.194247057445468
 30
0.0
 11
2.918004834981794
 21
-0.8209254101875574
 31
0.0
  0
LINE
  5
CA
330
1F
100
AcDbEntity
  8
0
  6
Continuous
 62
     7
370
     5
100
AcDbLine
 10
2.918004834981794
 20
-0.8209254101875574
 30
0.0
 11
2.845004838283985
 21
-0.8209254101875574
 31
0.0
  0
LINE
  5
CB
330
1F
100
AcDbEntity
  8
0
  6
Continuous
 62
     7
370
     5
100
AcDbLine
 10
2.845004838283985
 20
6.054074809223241
 30
0.0
 11
2.845004838283985
 21
-0.8209254101875574
 31
0.0
  0
LINE
  5
CC
330
1F
100
AcDbEntity
  8
0
  6
Continuous
 62
     7
370
     5
100
AcDbLine
 10
2.845004838283985
 20
6.054074809223241
 30
0.0
 11
2.918004834981794
 21
6.054074809223241
 31
0.0
  0
LINE
  5
CD
330
1F
100
AcDbEntity
  8
0
  6
Continuous
 62
     7
370
     5
100
AcDbLine
 10
2.918004834981794
 20
6.054074809223241
 30
0.0
 11
2.918004834981794
 21
4.204247060257915
 31
0.0
  0
LINE
  5
CE
330
1F
100
AcDbEntity
  8
0
  6
Continuous
 62
     7
370
     5
100
AcDbLine
 10
2.908004850502468
 20
4.204247060257915
 30
0.0
 11
2.918004834981794
 21
4.204247060257915
 31
0.0
  0
LINE
  5
CF
330
1F
100
AcDbEntity
  8
0
  6
Continuous
 62
     7
370
     5
100
AcDbLine
 10
2.908004850502468
 20
4.204247060257915
 30
0.0
 11
2.908004850502468
 21
4.194247057445468
 31
0.0
  0
LINE
  5
D0
330
1F
100
AcDbEntity
  8
0
  6
Continuous
 62
     7
370
     5
100
AcDbLine
 10
2.908004850502468
 20
4.194247057445468
 30
0.0
 11
2.918004834981794
 21
4.194247057445468
 31
0.0
  0
LINE
  5
D1
330
1F
100
AcDbEntity
  8
0
  6
Continuous
 62
     7
370
     5
100
AcDbLine
 10
1.210004845943416
 20
6.054152541658602
 30
0.0
 11
1.283004842641225
 21
6.054152541658602
 31
0.0
  0
LINE
  5
D2
330
1F
100
AcDbEntity
  8
0
  6
Continuous
 62
     7
370
     5
100
AcDbLine
 10
1.283004842641225
 20
6.054152541658602
 30
0.0
 11
1.283004842641225
 21
6.054074809223241
 31
0.0
  0
LINE
  5
D3
330
1F
100
AcDbEntity
  8
0
  6
Continuous
 62
     7
370
     5
100
AcDbLine
 10
1.210004845943416
 20
6.054152541658602
 30
0.0
 11
1.210004845943416
 21
6.054074809223241
 31
0.0
  0
LINE
  5
D4
330
1F
100
AcDbEntity
  8
0
  6
Continuous
 62
     7
370
     5
100
AcDbLine
 10
1.210004845943416
 20
9.67924353096482
 30
0.0
 11
1.283004842641225
 21
9.67924353096482
 31
0.0
  0
LINE
  5
D5
330
1F
100
AcDbEntity
  8
0
  6
Continuous
 62
     7
370
     5
100
AcDbLine
 10
1.210004845943416
 20
7.470638298294268
 30
0.0
 11
1.210004845943416
 21
9.67924353096482
 31
0.0
  0
LINE
  5
D6
330
1F
100
AcDbEntity
  8
0
  6
Continuous
 62
     7
370
     5
100
AcDbLine
 10
1.283004842641225
 20
7.470638298294268
 30
0.0
 11
1.283004842641225
 21
9.67924353096482
 31
0.0
  0
LINE
  5
D7
330
1F
100
AcDbEntity
  8
0
  6
Continuous
 62
     7
370
     5
100
AcDbLine
 10
2.918004834981794
 20
6.054152541658602
 30
0.0
 11
2.845004838283985
 21
6.054152541658602
 31
0.0
  0
LINE
  5
D8
330
1F
100
AcDbEntity
  8
0
  6
Continuous
 62
     7
370
     5
100
AcDbLine
 10
2.918004834981794
 20
6.054152541658602
 30
0.0
 11
2.918004834981794
 21
6.054074809223241
 31
0.0
  0
LINE
  5
D9
330
1F
100
AcDbEntity
  8
0
  6
Continuous
 62
     7
370
     5
100
AcDbLine
 10
2.845004838283985
 20
6.054152541658602
 30
0.0
 11
2.845004838283985
 21
6.054074809223241
 31
0.0
  0
LINE
  5
DA
330
1F
100
AcDbEntity
  8
0
  6
Continuous
 62
     7
370
     5
100
AcDbLine
 10
1.210004845943416
 20
4.204247060257915
 30
0.0
 11
1.210004845943416
 21
4.194247057445468
 31
0.0
  0
LINE
  5
DB
330
1F
100
AcDbEntity
  8
0
  6
Continuous
 62
     7
370
     5
100
AcDbLine
 10
2.918004834981794
 20
4.194247057445468
 30
0.0
 11
2.918004834981794
 21
4.204247060257915
 31
0.0
  0
LINE
  5
DC
330
1F
100
AcDbEntity
  8
0
  6
Continuous
 62
     7
370
     5
100
AcDbLine
 10
2.794004807440693
 20
-0.8520166243525316
 30
0.0
 11
2.794004807440693
 21
-0.8520682504228096
 31
0.0
  0
LINE
  5
DD
330
1F
100
AcDbEntity
  8
0
  6
Continuous
 62
     7
370
     5
100
AcDbLine
 10
2.794004807440693
 20
-0.8520682504228096
 30
0.0
 11
1.334004873484517
 21
-0.8520682504228096
 31
0.0
  0
LINE
  5
DE
330
1F
100
AcDbEntity
  8
0
  6
Continuous
 62
     7
370
     5
100
AcDbLine
 10
1.334004873484517
 20
-0.8520682504228096
 30
0.0
 11
1.334004873484517
 21
-0.8520166243525316
 31
0.0
  0
LINE
  5
DF
330
1F
100
AcDbEntity
  8
0
  6
Continuous
 62
     7
370
     5
100
AcDbLine
 10
2.794004807440693
 20
-0.925068100455646
 30
0.0
 11
2.794004807440693
 21
-0.8520682504228096
 31
0.0
  0
LINE
  5
E0
330
1F
100
AcDbEntity
  8
0
  6
Continuous
 62
     7
370
     5
100
AcDbLine
 10
2.794004807440693
 20
-0.925068100455646
 30
0.0
 11
1.334004873484517
 21
-0.925068100455646
 31
0.0
  0
LINE
  5
E1
330
1F
100
AcDbEntity
  8
0
  6
Continuous
 62
     7
370
     5
100
AcDbLine
 10
1.334004873484517
 20
-0.925068100455646
 30
0.0
 11
1.334004873484517
 21
-0.8520682504228096
 31
0.0
  0
SPLINE
  5
E2
330
1F
100
AcDbEntity
  8
0
  6
Continuous
 62
     7
370
     5
100
AcDbSpline
210
0.0
220
0.0
230
1.0
 70
     8
 71
     3
 72
    22
 73
    18
 74
     0
 42
0.0000000001
 43
0.0000000001
 40
0.0
 40
0.0
 40
0.0
 40
0.0
 40
0.044994954924012
 40
0.0911354306802925
 40
0.1384243224258721
 40
0.1868643194029752
 40
0.2364579235961135
 40
0.2872074663693918
 40
0.3391151233347679
 40
0.3921829276673461
 40
0.4464127820543336
 40
0.5018064694392145
 40
0.612284371929492
 40
0.7173393149328586
 40
0.816974378115862
 40
0.9111931783166461
 40
1.0
 40
1.0
 40
1.0
 40
1.0
 10
2.795004839024782
 20
4.941877238046037
 30
0.0
 10
2.796364378378808
 20
4.946003324955961
 30
0.0
 10
2.799118069426287
 20
4.954360544297446
 30
0.0
 10
2.803140886347674
 20
4.967097267190046
 30
0.0
 10
2.807118260723637
 20
4.980179945717003
 30
0.0
 10
2.811013752335813
 20
4.993611986922715
 30
0.0
 10
2.814804606640563
 20
5.007392442471517
 30
0.0
 10
2.818465007877836
 20
5.02152160807232
 30
0.0
 10
2.821971406120641
 20
5.035999300686869
 30
0.0
 10
2.825299454131207
 20
5.050825982337861
 30
0.0
 10
2.828431952003875
 20
5.065999958439885
 30
0.0
 10
2.832270596812134
 20
5.086565813462804
 30
0.0
 10
2.836416615410813
 20
5.111885423160005
 30
0.0
 10
2.840338130946125
 20
5.141288785911725
 30
0.0
 10
2.843046423022007
 20
5.169133861381663
 30
0.0
 10
2.844698155955128
 20
5.195423179499616
 30
0.0
 10
2.844904646610945
 20
5.212400581888665
 30
0.0
 10
2.845004839024782
 20
5.220638276322318
 30
0.0
  0
SPLINE
  5
E3
330
1F
100
AcDbEntity
  8
0
  6
Continuous
 62
     7
370
     5
100
AcDbSpline
210
0.0
220
0.0
230
1.0
 70
     8
 71
     3
 72
     9
 73
     5
 74
     0
 42
0.0000000001
 43
0.0000000001
 40
0.0
 40
0.0
 40
0.0
 40
0.0
 40
0.9626600296626525
 40
1.0
 40
1.0
 40
1.0
 40
1.0
 10
2.795004842554869
 20
4.941877254090972
 30
0.0
 10
2.812972119167688
 20
4.96323027985761
 30
0.0
 10
2.831636316349651
 20
4.985411553732791
 30
0.0
 10
2.844523626505054
 20
5.009053324837512
 30
0.0
 10
2.845004838283985
 20
5.009936107869285
 30
0.0
  0
LINE
  5
E4
330
1F
100
AcDbEntity
  8
0
  6
Continuous
 62
     7
370
     5
100
AcDbLine
 10
2.845004838283985
 20
6.929243619198467
 30
0.0
 11
2.795004842554869
 21
6.929243619198467
 31
0.0
  0
SPLINE
  5
E5
330
1F
100
AcDbEntity
  8
0
  6
Continuous
 62
     7
370
     5
100
AcDbSpline
210
0.0
220
0.0
230
1.0
 70
     8
 71
     3
 72
    20
 73
    16
 74
     0
 42
0.0000000001
 43
0.0000000001
 40
0.0
 40
0.0
 40
0.0
 40
0.0
 40
0.0548733146649223
 40
0.1118601199732792
 40
0.1709615729524353
 40
0.2321787104173097
 40
0.2955124649719952
 40
0.3609636784409146
 40
0.4285331132083473
 40
0.4982214618444349
 40
0.6078402674840027
 40
0.7128106048883643
 40
0.8131482059197173
 40
0.9088710866101317
 40
1.0
 40
1.0
 40
1.0
 40
1.0
 10
1.283004841900427
 20
5.220638276322318
 30
0.0
 10
1.283043040828018
 20
5.215549887659117
 30
0.0
 10
1.283120909946172
 20
5.205177126877089
 30
0.0
 10
1.283747070892703
 20
5.18929631993762
 30
0.0
 10
1.28476832480288
 20
5.172807926983377
 30
0.0
 10
1.28624049520517
 20
5.155709654838394
 30
0.0
 10
1.288165677060914
 20
5.138002291752227
 30
0.0
 10
1.290552746940739
 20
5.119685034978325
 30
0.0
 10
1.29340935679945
 20
5.10076035673064
 30
0.0
 10
1.297300018012236
 20
5.077684525102061
 30
0.0
 10
1.30249986751062
 20
5.05113698813539
 30
0.0
 10
1.309345365481575
 20
5.021831442233463
 30
0.0
 10
1.316812708912705
 20
4.993919932129151
 30
0.0
 10
1.324671752743705
 20
4.96739188710307
 30
0.0
 10
1.330273050306167
 20
4.950241567589818
 30
0.0
 10
1.333004841900425
 20
4.941877238046051
 30
0.0
  0
SPLINE
  5
E6
330
1F
100
AcDbEntity
  8
0
  6
Continuous
 62
     7
370
     5
100
AcDbSpline
210
0.0
220
0.0
230
1.0
 70
     8
 71
     3
 72
     9
 73
     5
 74
     0
 42
0.0000000001
 43
0.0000000001
 40
0.0
 40
0.0
 40
0.0
 40
0.0
 40
0.0373399703373475
 40
1.0
 40
1.0
 40
1.0
 40
1.0
 10
1.283004842641225
 20
5.009936107869285
 30
0.0
 10
1.283486054420156
 20
5.009053324837513
 30
0.0
 10
1.296373364575563
 20
4.985411553732788
 30
0.0
 10
1.315037561757524
 20
4.963230279857608
 30
0.0
 10
1.333004838370341
 20
4.941877254090972
 30
0.0
  0
LINE
  5
E7
330
1F
100
AcDbEntity
  8
0
  6
Continuous
 62
     7
370
     5
100
AcDbLine
 10
1.333004838370341
 20
6.929243619198467
 30
0.0
 11
1.283004842641225
 21
6.929243619198467
 31
0.0
  0
SPLINE
  5
E8
330
1F
100
AcDbEntity
  8
0
  6
Continuous
 62
     7
370
     5
100
AcDbSpline
210
0.0
220
0.0
230
1.0
 70
     8
 71
     3
 72
    10
 73
     6
 74
     0
 42
0.0000000001
 43
0.0000000001
 40
0.0
 40
0.0
 40
0.0
 40
0.0
 40
0.4104588838467337
 40
0.8428453118578667
 40
1.0
 40
1.0
 40
1.0
 40
1.0
 10
1.333004838370341
 20
0.2260668415352739
 30
0.0
 10
1.327598202192182
 20
0.2196205023159981
 30
0.0
 10
1.316496096390559
 20
0.2063834473917797
 30
0.0
 10
1.298664796410686
 20
0.1951308455078111
 30
0.0
 10
1.288318040388163
 20
0.1915480537866594
 30
0.0
 10
1.285559893125064
 20
0.1905929846656289
 30
0.0
  0
SPLINE
  5
E9
330
1F
100
AcDbEntity
  8
0
  6
Continuous
 62
     7
370
     5
100
AcDbSpline
210
0.0
220
0.0
230
1.0
 70
     8
 71
     3
 72
    18
 73
    14
 74
     0
 42
0.0000000001
 43
0.0000000001
 40
0.0
 40
0.0
 40
0.0
 40
0.0
 40
0.1150497772290941
 40
0.2230411121710086
 40
0.3244835305203662
 40
0.4199913635234854
 40
0.5103000581454228
 40
0.596278494430214
 40
0.6789321280856555
 40
0.7593910454412333
 40
0.8388788743800638
 40
0.91866380582901
 40
1.0
 40
1.0
 40
1.0
 40
1.0
 10
1.333004841900426
 20
0.2260540151488074
 30
0.0
 10
1.33227471052397
 20
0.2236331179697132
 30
0.0
 10
1.330859242209664
 20
0.2189398485668399
 30
0.0
 10
1.32827163132252
 20
0.212290327681414
 30
0.0
 10
1.32543011503867
 20
0.2062255037234273
 30
0.0
 10
1.322316591403528
 20
0.2007543685911617
 30
0.0
 10
1.318959864535801
 20
0.1958754433997029
 30
0.0
 10
1.315387431303973
 20
0.191590513331429
 30
0.0
 10
1.311640784071481
 20
0.1879032139919241
 30
0.0
 10
1.307770859431206
 20
0.1848130081368644
 30
0.0
 10
1.303853291961381
 20
0.1823378660188472
 30
0.0
 10
1.299940264981497
 20
0.1804256823057594
 30
0.0
 10
1.297509765601048
 20
0.1796753760497898
 30
0.0
 10
1.296282815573359
 20
0.1792966109742082
 30
0.0
  0
SPLINE
  5
EA
330
1F
100
AcDbEntity
  8
0
  6
Continuous
 62
     7
370
     5
100
AcDbSpline
210
0.0
220
0.0
230
1.0
 70
     8
 71
     3
 72
    20
 73
    16
 74
     0
 42
0.0000000001
 43
0.0000000001
 40
0.0
 40
0.0
 40
0.0
 40
0.0
 40
0.0850172387359614
 40
0.1673875598952946
 40
0.2474099261392077
 40
0.3254103757187115
 40
0.4017409309188333
 40
0.4767771873228303
 40
0.5509144786236037
 40
0.6245626765207524
 40
0.6981398825917795
 40
0.7720654541260879
 40
0.8467529269983804
 40
0.9226034179625854
 40
1.0
 40
1.0
 40
1.0
 40
1.0
 10
1.296282815573359
 20
0.1792966109742082
 30
0.0
 10
1.295363725693446
 20
0.1797384866256113
 30
0.0
 10
1.293554160779194
 20
0.1806084806193593
 30
0.0
 10
1.291266287245298
 20
0.1821863740466024
 30
0.0
 10
1.289322115321329
 20
0.1839398546230321
 30
0.0
 10
1.287717704240008
 20
0.1858884256728059
 30
0.0
 10
1.286414181862143
 20
0.1880272753307885
 30
0.0
 10
1.285380017916115
 20
0.1903577632168883
 30
0.0
 10
1.284581303103994
 20
0.1928795555232323
 30
0.0
 10
1.283985214135927
 20
0.1955925808325427
 30
0.0
 10
1.283560021219246
 20
0.1984967545072711
 30
0.0
 10
1.283275361579707
 20
0.201591200386344
 30
0.0
 10
1.283104136005714
 20
0.2048777852216332
 30
0.0
 10
1.283016919293222
 20
0.2083477396630736
 30
0.0
 10
1.283008894684459
 20
0.2107763148595324
 30
0.0
 10
1.283004841900426
 20
0.2120028532575918
 30
0.0
  0
LINE
  5
EB
330
1F
100
AcDbEntity
  8
0
  6
Continuous
 62
     7
370
     5
100
AcDbLine
 10
1.333004838370341
 20
-0.8207617320783809
 30
0.0
 11
1.283004842641225
 21
-0.8207705319767237
 31
0.0
  0
SPLINE
  5
EC
330
1F
100
AcDbEntity
  8
0
  6
Continuous
 62
     7
370
     5
100
AcDbSpline
210
0.0
220
0.0
230
1.0
 70
     8
 71
     3
 72
    20
 73
    16
 74
     0
 42
0.0000000001
 43
0.0000000001
 40
0.0
 40
0.0
 40
0.0
 40
0.0
 40
0.0698771858535037
 40
0.1356604527787698
 40
0.197479366342925
 40
0.2554902611117392
 40
0.3098825128689575
 40
0.3608860122094388
 40
0.4087796565346789
 40
0.4539002218056451
 40
0.4966502333753284
 40
0.6006718587835764
 40
0.7182772271930519
 40
0.8510251586501102
 40
1.0
 40
1.0
 40
1.0
 40
1.0
 10
2.83172686535185
 20
0.1792966109742071
 30
0.0
 10
2.830696032910506
 20
0.179763166228179
 30
0.0
 10
2.828694761765658
 20
0.1806689425016094
 30
0.0
 10
2.825523533931158
 20
0.1821999742729527
 30
0.0
 10
2.822431657477493
 20
0.1838092162399768
 30
0.0
 10
2.819457717278402
 20
0.1855097417780273
 30
0.0
 10
2.816655378047773
 20
0.1872989279717682
 30
0.0
 10
2.814061514864553
 20
0.1891775985197713
 30
0.0
 10
2.811708633261367
 20
0.1911478701035947
 30
0.0
 10
2.809613510928151
 20
0.1932051948033506
 30
0.0
 10
2.806934482697312
 20
0.1964310949843369
 30
0.0
 10
2.803829206540952
 20
0.2013915038208966
 30
0.0
 10
2.800454114829474
 20
0.2084820371200252
 30
0.0
 10
2.797420665039304
 20
0.2168132939839809
 30
0.0
 10
2.795840453816722
 20
0.222857724005698
 30
0.0
 10
2.795004839024783
 20
0.2260540151488096
 30
0.0
  0
SPLINE
  5
ED
330
1F
100
AcDbEntity
  8
0
  6
Continuous
 62
     7
370
     5
100
AcDbSpline
210
0.0
220
0.0
230
1.0
 70
     8
 71
     3
 72
    17
 73
    13
 74
     0
 42
0.0000000001
 43
0.0000000001
 40
0.0
 40
0.0
 40
0.0
 40
0.0
 40
0.1302138697391612
 40
0.2516561717471099
 40
0.3648405741177552
 40
0.4704013580497186
 40
0.5691198554310255
 40
0.6619503206367953
 40
0.7500385613938504
 40
0.83472308634236
 40
0.9175076586578436
 40
1.0
 40
1.0
 40
1.0
 40
1.0
 10
2.845004839024783
 20
0.2120028532575884
 30
0.0
 10
2.844987069284201
 20
0.2100107195397219
 30
0.0
 10
2.844952726822091
 20
0.2061606477612621
 30
0.0
 10
2.84462919964248
 20
0.2008074563641981
 30
0.0
 10
2.844075073512731
 20
0.1960328314181351
 30
0.0
 10
2.843254435276552
 20
0.1918489984247345
 30
0.0
 10
2.842150411874551
 20
0.1882531074296514
 30
0.0
 10
2.840741817376006
 20
0.185248589129361
 30
0.0
 10
2.839013037806662
 20
0.1828335535767593
 30
0.0
 10
2.836941063098806
 20
0.1810273847508854
 30
0.0
 10
2.834543017103852
 20
0.1797787151878015
 30
0.0
 10
2.832664475434254
 20
0.1794571228397739
 30
0.0
 10
2.83172686535185
 20
0.1792966109742071
 30
0.0
  0
LWPOLYLINE
  5
EE
330
1F
100
AcDbEntity
  8
0
  6
Continuous
 62
     7
370
     5
100
AcDbPolyline
 90
        9
 70
   128
 43
0.0
 10
2.795004842554869
 20
-0.8207617320783809
 10
2.804759383202916
 20
-0.8207617320783809
 10
2.814138974849073
 20
-0.8207623187382704
 10
2.822783334988687
 20
-0.82076290539816
 10
2.83036019412683
 20
-0.8207640787179391
 10
2.836578348960842
 20
-0.820765252037718
 10
2.841198808918227
 20
-0.8207670120173865
 10
2.844044109382407
 20
-0.8207687719970552
 10
2.845004838283985
 20
-0.8207705319767237
  0
SPLINE
  5
EF
330
1F
100
AcDbEntity
  8
0
  6
Continuous
 62
     7
370
     5
100
AcDbSpline
210
0.0
220
0.0
230
1.0
 70
     8
 71
     3
 72
    10
 73
     6
 74
     0
 42
0.0000000001
 43
0.0000000001
 40
0.0
 40
0.0
 40
0.0
 40
0.0
 40
0.2867570327547255
 40
0.6372609465266037
 40
0.9999999999999998
 40
0.9999999999999998
 40
0.9999999999999998
 40
0.9999999999999998
 10
2.842398235062354
 20
0.1897446744653808
 30
0.0
 10
2.837045217950104
 20
0.1913294049424641
 30
0.0
 10
2.825149193225077
 20
0.1948511558620948
 30
0.0
 10
2.807913673266051
 20
0.2076526931049343
 30
0.0
 10
2.799356715489042
 20
0.219858995452791
 30
0.0
 10
2.795004842554869
 20
0.2260668415352739
 30
0.0
  0
LINE
  5
F0
330
1F
100
AcDbEntity
  8
0
  6
Continuous
 62
     7
370
     5
100
AcDbLine
 10
2.794004807440693
 20
-0.8520166243525316
 30
0.0
 11
2.794004807440693
 21
-0.8220113176430619
 31
0.0
  0
LINE
  5
F1
330
1F
100
AcDbEntity
  8
0
  6
Continuous
 62
     7
370
     5
100
AcDbLine
 10
1.334004873484517
 20
-0.8220113176430619
 30
0.0
 11
1.334004873484517
 21
-0.8520166243525316
 31
0.0
  0
LINE
  5
F2
330
1F
100
AcDbEntity
  8
0
  6
Continuous
 62
     7
370
     5
100
AcDbLine
 10
2.795004842554869
 20
0.2260668415352739
 30
0.0
 11
2.795004842554869
 21
0.2260539350177045
 31
0.0
  0
LINE
  5
F3
330
1F
100
AcDbEntity
  8
0
  6
Continuous
 62
     7
370
     5
100
AcDbLine
 10
1.333004838370341
 20
0.2260668415352739
 30
0.0
 11
1.333004838370341
 21
0.2260539350177045
 31
0.0
  0
ARC
  5
F4
330
1F
100
AcDbEntity
  8
0
  6
Continuous
 62
     7
370
     5
100
AcDbCircle
 10
1.701504840462605
 20
6.991743628685148
 30
0.0
 40
0.0625
100
AcDbArc
 50
270.0000000000008
 51
0.0
  0
LINE
  5
F5
330
1F
100
AcDbEntity
  8
0
  6
Continuous
 62
     7
370
     5
100
AcDbLine
 10
1.764004847754787
 20
6.991743723858591
 30
0.0
 11
1.764004847754787
 21
7.178043731705003
 31
0.0
  0
LINE
  5
F6
330
1F
100
AcDbEntity
  8
0
  6
Continuous
 62
     7
370
     5
100
AcDbLine
 10
1.764004847754787
 20
7.178043731705003
 30
0.0
 11
2.364004833170422
 21
7.178043731705003
 31
0.0
  0
LINE
  5
F7
330
1F
100
AcDbEntity
  8
0
  6
Continuous
 62
     7
370
     5
100
AcDbLine
 10
2.364004833170422
 20
7.178043731705003
 30
0.0
 11
2.364004833170422
 21
6.991743723858591
 31
0.0
  0
ARC
  5
F8
330
1F
100
AcDbEntity
  8
0
  6
Continuous
 62
     7
370
     5
100
AcDbCircle
 10
2.426504840462605
 20
6.991743628685148
 30
0.0
 40
0.0625
100
AcDbArc
 50
180.0
 51
270.0000000000008
  0
LINE
  5
F9
330
1F
100
AcDbEntity
  8
0
  6
Continuous
 62
     7
370
     5
100
AcDbLine
 10
2.795004842554869
 20
4.941877254090972
 30
0.0
 11
2.793004845659003
 21
4.936806825998323
 31
0.0
  0
LINE
  5
FA
330
1F
100
AcDbEntity
  8
0
  6
Continuous
 62
     7
370
     5
100
AcDbLine
 10
2.793004845659003
 20
4.936806825998323
 30
0.0
 11
2.793004845659003
 21
0.4917480923627929
 31
0.0
  0
ARC
  5
FB
330
1F
100
AcDbEntity
  8
0
  6
Continuous
 62
     7
370
     5
100
AcDbCircle
 10
2.189004840462605
 20
0.4917436286851491
 30
0.0
 40
0.0625000000000003
100
AcDbArc
 50
0.0040000000034424
 51
179.9959999999965
  0
ARC
  5
FC
330
1F
100
AcDbEntity
  8
0
  6
Continuous
 62
     7
370
     5
100
AcDbCircle
 10
1.939004840462605
 20
0.4917436286851491
 30
0.0
 40
0.0625000000000001
100
AcDbArc
 50
0.0040000000034424
 51
179.9959999999965
  0
LINE
  5
FD
330
1F
100
AcDbEntity
  8
0
  6
Continuous
 62
     7
370
     5
100
AcDbLine
 10
1.335004835266206
 20
4.936806825998323
 30
0.0
 11
1.335004835266206
 21
0.4917480923627929
 31
0.0
  0
LINE
  5
FE
330
1F
100
AcDbEntity
  8
0
  6
Continuous
 62
     7
370
     5
100
AcDbLine
 10
1.333004838370341
 20
4.941877254090972
 30
0.0
 11
1.335004835266206
 21
4.936806825998323
 31
0.0
  0
LINE
  5
FF
330
1F
100
AcDbEntity
  8
0
  6
Continuous
 62
     7
370
     5
100
AcDbLine
 10
1.333004838370341
 20
6.929243619198467
 30
0.0
 11
1.701504834760271
 21
6.929243619198467
 31
0.0
  0
LINE
  5
100
330
1F
100
AcDbEntity
  8
0
  6
Continuous
 62
     7
370
     5
100
AcDbLine
 10
2.426504846164939
 20
6.929243619198467
 30
0.0
 11
2.795004842554869
 21
6.929243619198467
 31
0.0
  0
ARC
  5
101
330
1F
100
AcDbEntity
  8
0
  6
Continuous
 62
     7
370
     5
100
AcDbCircle
 10
1.27250252753499
 20
0.24173860445671
 30
0.0
 40
0.0625023077320217
100
AcDbArc
 50
345.4665341958015
 51
359.9997091382681
  0
LINE
  5
102
330
1F
100
AcDbEntity
  8
0
  6
Continuous
 62
     7
370
     5
100
AcDbLine
 10
1.335004835266206
 20
0.4917340125254445
 30
0.0
 11
1.335004835266206
 21
0.2417382871640634
 31
0.0
  0
ARC
  5
103
330
1F
100
AcDbEntity
  8
0
  6
Continuous
 62
     7
370
     5
100
AcDbCircle
 10
1.939004839681614
 20
0.491738309182362
 30
0.0
 40
0.0625000016840058
100
AcDbArc
 50
180.003938884816
 51
359.9960611151856
  0
ARC
  5
104
330
1F
100
AcDbEntity
  8
0
  6
Continuous
 62
     7
370
     5
100
AcDbCircle
 10
2.189004841243596
 20
0.49173830891297
 30
0.0
 40
0.0625000016839875
100
AcDbArc
 50
180.0039386378556
 51
359.996061362146
  0
LINE
  5
105
330
1F
100
AcDbEntity
  8
0
  6
Continuous
 62
     7
370
     5
100
AcDbLine
 10
2.793004845659003
 20
0.4917340125254445
 30
0.0
 11
2.793004845659003
 21
0.2417382871640634
 31
0.0
  0
ARC
  5
106
330
1F
100
AcDbEntity
  8
0
  6
Continuous
 62
     7
370
     5
100
AcDbCircle
 10
2.855507153390241
 20
0.2417386044567145
 30
0.0
 40
0.062502307732043
100
AcDbArc
 50
180.0002908617375
 51
194.5334658041993
  0
CIRCLE
  5
107
330
1F
100
AcDbEntity
  8
0
  6
Continuous
 62
     7
370
     5
100
AcDbCircle
 10
2.06400482699552
 20
0.0542383785688178
 30
0.0
 40
0.2187499861809475
  0
LINE
  5
108
330
1F
100
AcDbEntity
  8
0
  6
Continuous
 62
     7
370
     5
100
AcDbLine
 10
2.794004807440693
 20
-0.8207617320783809
 30
0.0
 11
2.794004807440693
 21
-0.8220113176430619
 31
0.0
  0
LINE
  5
109
330
1F
100
AcDbEntity
  8
0
  6
Continuous
 62
     7
370
     5
100
AcDbLine
 10
1.334004873484517
 20
-0.8220113176430619
 30
0.0
 11
1.334004873484517
 21
-0.8207617320783809
 31
0.0
  0
LINE
  5
10A
330
1F
100
AcDbEntity
  8
0
  6
Continuous
 62
     7
370
     5
100
AcDbLine
 10
2.795004842554869
 20
-0.8207617320783809
 30
0.0
 11
2.794004807440693
 21
-0.8207617320783809
 31
0.0
  0
LINE
  5
10B
330
1F
100
AcDbEntity
  8
0
  6
Continuous
 62
     7
370
     5
100
AcDbLine
 10
1.334004873484517
 20
-0.8207617320783809
 30
0.0
 11
1.333004838370341
 21
-0.8207617320783809
 31
0.0
  0
ARC
  5
10C
330
1F
100
AcDbEntity
  8
0
  6
Continuous
 62
     7
370
     5
100
AcDbCircle
 10
1.272507100649206
 20
0.2417509278316573
 30
0.0
 40
0.0624977346175658
100
AcDbArc
 50
345.4659996119297
 51
0.0002437221393156
  0
ARC
  5
10D
330
1F
100
AcDbEntity
  8
0
  6
Continuous
 62
     7
370
     5
100
AcDbCircle
 10
2.855502580276025
 20
0.2417509278316618
 30
0.0
 40
0.0624977346175869
100
AcDbArc
 50
179.9997562778647
 51
194.5340003880711
  0
LINE
  5
10E
330
1F
100
AcDbEntity
  8
0
  6
Continuous
 62
     7
370
     5
100
AcDbLine
 10
1.335004835266206
 20
0.4917480923627929
 30
0.0
 11
1.335004835266206
 21
0.4917340125254445
 31
0.0
  0
LINE
  5
10F
330
1F
100
AcDbEntity
  8
0
  6
Continuous
 62
     7
370
     5
100
AcDbLine
 10
1.876504838145298
 20
0.4917340125254445
 30
0.0
 11
1.876504838145298
 21
0.4917480923627929
 31
0.0
  0
LINE
  5
110
330
1F
100
AcDbEntity
  8
0
  6
Continuous
 62
     7
370
     5
100
AcDbLine
 10
2.12650483970728
 20
0.4917340125254445
 30
0.0
 11
2.12650483970728
 21
0.4917480923627929
 31
0.0
  0
LINE
  5
111
330
1F
100
AcDbEntity
  8
0
  6
Continuous
 62
     7
370
     5
100
AcDbLine
 10
2.00150484121793
 20
0.4917480923627929
 30
0.0
 11
2.00150484121793
 21
0.4917340125254445
 31
0.0
  0
LINE
  5
112
330
1F
100
AcDbEntity
  8
0
  6
Continuous
 62
     7
370
     5
100
AcDbLine
 10
2.251504842779912
 20
0.4917480923627929
 30
0.0
 11
2.251504842779912
 21
0.4917340125254445
 31
0.0
  0
LINE
  5
113
330
1F
100
AcDbEntity
  8
0
  6
Continuous
 62
     7
370
     5
100
AcDbLine
 10
2.793004845659003
 20
0.4917340125254445
 30
0.0
 11
2.793004845659003
 21
0.4917480923627929
 31
0.0
  0
ARC
  5
114
330
1F
100
AcDbEntity
  8
0
  6
Continuous
 62
     7
370
     5
100
AcDbCircle
 10
1.939004839681614
 20
0.4917511179447222
 30
0.0
 40
0.0625000016977569
100
AcDbArc
 50
180.0041181745216
 51
359.9958818254801
  0
ARC
  5
115
330
1F
100
AcDbEntity
  8
0
  6
Continuous
 62
     7
370
     5
100
AcDbCircle
 10
2.189004841243596
 20
0.4917511176753302
 30
0.0
 40
0.0625000016977378
100
AcDbArc
 50
180.0041179275612
 51
359.9958820724404
  0
ARC
  5
116
330
1F
100
AcDbEntity
  8
0
  6
Continuous
 62
     7
370
     5
100
AcDbCircle
 10
2.064004840462605
 20
0.0542512286683082
 30
0.0
 40
0.2187499996480113
100
AcDbArc
 50
180.0000145726692
 51
359.9999854273324
  0
LINE
  5
117
330
1F
100
AcDbEntity
  8
0
  6
Continuous
 62
     7
370
     5
100
AcDbLine
 10
2.689004860409041
 20
6.795745348048554
 30
0.0
 11
2.689004860409041
 21
6.107745389216121
 31
0.0
  0
LINE
  5
118
330
1F
100
AcDbEntity
  8
0
  6
Continuous
 62
     7
370
     5
100
AcDbLine
 10
2.689004860409041
 20
6.107745389216121
 30
0.0
 11
1.439004820516169
 21
6.107745389216121
 31
0.0
  0
LINE
  5
119
330
1F
100
AcDbEntity
  8
0
  6
Continuous
 62
     7
370
     5
100
AcDbLine
 10
1.439004820516169
 20
6.107745389216121
 30
0.0
 11
1.439004820516169
 21
6.795745348048554
 31
0.0
  0
CIRCLE
  5
11A
330
1F
100
AcDbEntity
  8
0
  6
Continuous
 62
     7
370
     5
100
AcDbCircle
 10
2.314004840462605
 20
6.451745344028605
 30
0.0
 40
0.2189999999999999
  0
CIRCLE
  5
11B
330
1F
100
AcDbEntity
  8
0
  6
Continuous
 62
     7
370
     5
100
AcDbCircle
 10
1.814004840462605
 20
6.451745344028604
 30
0.0
 40
0.1405000000000001
  0
LINE
  5
11C
330
1F
100
AcDbEntity
  8
0
  6
Continuous
 62
     7
370
     5
100
AcDbLine
 10
1.439004820516169
 20
6.795745348048554
 30
0.0
 11
2.689004860409041
 21
6.795745348048554
 31
0.0
  0
LINE
  5
11D
330
1F
100
AcDbEntity
  8
0
  6
PHANTOM
 62
     8
370
     5
100
AcDbLine
 10
1.210004845943416
 20
-0.6207529492635742
 30
0.0
 11
1.204386844176385
 21
-0.6207529492635742
 31
0.0
  0
LINE
  5
11E
330
1F
100
AcDbEntity
  8
0
  6
PHANTOM
 62
     8
370
     5
100
AcDbLine
 10
1.204386844176385
 20
-0.6207529492635742
 30
0.0
 11
1.204386844176385
 21
5.231247061266267
 31
0.0
  0
LINE
  5
11F
330
1F
100
AcDbEntity
  8
0
  6
PHANTOM
 62
     8
370
     5
100
AcDbLine
 10
1.210004845943416
 20
5.231247061266267
 30
0.0
 11
1.204386844176385
 21
5.231247061266267
 31
0.0
  0
LINE
  5
120
330
1F
100
AcDbEntity
  8
0
  6
PHANTOM
 62
     8
370
     5
100
AcDbLine
 10
2.923622836748824
 20
5.592258270833967
 30
0.0
 11
2.923622836748824
 21
5.481247039911846
 31
0.0
  0
LINE
  5
121
330
1F
100
AcDbEntity
  8
0
  6
PHANTOM
 62
     8
370
     5
100
AcDbLine
 10
2.918004834981794
 20
5.481247039911846
 30
0.0
 11
2.923622836748824
 21
5.481247039911846
 31
0.0
  0
LINE
  5
122
330
1F
100
AcDbEntity
  8
0
  6
PHANTOM
 62
     8
370
     5
100
AcDbLine
 10
2.923622836748824
 20
5.481247039911846
 30
0.0
 11
2.923622836748824
 21
-0.6207529492635742
 31
0.0
  0
LINE
  5
123
330
1F
100
AcDbEntity
  8
0
  6
PHANTOM
 62
     8
370
     5
100
AcDbLine
 10
2.918004834981794
 20
-0.6207529492635742
 30
0.0
 11
2.923622836748824
 21
-0.6207529492635742
 31
0.0
  0
LINE
  5
124
330
1F
100
AcDbEntity
  8
0
  6
PHANTOM
 62
     8
370
     5
100
AcDbLine
 10
1.204386844176385
 20
5.231247061266267
 30
0.0
 11
1.204386844176385
 21
5.342258292188387
 31
0.0
  0
LINE
  5
125
330
1F
100
AcDbEntity
  8
0
  6
PHANTOM
 62
     8
370
     5
100
AcDbLine
 10
1.204386844176385
 20
-0.7317642535181811
 30
0.0
 11
1.204386844176385
 21
-0.6207529492635742
 31
0.0
  0
LINE
  5
126
330
1F
100
AcDbEntity
  8
0
  6
PHANTOM
 62
     8
370
     5
100
AcDbLine
 10
2.923622836748824
 20
-0.6207529492635742
 30
0.0
 11
2.923622836748824
 21
-0.7317642535181811
 31
0.0
  0
LINE
  5
127
330
1F
100
AcDbEntity
  8
0
  6
PHANTOM
 62
     8
370
     5
100
AcDbLine
 10
2.993004828575468
 20
5.481247039911846
 30
0.0
 11
2.923622836748824
 21
5.481247039911846
 31
0.0
  0
LINE
  5
128
330
1F
100
AcDbEntity
  8
0
  6
PHANTOM
 62
     8
370
     5
100
AcDbLine
 10
2.993004828575468
 20
-0.6207529492635742
 30
0.0
 11
2.923622836748824
 21
-0.6207529492635742
 31
0.0
  0
LINE
  5
129
330
1F
100
AcDbEntity
  8
0
  6
PHANTOM
 62
     8
370
     5
100
AcDbLine
 10
1.204386844176385
 20
5.231247061266267
 30
0.0
 11
1.135004852349742
 21
5.231247061266267
 31
0.0
  0
LINE
  5
12A
330
1F
100
AcDbEntity
  8
0
  6
PHANTOM
 62
     8
370
     5
100
AcDbLine
 10
1.204386844176385
 20
-0.6207529492635742
 30
0.0
 11
1.135004852349742
 21
-0.6207529492635742
 31
0.0
  0
LINE
  5
12B
330
1F
100
AcDbEntity
  8
0
  6
PHANTOM
 62
     8
370
     5
100
AcDbLine
 10
1.334004873484517
 20
-0.8520166243525316
 30
0.0
 11
2.794004807440693
 21
-0.8520166243525316
 31
0.0
  0
LINE
  5
12C
330
1F
100
AcDbEntity
  8
0
  6
PHANTOM
 62
     8
370
     5
100
AcDbLine
 10
2.795004842554869
 20
4.941877254090972
 30
0.0
 11
2.795004842554869
 21
6.929243619198467
 31
0.0
  0
LINE
  5
12D
330
1F
100
AcDbEntity
  8
0
  6
PHANTOM
 62
     8
370
     5
100
AcDbLine
 10
1.333004838370341
 20
4.941877254090972
 30
0.0
 11
1.333004838370341
 21
6.929243619198467
 31
0.0
  0
LINE
  5
12E
330
1F
100
AcDbEntity
  8
0
  6
PHANTOM
 62
     8
370
     5
100
AcDbLine
 10
1.333004838370341
 20
-0.8207617320783809
 30
0.0
 11
1.333004838370341
 21
0.2260539350177045
 31
0.0
  0
LINE
  5
12F
330
1F
100
AcDbEntity
  8
0
  6
PHANTOM
 62
     8
370
     5
100
AcDbLine
 10
2.795004842554869
 20
-0.8207617320783809
 30
0.0
 11
2.795004842554869
 21
0.2260539350177045
 31
0.0
  0
LINE
  5
130
330
1F
100
AcDbEntity
  8
0
  6
PHANTOM
 62
     8
370
     5
100
AcDbLine
 10
1.334004873484517
 20
-0.8220113176430619
 30
0.0
 11
2.794004807440693
 21
-0.8220113176430619
 31
0.0
  0
LINE
  5
131
330
1F
100
AcDbEntity
  8
0
  6
PHANTOM
 62
     8
370
     5
100
AcDbLine
 10
2.684004831503135
 20
5.854247010984352
 30
0.0
 11
2.684004831503135
 21
0.7542470066196022
 31
0.0
  0
ARC
  5
132
330
1F
100
AcDbEntity
  8
0
  6
PHANTOM
 62
     8
370
     5
100
AcDbCircle
 10
2.564004840462605
 20
5.85424705937206
 30
0.0
 40
0.1200000000000005
100
AcDbArc
 50
0.0000000000000265
 51
180.0
  0
LINE
  5
133
330
1F
100
AcDbEntity
  8
0
  6
PHANTOM
 62
     8
370
     5
100
AcDbLine
 10
2.444004837336881
 20
0.7542470066196022
 30
0.0
 11
2.444004837336881
 21
5.854247010984352
 31
0.0
  0
ARC
  5
134
330
1F
100
AcDbEntity
  8
0
  6
PHANTOM
 62
     8
370
     5
100
AcDbCircle
 10
2.564004840462605
 20
0.7542470593720602
 30
0.0
 40
0.1200000000000005
100
AcDbArc
 50
179.9999999999999
 51
0.0000000000000795
  0
LINE
  5
135
330
1F
100
AcDbEntity
  8
0
  6
PHANTOM
 62
     8
370
     5
100
AcDbLine
 10
2.251504842779912
 20
0.4917480923627929
 30
0.0
 11
2.793004845659003
 21
0.4917480923627929
 31
0.0
  0
LINE
  5
136
330
1F
100
AcDbEntity
  8
0
  6
PHANTOM
 62
     8
370
     5
100
AcDbLine
 10
2.00150484121793
 20
0.4917480923627929
 30
0.0
 11
2.12650483970728
 21
0.4917480923627929
 31
0.0
  0
LINE
  5
137
330
1F
100
AcDbEntity
  8
0
  6
PHANTOM
 62
     8
370
     5
100
AcDbLine
 10
1.335004835266206
 20
0.4917480923627929
 30
0.0
 11
1.876504838145298
 21
0.4917480923627929
 31
0.0
  0
LINE
  5
138
330
1F
100
AcDbEntity
  8
0
  6
PHANTOM
 62
     8
370
     5
100
AcDbLine
 10
1.444004849422075
 20
0.7542470066196022
 30
0.0
 11
1.444004849422075
 21
5.854247010984352
 31
0.0
  0
ARC
  5
139
330
1F
100
AcDbEntity
  8
0
  6
PHANTOM
 62
     8
370
     5
100
AcDbCircle
 10
1.564004840462605
 20
0.7542470593720602
 30
0.0
 40
0.120000000000001
100
AcDbArc
 50
180.0
 51
0.0
  0
LINE
  5
13A
330
1F
100
AcDbEntity
  8
0
  6
PHANTOM
 62
     8
370
     5
100
AcDbLine
 10
1.684004843588329
 20
5.854247010984352
 30
0.0
 11
1.684004843588329
 21
0.7542470066196022
 31
0.0
  0
ARC
  5
13B
330
1F
100
AcDbEntity
  8
0
  6
PHANTOM
 62
     8
370
     5
100
AcDbCircle
 10
1.564004840462605
 20
5.85424705937206
 30
0.0
 40
0.1200000000000008
100
AcDbArc
 50
0.0000000000000265
 51
179.9999999999999
  0
LINE
  5
13C
330
1F
100
AcDbEntity
  8
0
  6
PHANTOM
 62
     8
370
     5
100
AcDbLine
 10
2.684004831503135
 20
0.229252404735376
 30
0.0
 11
2.684004831503135
 21
-0.6207476693245685
 31
0.0
  0
ARC
  5
13D
330
1F
100
AcDbEntity
  8
0
  6
PHANTOM
 62
     8
370
     5
100
AcDbCircle
 10
2.564004840462605
 20
0.2292523658025656
 30
0.0
 40
0.1200000000000005
100
AcDbArc
 50
0.0
 51
179.9999999999995
  0
LINE
  5
13E
330
1F
100
AcDbEntity
  8
0
  6
PHANTOM
 62
     8
370
     5
100
AcDbLine
 10
2.444004837336881
 20
-0.6207476693245685
 30
0.0
 11
2.444004837336881
 21
0.229252404735376
 31
0.0
  0
ARC
  5
13F
330
1F
100
AcDbEntity
  8
0
  6
PHANTOM
 62
     8
370
     5
100
AcDbCircle
 10
2.564004840462605
 20
-0.6207476341974355
 30
0.0
 40
0.1200000000000005
100
AcDbArc
 50
180.0
 51
0.0
  0
LINE
  5
140
330
1F
100
AcDbEntity
  8
0
  6
PHANTOM
 62
     8
370
     5
100
AcDbLine
 10
1.335004835266206
 20
0.4917340125254445
 30
0.0
 11
1.876504838145298
 21
0.4917340125254445
 31
0.0
  0
LINE
  5
141
330
1F
100
AcDbEntity
  8
0
  6
PHANTOM
 62
     8
370
     5
100
AcDbLine
 10
2.00150484121793
 20
0.4917340125254445
 30
0.0
 11
2.12650483970728
 21
0.4917340125254445
 31
0.0
  0
LINE
  5
142
330
1F
100
AcDbEntity
  8
0
  6
PHANTOM
 62
     8
370
     5
100
AcDbLine
 10
2.251504842779912
 20
0.4917340125254445
 30
0.0
 11
2.793004845659003
 21
0.4917340125254445
 31
0.0
  0
LINE
  5
143
330
1F
100
AcDbEntity
  8
0
  6
PHANTOM
 62
     8
370
     5
100
AcDbLine
 10
1.684004843588329
 20
0.229252404735376
 30
0.0
 11
1.684004843588329
 21
-0.6207476693245685
 31
0.0
  0
ARC
  5
144
330
1F
100
AcDbEntity
  8
0
  6
PHANTOM
 62
     8
370
     5
100
AcDbCircle
 10
1.564004840462605
 20
0.2292523658025656
 30
0.0
 40
0.1199999999999997
100
AcDbArc
 50
0.0
 51
180.0
  0
LINE
  5
145
330
1F
100
AcDbEntity
  8
0
  6
PHANTOM
 62
     8
370
     5
100
AcDbLine
 10
1.444004849422075
 20
-0.6207476693245685
 30
0.0
 11
1.444004849422075
 21
0.229252404735376
 31
0.0
  0
ARC
  5
146
330
1F
100
AcDbEntity
  8
0
  6
PHANTOM
 62
     8
370
     5
100
AcDbCircle
 10
1.564004840462605
 20
-0.6207476341974355
 30
0.0
 40
0.1199999999999997
100
AcDbArc
 50
180.0
 51
0.0
  0
LINE
  5
147
330
1F
100
AcDbEntity
  8
0
  6
PHANTOM
 62
     8
370
     5
100
AcDbLine
 10
1.684004843588329
 20
5.854247010984352
 30
0.0
 11
1.60939809545185
 21
5.854247010984352
 31
0.0
  0
ARC
  5
148
330
1F
100
AcDbEntity
  8
0
  6
PHANTOM
 62
     8
370
     5
100
AcDbCircle
 10
1.564004840462605
 20
5.85424705937206
 30
0.0
 40
0.0453932584269672
100
AcDbArc
 50
0.0000000000001401
 51
179.9999999999998
  0
LINE
  5
149
330
1F
100
AcDbEntity
  8
0
  6
PHANTOM
 62
     8
370
     5
100
AcDbLine
 10
1.444004849422075
 20
5.854247010984352
 30
0.0
 11
1.518611597558554
 21
5.854247010984352
 31
0.0
  0
LINE
  5
14A
330
1F
100
AcDbEntity
  8
0
  6
PHANTOM
 62
     8
370
     5
100
AcDbLine
 10
1.684004843588329
 20
0.7542470066196022
 30
0.0
 11
1.60939809545185
 21
0.7542470066196022
 31
0.0
  0
LINE
  5
14B
330
1F
100
AcDbEntity
  8
0
  6
PHANTOM
 62
     8
370
     5
100
AcDbLine
 10
1.60939809545185
 20
0.7542470066196022
 30
0.0
 11
1.60939809545185
 21
5.854247010984352
 31
0.0
  0
ARC
  5
14C
330
1F
100
AcDbEntity
  8
0
  6
PHANTOM
 62
     8
370
     5
100
AcDbCircle
 10
2.564004840462605
 20
5.85424705937206
 30
0.0
 40
0.0453932584269663
100
AcDbArc
 50
0.0000000000001401
 51
179.9999999999998
  0
LINE
  5
14D
330
1F
100
AcDbEntity
  8
0
  6
PHANTOM
 62
     8
370
     5
100
AcDbLine
 10
2.444004837336881
 20
5.854247010984352
 30
0.0
 11
2.51861158547336
 21
5.854247010984352
 31
0.0
  0
LINE
  5
14E
330
1F
100
AcDbEntity
  8
0
  6
PHANTOM
 62
     8
370
     5
100
AcDbLine
 10
2.684004831503135
 20
5.854247010984352
 30
0.0
 11
2.609398083366656
 21
5.854247010984352
 31
0.0
  0
LINE
  5
14F
330
1F
100
AcDbEntity
  8
0
  6
PHANTOM
 62
     8
370
     5
100
AcDbLine
 10
2.51861158547336
 20
0.7542470066196022
 30
0.0
 11
2.51861158547336
 21
5.854247010984352
 31
0.0
  0
LINE
  5
150
330
1F
100
AcDbEntity
  8
0
  6
PHANTOM
 62
     8
370
     5
100
AcDbLine
 10
2.444004837336881
 20
0.7542470066196022
 30
0.0
 11
2.51861158547336
 21
0.7542470066196022
 31
0.0
  0
LINE
  5
151
330
1F
100
AcDbEntity
  8
0
  6
PHANTOM
 62
     8
370
     5
100
AcDbLine
 10
2.609398083366656
 20
5.854247010984352
 30
0.0
 11
2.609398083366656
 21
0.7542470066196022
 31
0.0
  0
LINE
  5
152
330
1F
100
AcDbEntity
  8
0
  6
PHANTOM
 62
     8
370
     5
100
AcDbLine
 10
2.684004831503135
 20
0.7542470066196022
 30
0.0
 11
2.609398083366656
 21
0.7542470066196022
 31
0.0
  0
ARC
  5
153
330
1F
100
AcDbEntity
  8
0
  6
PHANTOM
 62
     8
370
     5
100
AcDbCircle
 10
2.564004840462605
 20
0.7542470593720602
 30
0.0
 40
0.0453932584269663
100
AcDbArc
 50
180.0
 51
0.0
  0
LINE
  5
154
330
1F
100
AcDbEntity
  8
0
  6
PHANTOM
 62
     8
370
     5
100
AcDbLine
 10
1.518611597558554
 20
5.854247010984352
 30
0.0
 11
1.518611597558554
 21
0.7542470066196022
 31
0.0
  0
LINE
  5
155
330
1F
100
AcDbEntity
  8
0
  6
PHANTOM
 62
     8
370
     5
100
AcDbLine
 10
1.444004849422075
 20
0.7542470066196022
 30
0.0
 11
1.518611597558554
 21
0.7542470066196022
 31
0.0
  0
ARC
  5
156
330
1F
100
AcDbEntity
  8
0
  6
PHANTOM
 62
     8
370
     5
100
AcDbCircle
 10
1.564004840462605
 20
0.7542470593720602
 30
0.0
 40
0.0453932584269676
100
AcDbArc
 50
180.0
 51
0.0
  0
LWPOLYLINE
  5
157
330
1F
100
AcDbEntity
  8
0
  6
PHANTOM
 62
     8
370
     5
100
AcDbPolyline
 90
        9
 70
   128
 43
0.0
 10
1.684004843588329
 20
0.229252404735376
 10
1.672451530386522
 20
0.229252404735376
 10
1.661123201252347
 20
0.2292529913952655
 10
1.650240366971777
 20
0.229253578055155
 10
1.64001492176366
 20
0.2292544580449893
 10
1.630645999994243
 20
0.2292556313647684
 10
1.622315979556684
 20
0.2292570980144922
 10
1.615187108576676
 20
0.2292588579941607
 10
1.60939809545185
 20
0.2292606179738293
  0
ARC
  5
158
330
1F
100
AcDbEntity
  8
0
  6
PHANTOM
 62
     8
370
     5
100
AcDbCircle
 10
1.564004846505202
 20
0.2292604136009113
 30
0.0
 40
0.0453932489471083
100
AcDbArc
 50
0.0002579613911792
 51
179.9997420386088
  0
LWPOLYLINE
  5
159
330
1F
100
AcDbEntity
  8
0
  6
PHANTOM
 62
     8
370
     5
100
AcDbPolyline
 90
        9
 70
   128
 43
0.0
 10
1.444004849422075
 20
0.229252404735376
 10
1.455558125957638
 20
0.229252404735376
 10
1.466886491758057
 20
0.2292529913952655
 10
1.477769326038626
 20
0.229253578055155
 10
1.487994734580501
 20
0.2292544580449893
 10
1.49736369301616
 20
0.2292556313647684
 10
1.505693676787477
 20
0.2292570980144922
 10
1.512822584433727
 20
0.2292588579941607
 10
1.518611597558554
 20
0.2292606179738293
  0
ARC
  5
15A
330
1F
100
AcDbEntity
  8
0
  6
PHANTOM
 62
     8
370
     5
100
AcDbCircle
 10
2.564004834420008
 20
0.2292604136009113
 30
0.0
 40
0.0453932489471081
100
AcDbArc
 50
0.0002579613911792
 51
179.9997420386088
  0
LWPOLYLINE
  5
15B
330
1F
100
AcDbEntity
  8
0
  6
PHANTOM
 62
     8
370
     5
100
AcDbPolyline
 90
        9
 70
   128
 43
0.0
 10
2.444004837336881
 20
0.229252404735376
 10
2.455558150538688
 20
0.229252404735376
 10
2.466886479672863
 20
0.2292529913952655
 10
2.477769313953433
 20
0.229253578055155
 10
2.48799475916155
 20
0.2292544580449893
 10
2.497363680930967
 20
0.2292556313647684
 10
2.505693701368526
 20
0.2292570980144922
 10
2.512822572348534
 20
0.2292588579941607
 10
2.51861158547336
 20
0.2292606179738293
  0
LWPOLYLINE
  5
15C
330
1F
100
AcDbEntity
  8
0
  6
PHANTOM
 62
     8
370
     5
100
AcDbPolyline
 90
        9
 70
   128
 43
0.0
 10
2.684004831503135
 20
0.229252404735376
 10
2.672451554967572
 20
0.229252404735376
 10
2.661123189167153
 20
0.2292529913952655
 10
2.650240354886584
 20
0.229253578055155
 10
2.640014946344709
 20
0.2292544580449893
 10
2.63064598790905
 20
0.2292556313647684
 10
2.622316004137733
 20
0.2292570980144922
 10
2.615187096491482
 20
0.2292588579941607
 10
2.609398083366656
 20
0.2292606179738293
  0
LINE
  5
15D
330
1F
100
AcDbEntity
  8
0
  6
PHANTOM
 62
     8
370
     5
100
AcDbLine
 10
1.518611597558554
 20
0.2292606179738293
 30
0.0
 11
1.518611597558554
 21
-0.6207394560861152
 31
0.0
  0
LWPOLYLINE
  5
15E
330
1F
100
AcDbEntity
  8
0
  6
PHANTOM
 62
     8
370
     5
100
AcDbPolyline
 90
        9
 70
   128
 43
0.0
 10
1.444004849422075
 20
-0.6207476693245685
 10
1.455558125957638
 20
-0.6207476693245685
 10
1.466886491758057
 20
-0.6207470826646789
 10
1.477769326038626
 20
-0.6207464960047894
 10
1.487994734580501
 20
-0.6207453226850105
 10
1.49736369301616
 20
-0.6207441493652314
 10
1.505693676787477
 20
-0.6207429760454523
 10
1.512822584433727
 20
-0.6207412160657837
 10
1.518611597558554
 20
-0.6207394560861152
  0
LINE
  5
15F
330
1F
100
AcDbEntity
  8
0
  6
PHANTOM
 62
     8
370
     5
100
AcDbLine
 10
2.51861158547336
 20
-0.6207394560861152
 30
0.0
 11
2.51861158547336
 21
0.2292606179738293
 31
0.0
  0
LWPOLYLINE
  5
160
330
1F
100
AcDbEntity
  8
0
  6
PHANTOM
 62
     8
370
     5
100
AcDbPolyline
 90
        9
 70
   128
 43
0.0
 10
2.444004837336881
 20
-0.6207476693245685
 10
2.455558150538688
 20
-0.6207476693245685
 10
2.466886479672863
 20
-0.6207470826646789
 10
2.477769313953433
 20
-0.6207464960047894
 10
2.48799475916155
 20
-0.6207453226850105
 10
2.497363680930967
 20
-0.6207441493652314
 10
2.505693701368526
 20
-0.6207429760454523
 10
2.512822572348534
 20
-0.6207412160657837
 10
2.51861158547336
 20
-0.6207394560861152
  0
LWPOLYLINE
  5
161
330
1F
100
AcDbEntity
  8
0
  6
PHANTOM
 62
     8
370
     5
100
AcDbPolyline
 90
        9
 70
   128
 43
0.0
 10
1.684004843588329
 20
-0.6207476693245685
 10
1.672451530386522
 20
-0.6207476693245685
 10
1.661123201252347
 20
-0.6207470826646789
 10
1.650240366971777
 20
-0.6207464960047894
 10
1.64001492176366
 20
-0.6207453226850105
 10
1.630645999994243
 20
-0.6207441493652314
 10
1.622315979556684
 20
-0.6207429760454523
 10
1.615187108576676
 20
-0.6207412160657837
 10
1.60939809545185
 20
-0.6207394560861152
  0
LINE
  5
162
330
1F
100
AcDbEntity
  8
0
  6
PHANTOM
 62
     8
370
     5
100
AcDbLine
 10
1.60939809545185
 20
-0.6207394560861152
 30
0.0
 11
1.60939809545185
 21
0.2292606179738293
 31
0.0
  0
LINE
  5
163
330
1F
100
AcDbEntity
  8
0
  6
PHANTOM
 62
     8
370
     5
100
AcDbLine
 10
2.609398083366656
 20
0.2292606179738293
 30
0.0
 11
2.609398083366656
 21
-0.6207394560861152
 31
0.0
  0
LWPOLYLINE
  5
164
330
1F
100
AcDbEntity
  8
0
  6
PHANTOM
 62
     8
370
     5
100
AcDbPolyline
 90
        9
 70
   128
 43
0.0
 10
2.684004831503135
 20
-0.6207476693245685
 10
2.672451554967572
 20
-0.6207476693245685
 10
2.661123189167153
 20
-0.6207470826646789
 10
2.650240354886584
 20
-0.6207464960047894
 10
2.640014946344709
 20
-0.6207453226850105
 10
2.63064598790905
 20
-0.6207441493652314
 10
2.622316004137733
 20
-0.6207429760454523
 10
2.615187096491482
 20
-0.6207412160657837
 10
2.609398083366656
 20
-0.6207394560861152
  0
ARC
  5
165
330
1F
100
AcDbEntity
  8
0
  6
PHANTOM
 62
     8
370
     5
100
AcDbCircle
 10
1.564004846505202
 20
-0.6207395450436694
 30
0.0
 40
0.0453932489467352
100
AcDbArc
 50
179.9998877169506
 51
0.0001122830493611
  0
ARC
  5
166
330
1F
100
AcDbEntity
  8
0
  6
PHANTOM
 62
     8
370
     5
100
AcDbCircle
 10
2.564004834420008
 20
-0.6207395450436694
 30
0.0
 40
0.0453932489467352
100
AcDbArc
 50
179.9998877169506
 51
0.0001122830493611
  0
LINE
  5
167
330
1F
100
AcDbEntity
  8
0
  6
PHANTOM
 62
     8
370
     5
100
AcDbLine
 10
1.60939809545185
 20
5.854247010984352
 30
0.0
 11
1.518611597558554
 21
5.854247010984352
 31
0.0
  0
LINE
  5
168
330
1F
100
AcDbEntity
  8
0
  6
PHANTOM
 62
     8
370
     5
100
AcDbLine
 10
1.60939809545185
 20
0.7542470066196022
 30
0.0
 11
1.518611597558554
 21
0.7542470066196022
 31
0.0
  0
LINE
  5
169
330
1F
100
AcDbEntity
  8
0
  6
PHANTOM
 62
     8
370
     5
100
AcDbLine
 10
2.609398083366656
 20
5.854247010984352
 30
0.0
 11
2.51861158547336
 21
5.854247010984352
 31
0.0
  0
LINE
  5
16A
330
1F
100
AcDbEntity
  8
0
  6
PHANTOM
 62
     8
370
     5
100
AcDbLine
 10
2.609398083366656
 20
0.7542470066196022
 30
0.0
 11
2.51861158547336
 21
0.7542470066196022
 31
0.0
  0
LWPOLYLINE
  5
16B
330
1F
100
AcDbEntity
  8
0
  6
PHANTOM
 62
     8
370
     5
100
AcDbPolyline
 90
        9
 70
   128
 43
0.0
 10
2.609398083366656
 20
0.2292606179738293
 10
2.60153841749552
 20
0.2292626712834426
 10
2.590769798562192
 20
0.2292641379331664
 10
2.577926823592001
 20
0.2292650179230007
 10
2.564004834420008
 20
0.2292653112529455
 10
2.550082881914258
 20
0.2292650179230007
 10
2.537239906944068
 20
0.2292641379331664
 10
2.526471251344496
 20
0.2292626712834426
 10
2.51861158547336
 20
0.2292606179738293
  0
LWPOLYLINE
  5
16C
330
1F
100
AcDbEntity
  8
0
  6
PHANTOM
 62
     8
370
     5
100
AcDbPolyline
 90
        9
 70
   128
 43
0.0
 10
1.60939809545185
 20
0.2292606179738293
 10
1.601538429580714
 20
0.2292626712834426
 10
1.590769773981142
 20
0.2292641379331664
 10
1.577926799010952
 20
0.2292650179230007
 10
1.564004846505202
 20
0.2292653112529455
 10
1.550082857333209
 20
0.2292650179230007
 10
1.537239882363018
 20
0.2292641379331664
 10
1.52647126342969
 20
0.2292626712834426
 10
1.518611597558554
 20
0.2292606179738293
  0
LWPOLYLINE
  5
16D
330
1F
100
AcDbEntity
  8
0
  6
PHANTOM
 62
     8
370
     5
100
AcDbPolyline
 90
        9
 70
   128
 43
0.0
 10
2.609398083366656
 20
-0.6207394560861152
 10
2.60153841749552
 20
-0.6207376961064466
 10
2.590769798562192
 20
-0.6207359361267781
 10
2.577926823592001
 20
-0.6207347628069991
 10
2.564004834420008
 20
-0.6207347628069991
 10
2.550082881914258
 20
-0.6207347628069991
 10
2.537239906944068
 20
-0.6207359361267781
 10
2.526471251344496
 20
-0.6207376961064466
 10
2.51861158547336
 20
-0.6207394560861152
  0
LWPOLYLINE
  5
16E
330
1F
100
AcDbEntity
  8
0
  6
PHANTOM
 62
     8
370
     5
100
AcDbPolyline
 90
        9
 70
   128
 43
0.0
 10
1.60939809545185
 20
-0.6207394560861152
 10
1.601538429580714
 20
-0.6207376961064466
 10
1.590769773981142
 20
-0.6207359361267781
 10
1.577926799010952
 20
-0.6207347628069991
 10
1.564004846505202
 20
-0.6207347628069991
 10
1.550082857333209
 20
-0.6207347628069991
 10
1.537239882363018
 20
-0.6207359361267781
 10
1.52647126342969
 20
-0.6207376961064466
 10
1.518611597558554
 20
-0.6207394560861152
  0
LINE
  5
16F
330
1F
100
AcDbEntity
  8
0
  6
Continuous
 62
     7
370
     5
100
AcDbLine
 10
2.918004834981794
 20
12.43686982417808
 30
0.0
 11
2.845004838283985
 21
12.43686982417808
 31
0.0
  0
LINE
  5
170
330
1F
100
AcDbEntity
  8
0
  6
Continuous
 62
     7
370
     5
100
AcDbLine
 10
2.845004838283985
 20
11.55091410798078
 30
0.0
 11
2.918004834981794
 21
11.55091410798078
 31
0.0
  0
LINE
  5
171
330
1F
100
AcDbEntity
  8
0
  6
Continuous
 62
     7
370
     5
100
AcDbLine
 10
2.845004838283985
 20
12.43686982417808
 30
0.0
 11
2.845004838283985
 21
11.55091410798078
 31
0.0
  0
LINE
  5
172
330
1F
100
AcDbEntity
  8
0
  6
Continuous
 62
     7
370
     5
100
AcDbLine
 10
2.918004834981794
 20
12.43686982417808
 30
0.0
 11
2.918004834981794
 21
11.55091410798078
 31
0.0
  0
LINE
  5
173
330
1F
100
AcDbEntity
  8
0
  6
Continuous
 62
     7
370
     5
100
AcDbLine
 10
1.210004845943416
 20
11.55091410798078
 30
0.0
 11
1.283004842641225
 21
11.55091410798078
 31
0.0
  0
LINE
  5
174
330
1F
100
AcDbEntity
  8
0
  6
Continuous
 62
     7
370
     5
100
AcDbLine
 10
1.283004842641225
 20
11.55091410798078
 30
0.0
 11
1.283004842641225
 21
12.43686982417808
 31
0.0
  0
LINE
  5
175
330
1F
100
AcDbEntity
  8
0
  6
Continuous
 62
     7
370
     5
100
AcDbLine
 10
1.210004845943416
 20
11.55091410798078
 30
0.0
 11
1.210004845943416
 21
12.43686982417808
 31
0.0
  0
LINE
  5
176
330
1F
100
AcDbEntity
  8
0
  6
Continuous
 62
     7
370
     5
100
AcDbLine
 10
1.210004845943416
 20
12.43686982417808
 30
0.0
 11
1.283004842641225
 21
12.43686982417808
 31
0.0
  0
LINE
  5
177
330
1F
100
AcDbEntity
  8
0
  6
Continuous
 62
     7
370
     5
100
AcDbLine
 10
1.764004847754787
 20
12.48841408748435
 30
0.0
 11
2.364004833170422
 21
12.48841408748435
 31
0.0
  0
LINE
  5
178
330
1F
100
AcDbEntity
  8
0
  6
Continuous
 62
     7
370
     5
100
AcDbLine
 10
2.364004833170422
 20
12.56141408418216
 30
0.0
 11
2.364004833170422
 21
12.48841408748435
 31
0.0
  0
LINE
  5
179
330
1F
100
AcDbEntity
  8
0
  6
Continuous
 62
     7
370
     5
100
AcDbLine
 10
1.764004847754787
 20
12.56141408418216
 30
0.0
 11
1.764004847754787
 21
12.48841408748435
 31
0.0
  0
LINE
  5
17A
330
1F
100
AcDbEntity
  8
0
  6
Continuous
 62
     7
370
     5
100
AcDbLine
 10
1.764004847754787
 20
12.56141408418216
 30
0.0
 11
2.364004833170422
 21
12.56141408418216
 31
0.0
  0
LINE
  5
17B
330
1F
100
AcDbEntity
  8
0
  6
Continuous
 62
     7
370
     5
100
AcDbLine
 10
2.426504846164939
 20
12.48841408748435
 30
0.0
 11
2.364004833170422
 21
12.48841408748435
 31
0.0
  0
LINE
  5
17C
330
1F
100
AcDbEntity
  8
0
  6
Continuous
 62
     7
370
     5
100
AcDbLine
 10
2.426504846164939
 20
12.56141408418216
 30
0.0
 11
2.364004833170422
 21
12.56141408418216
 31
0.0
  0
LINE
  5
17D
330
1F
100
AcDbEntity
  8
0
  6
Continuous
 62
     7
370
     5
100
AcDbLine
 10
1.764004847754787
 20
12.48841408748435
 30
0.0
 11
1.701504834760271
 21
12.48841408748435
 31
0.0
  0
LINE
  5
17E
330
1F
100
AcDbEntity
  8
0
  6
Continuous
 62
     7
370
     5
100
AcDbLine
 10
1.764004847754787
 20
12.56141408418216
 30
0.0
 11
1.701504834760271
 21
12.56141408418216
 31
0.0
  0
ARC
  5
17F
330
1F
100
AcDbEntity
  8
0
  6
Continuous
 62
     7
370
     5
100
AcDbCircle
 10
2.795004839024783
 20
12.43841408526308
 30
0.0
 40
0.1230000000000011
100
AcDbArc
 50
0.0000000000002069
 51
89.99999999999959
  0
ARC
  5
180
330
1F
100
AcDbEntity
  8
0
  6
Continuous
 62
     7
370
     5
100
AcDbCircle
 10
2.795004839024783
 20
12.43841408526308
 30
0.0
 40
0.0500000000000025
100
AcDbArc
 50
0.0
 51
89.99999999999948
  0
LINE
  5
181
330
1F
100
AcDbEntity
  8
0
  6
Continuous
 62
     7
370
     5
100
AcDbLine
 10
2.426504846164939
 20
12.48841408748435
 30
0.0
 11
2.795004842554869
 21
12.48841408748435
 31
0.0
  0
LINE
  5
182
330
1F
100
AcDbEntity
  8
0
  6
Continuous
 62
     7
370
     5
100
AcDbLine
 10
2.426504846164939
 20
12.56141408418216
 30
0.0
 11
2.795004842554869
 21
12.56141408418216
 31
0.0
  0
LINE
  5
183
330
1F
100
AcDbEntity
  8
0
  6
Continuous
 62
     7
370
     5
100
AcDbLine
 10
2.845004838283985
 20
12.43841408717196
 30
0.0
 11
2.845004838283985
 21
12.43686982417808
 31
0.0
  0
LINE
  5
184
330
1F
100
AcDbEntity
  8
0
  6
Continuous
 62
     7
370
     5
100
AcDbLine
 10
2.918004834981794
 20
12.43841408717196
 30
0.0
 11
2.918004834981794
 21
12.43686982417808
 31
0.0
  0
ARC
  5
185
330
1F
100
AcDbEntity
  8
0
  6
Continuous
 62
     7
370
     5
100
AcDbCircle
 10
1.333004841900427
 20
12.43841408526308
 30
0.0
 40
0.1230000000000011
100
AcDbArc
 50
90.00000000000031
 51
179.9999999999975
  0
ARC
  5
186
330
1F
100
AcDbEntity
  8
0
  6
Continuous
 62
     7
370
     5
100
AcDbCircle
 10
1.333004841900427
 20
12.43841408526308
 30
0.0
 40
0.0500000000000007
100
AcDbArc
 50
90.00000000000076
 51
179.9999999999979
  0
LINE
  5
187
330
1F
100
AcDbEntity
  8
0
  6
Continuous
 62
     7
370
     5
100
AcDbLine
 10
1.333004838370341
 20
12.48841408748435
 30
0.0
 11
1.701504834760271
 21
12.48841408748435
 31
0.0
  0
LINE
  5
188
330
1F
100
AcDbEntity
  8
0
  6
Continuous
 62
     7
370
     5
100
AcDbLine
 10
1.333004838370341
 20
12.56141408418216
 30
0.0
 11
1.701504834760271
 21
12.56141408418216
 31
0.0
  0
LINE
  5
189
330
1F
100
AcDbEntity
  8
0
  6
Continuous
 62
     7
370
     5
100
AcDbLine
 10
1.283004842641225
 20
12.43686982417808
 30
0.0
 11
1.283004842641225
 21
12.43841408717196
 31
0.0
  0
LINE
  5
18A
330
1F
100
AcDbEntity
  8
0
  6
Continuous
 62
     7
370
     5
100
AcDbLine
 10
1.210004845943416
 20
12.43686982417808
 30
0.0
 11
1.210004845943416
 21
12.43841408717196
 31
0.0
  0
ARC
  5
18B
330
1F
100
AcDbEntity
  8
0
  6
Continuous
 62
     7
370
     5
100
AcDbCircle
 10
1.684004840462606
 20
12.57141408526308
 30
0.0
 40
0.0100000000000016
100
AcDbArc
 50
205.9892335838345
 51
270.0000000000008
  0
ARC
  5
18C
330
1F
100
AcDbEntity
  8
0
  6
Continuous
 62
     7
370
     5
100
AcDbCircle
 10
1.444004840462604
 20
12.57141408526308
 30
0.0
 40
0.0100000000000016
100
AcDbArc
 50
270.0000000000008
 51
334.0107664161671
  0
ARC
  5
18D
330
1F
100
AcDbEntity
  8
0
  6
Continuous
 62
     7
370
     5
100
AcDbCircle
 10
2.444004840462604
 20
12.57141408526308
 30
0.0
 40
0.0099999999999998
100
AcDbArc
 50
270.0000000000008
 51
334.0107664161763
  0
ARC
  5
18E
330
1F
100
AcDbEntity
  8
0
  6
Continuous
 62
     7
370
     5
100
AcDbCircle
 10
2.684004840462605
 20
12.57141408526308
 30
0.0
 40
0.0099999999999998
100
AcDbArc
 50
205.9892335838243
 51
270.0000000000008
  0
ARC
  5
18F
330
1F
100
AcDbEntity
  8
0
  6
Continuous
 62
     7
370
     5
100
AcDbCircle
 10
1.564004840462605
 20
12.51291408526308
 30
0.0
 40
0.1235000000000017
100
AcDbArc
 50
25.98923358383372
 51
154.0107664161662
  0
ARC
  5
190
330
1F
100
AcDbEntity
  8
0
  6
Continuous
 62
     7
370
     5
100
AcDbCircle
 10
2.564004840462605
 20
12.51291408526308
 30
0.0
 40
0.1235000000000011
100
AcDbArc
 50
25.98923358383386
 51
154.0107664161661
  0
ARC
  5
191
330
1F
100
AcDbEntity
  8
0
  6
Continuous
 62
     7
370
     5
100
AcDbCircle
 10
2.928004839024782
 20
11.91272686156897
 30
0.0
 40
0.0100000000000002
100
AcDbArc
 50
179.9999999999987
 51
244.010766416166
  0
ARC
  5
192
330
1F
100
AcDbEntity
  8
0
  6
Continuous
 62
     7
370
     5
100
AcDbCircle
 10
2.928004839024781
 20
11.67272686156897
 30
0.0
 40
0.0100000000000002
100
AcDbArc
 50
115.9892335838348
 51
180.0
  0
ARC
  5
193
330
1F
100
AcDbEntity
  8
0
  6
Continuous
 62
     7
370
     5
100
AcDbCircle
 10
2.869504839024782
 20
11.79272686156897
 30
0.0
 40
0.1235000000000007
100
AcDbArc
 50
295.9892335838329
 51
64.01076641616699
  0
ARC
  5
194
330
1F
100
AcDbEntity
  8
0
  6
Continuous
 62
     7
370
     5
100
AcDbCircle
 10
1.200004841900428
 20
11.67272686156897
 30
0.0
 40
0.0100000000000013
100
AcDbArc
 50
0.0000000000031806
 51
64.01076641616848
  0
ARC
  5
195
330
1F
100
AcDbEntity
  8
0
  6
Continuous
 62
     7
370
     5
100
AcDbCircle
 10
1.200004841900428
 20
11.91272686156897
 30
0.0
 40
0.0100000000000013
100
AcDbArc
 50
295.9892335838323
 51
0.0
  0
ARC
  5
196
330
1F
100
AcDbEntity
  8
0
  6
Continuous
 62
     7
370
     5
100
AcDbCircle
 10
1.258504841900428
 20
11.79272686156897
 30
0.0
 40
0.1234999999999994
100
AcDbArc
 50
115.9892335838334
 51
244.0107664161681
  0
ARC
  5
197
330
1F
100
AcDbEntity
  8
0
  6
Continuous
 62
     7
370
     5
100
AcDbCircle
 10
2.928004839024783
 20
12.25272686156898
 30
0.0
 40
0.0100000000000012
100
AcDbArc
 50
179.9999999999994
 51
244.0107664161704
  0
ARC
  5
198
330
1F
100
AcDbEntity
  8
0
  6
Continuous
 62
     7
370
     5
100
AcDbCircle
 10
2.928004839024782
 20
12.01272686156897
 30
0.0
 40
0.0100000000000012
100
AcDbArc
 50
115.9892335838303
 51
180.0
  0
ARC
  5
199
330
1F
100
AcDbEntity
  8
0
  6
Continuous
 62
     7
370
     5
100
AcDbCircle
 10
2.869504839024783
 20
12.13272686156897
 30
0.0
 40
0.1234999999999999
100
AcDbArc
 50
295.9892335838337
 51
64.0107664161668
  0
ARC
  5
19A
330
1F
100
AcDbEntity
  8
0
  6
Continuous
 62
     7
370
     5
100
AcDbCircle
 10
1.200004841900427
 20
12.01272686156898
 30
0.0
 40
0.0100000000000005
100
AcDbArc
 50
0.0000000000009542
 51
64.01076641616402
  0
ARC
  5
19B
330
1F
100
AcDbEntity
  8
0
  6
Continuous
 62
     7
370
     5
100
AcDbCircle
 10
1.200004841900426
 20
12.25272686156897
 30
0.0
 40
0.0100000000000005
100
AcDbArc
 50
295.98923358384
 51
0.0000000000203555
  0
ARC
  5
19C
330
1F
100
AcDbEntity
  8
0
  6
Continuous
 62
     7
370
     5
100
AcDbCircle
 10
1.258504841900427
 20
12.13272686156897
 30
0.0
 40
0.1235000000000002
100
AcDbArc
 50
115.9892335838335
 51
244.0107664161678
  0
SPLINE
  5
19D
330
1F
100
AcDbEntity
  8
0
  6
Continuous
 62
     7
370
     5
100
AcDbSpline
210
0.0
220
0.0
230
1.0
 70
     8
 71
     3
 72
    31
 73
    27
 74
     0
 42
0.0000000001
 43
0.0000000001
 40
0.0
 40
0.0
 40
0.0
 40
0.0
 40
0.0460806833872466
 40
0.0908067996076116
 40
0.1342952705290602
 40
0.1770243856662385
 40
0.2188227336826515
 40
0.260244116327365
 40
0.3010798671134445
 40
0.3416138942851495
 40
0.3815834185517465
 40
0.4201195913296145
 40
0.458074618542316
 40
0.4947384876076561
 40
0.531194622893716
 40
0.566933698450375
 40
0.602712650737995
 40
0.6383266061284351
 40
0.6748532488548231
 40
0.7134673707840572
 40
0.7544418038483811
 40
0.797815360712499
 40
0.8439894562081098
 40
0.8930715698796479
 40
0.944963346178144
 40
1.0
 40
1.0
 40
1.0
 40
1.0
 10
1.879509648154911
 20
12.56160351510006
 30
0.0
 10
1.879526495498102
 20
12.56160371734587
 30
0.0
 10
1.879559694947515
 20
12.56160411589237
 30
0.0
 10
1.879857801622586
 20
12.56160470326217
 30
0.0
 10
1.880291095909545
 20
12.56160527320678
 30
0.0
 10
1.880961922637324
 20
12.56160582301213
 30
0.0
 10
1.88177627567582
 20
12.56160635749528
 30
0.0
 10
1.882819958299746
 20
12.56160687095982
 30
0.0
 10
1.884015551947316
 20
12.56160736811595
 30
0.0
 10
1.885409745122964
 20
12.56160784224153
 30
0.0
 10
1.886940317935647
 20
12.56160829143024
 30
0.0
 10
1.888582864628487
 20
12.56160871486984
 30
0.0
 10
1.890335633255159
 20
12.56160910651807
 30
0.0
 10
1.892215337708083
 20
12.56160946756098
 30
0.0
 10
1.894197687255832
 20
12.56160979745428
 30
0.0
 10
1.896295660396031
 20
12.56161009895374
 30
0.0
 10
1.898514670684617
 20
12.56161036616001
 30
0.0
 10
1.900844779329978
 20
12.56161060957316
 30
0.0
 10
1.903353961362086
 20
12.56161082191283
 30
0.0
 10
1.906089743492229
 20
12.5616110015727
 30
0.0
 10
1.909063792902464
 20
12.56161115045527
 30
0.0
 10
1.912268809605701
 20
12.56161127467392
 30
0.0
 10
1.915710331330888
 20
12.56161137321007
 30
0.0
 10
1.919391732201181
 20
12.56161143925081
 30
0.0
 10
1.923307356032147
 20
12.56161148391066
 30
0.0
 10
1.925996086351097
 20
12.56161148782079
 30
0.0
 10
1.927379990702988
 20
12.56161148983335
 30
0.0
  0
SPLINE
  5
19E
330
1F
100
AcDbEntity
  8
0
  6
Continuous
 62
     7
370
     5
100
AcDbSpline
210
0.0
220
0.0
230
1.0
 70
     8
 71
     3
 72
    23
 73
    19
 74
     0
 42
0.0000000001
 43
0.0000000001
 40
0.0
 40
0.0
 40
0.0
 40
0.0
 40
0.0615449660163181
 40
0.12169429640203
 40
0.1811548554526305
 40
0.239875388911958
 40
0.2987019424504205
 40
0.357647423709194
 40
0.4176048428493601
 40
0.478494040728294
 40
0.5404070506371261
 40
0.6023449938728001
 40
0.6650043279232261
 40
0.7285593088233781
 40
0.793650542026888
 40
0.8605342675902599
 40
0.9292359605619619
 40
1.0
 40
1.0
 40
1.0
 40
1.0
 10
1.907754840462605
 20
12.56159571736455
 30
0.0
 10
1.906670159945441
 20
12.56159578950293
 30
0.0
 10
1.904525395866408
 20
12.56159593214382
 30
0.0
 10
1.901471633654784
 20
12.5615962012189
 30
0.0
 10
1.898596847146748
 20
12.56159650608943
 30
0.0
 10
1.895885620051935
 20
12.56159684715729
 30
0.0
 10
1.893399883630422
 20
12.5615972340797
 30
0.0
 10
1.891042529253577
 20
12.56159765042059
 30
0.0
 10
1.888909992008852
 20
12.56159811132
 30
0.0
 10
1.88695709122233
 20
12.5615986072194
 30
0.0
 10
1.885196314629833
 20
12.561599132277
 30
0.0
 10
1.883665801472882
 20
12.56159968549233
 30
0.0
 10
1.882394712365663
 20
12.56160026405591
 30
0.0
 10
1.881339536653259
 20
12.56160086635881
 30
0.0
 10
1.880507935112004
 20
12.5616014937254
 30
0.0
 10
1.879940561941457
 20
12.56160214688618
 30
0.0
 10
1.879566338998508
 20
12.56160282325979
 30
0.0
 10
1.879528730481153
 20
12.56160328222433
 30
0.0
 10
1.879509648154911
 20
12.56160351510006
 30
0.0
  0
SPLINE
  5
19F
330
1F
100
AcDbEntity
  8
0
  6
Continuous
 62
     7
370
     5
100
AcDbSpline
210
0.0
220
0.0
230
1.0
 70
     8
 71
     3
 72
    15
 73
    11
 74
     0
 42
0.0000000001
 43
0.0000000001
 40
0.0
 40
0.0
 40
0.0
 40
0.0
 40
0.164289216474761
 40
0.31740591123049
 40
0.4588436116410171
 40
0.5893665423053051
 40
0.707831318778168
 40
0.815770030699001
 40
0.912879902902117
 40
1.0
 40
1.0
 40
1.0
 40
1.0
 10
1.93750243661645
 20
12.56159512737195
 30
0.0
 10
1.935855945860923
 20
12.56159512944096
 30
0.0
 10
1.93267493428996
 20
12.56159513343828
 30
0.0
 10
1.928078172304759
 20
12.56159515878322
 30
0.0
 10
1.923825035810027
 20
12.56159520361854
 30
0.0
 10
1.9199295127989
 20
12.56159526892592
 30
0.0
 10
1.916380908906378
 20
12.56159534911617
 30
0.0
 10
1.91318916047475
 20
12.56159544963032
 30
0.0
 10
1.910337763789897
 20
12.56159556831973
 30
0.0
 10
1.908584118059829
 20
12.56159566951198
 30
0.0
 10
1.907754840462605
 20
12.56159571736455
 30
0.0
  0
LINE
  5
1A0
330
1F
100
AcDbEntity
  8
0
  6
Continuous
 62
     7
370
     5
100
AcDbLine
 10
1.95643272897815
 20
12.5616114906517
 30
0.0
 11
1.95643272897815
 21
12.56159512834072
 31
0.0
  0
LINE
  5
1A1
330
1F
100
AcDbEntity
  8
0
  6
Continuous
 62
     7
370
     5
100
AcDbLine
 10
1.927379992931169
 20
12.5616114906517
 30
0.0
 11
1.930509548444943
 21
12.5616114906517
 31
0.0
  0
LINE
  5
1A2
330
1F
100
AcDbEntity
  8
0
  6
Continuous
 62
     7
370
     5
100
AcDbLine
 10
2.11148080076626
 20
12.5616114906517
 30
0.0
 11
2.127624938434471
 21
12.5616114906517
 31
0.0
  0
LINE
  5
1A3
330
1F
100
AcDbEntity
  8
0
  6
Continuous
 62
     7
370
     5
100
AcDbLine
 10
2.11148080076626
 20
12.56160981087944
 30
0.0
 11
2.11148080076626
 21
12.5616114906517
 31
0.0
  0
LINE
  5
1A4
330
1F
100
AcDbEntity
  8
0
  6
Continuous
 62
     7
370
     5
100
AcDbLine
 10
2.127624846768863
 20
12.56160981087944
 30
0.0
 11
2.11148080076626
 21
12.56160981087944
 31
0.0
  0
LINE
  5
1A5
330
1F
100
AcDbEntity
  8
0
  6
Continuous
 62
     7
370
     5
100
AcDbLine
 10
2.155951953281712
 20
12.56160351803547
 30
0.0
 11
2.155951953281712
 21
12.56160981087944
 31
0.0
  0
LINE
  5
1A6
330
1F
100
AcDbEntity
  8
0
  6
Continuous
 62
     7
370
     5
100
AcDbLine
 10
2.11148080076626
 20
12.56160351803547
 30
0.0
 11
2.127624521355956
 21
12.56160351803547
 31
0.0
  0
LINE
  5
1A7
330
1F
100
AcDbEntity
  8
0
  6
Continuous
 62
     7
370
     5
100
AcDbLine
 10
2.11148080076626
 20
12.56160184055485
 30
0.0
 11
2.11148080076626
 21
12.56160351803547
 31
0.0
  0
LINE
  5
1A8
330
1F
100
AcDbEntity
  8
0
  6
Continuous
 62
     7
370
     5
100
AcDbLine
 10
2.127624434273629
 20
12.56160184055485
 30
0.0
 11
2.11148080076626
 21
12.56160184055485
 31
0.0
  0
LINE
  5
1A9
330
1F
100
AcDbEntity
  8
0
  6
Continuous
 62
     7
370
     5
100
AcDbLine
 10
2.155951953281712
 20
12.56159680582134
 30
0.0
 11
2.155951953281712
 21
12.56160184055485
 31
0.0
  0
LINE
  5
1AA
330
1F
100
AcDbEntity
  8
0
  6
Continuous
 62
     7
370
     5
100
AcDbLine
 10
2.11148080076626
 20
12.56159680582134
 30
0.0
 11
2.127624182193207
 21
12.56159680582134
 31
0.0
  0
LINE
  5
1AB
330
1F
100
AcDbEntity
  8
0
  6
Continuous
 62
     7
370
     5
100
AcDbLine
 10
2.11148080076626
 20
12.56159512834072
 30
0.0
 11
2.11148080076626
 21
12.56159680582134
 31
0.0
  0
LINE
  5
1AC
330
1F
100
AcDbEntity
  8
0
  6
Continuous
 62
     7
370
     5
100
AcDbLine
 10
2.12762409969416
 20
12.56159512834072
 30
0.0
 11
2.11148080076626
 21
12.56159512834072
 31
0.0
  0
LINE
  5
1AD
330
1F
100
AcDbEntity
  8
0
  6
Continuous
 62
     7
370
     5
100
AcDbLine
 10
2.164365416921995
 20
12.5616114906517
 30
0.0
 11
2.164365416921995
 21
12.56159512834072
 31
0.0
  0
LINE
  5
1AE
330
1F
100
AcDbEntity
  8
0
  6
Continuous
 62
     7
370
     5
100
AcDbLine
 10
2.235278875223674
 20
12.5616114906517
 30
0.0
 11
2.243692348030517
 21
12.5616114906517
 31
0.0
  0
LINE
  5
1AF
330
1F
100
AcDbEntity
  8
0
  6
Continuous
 62
     7
370
     5
100
AcDbLine
 10
2.235278875223674
 20
12.56160393740562
 30
0.0
 11
2.235278875223674
 21
12.5616114906517
 31
0.0
  0
LINE
  5
1B0
330
1F
100
AcDbEntity
  8
0
  6
Continuous
 62
     7
370
     5
100
AcDbLine
 10
2.228442949192874
 20
12.56160393740562
 30
0.0
 11
2.235278875223674
 21
12.56160393740562
 31
0.0
  0
LINE
  5
1B1
330
1F
100
AcDbEntity
  8
0
  6
Continuous
 62
     7
370
     5
100
AcDbLine
 10
2.194000330410279
 20
12.5616114906517
 30
0.0
 11
2.228442949192874
 21
12.56160393740562
 31
0.0
  0
LINE
  5
1B2
330
1F
100
AcDbEntity
  8
0
  6
Continuous
 62
     7
370
     5
100
AcDbLine
 10
2.218038792715911
 20
12.56160393740562
 30
0.0
 11
2.183596183099876
 21
12.5616114906517
 31
0.0
  0
SPLINE
  5
1B3
330
1F
100
AcDbEntity
  8
0
  6
Continuous
 62
     7
370
     5
100
AcDbSpline
210
0.0
220
0.0
230
1.0
 70
     8
 71
     3
 72
    23
 73
    19
 74
     0
 42
0.0000000001
 43
0.0000000001
 40
0.0
 40
0.0
 40
0.0
 40
0.0
 40
0.0787802355821499
 40
0.1537206442085845
 40
0.226713530308788
 40
0.2991911660659455
 40
0.371189996837679
 40
0.4430064143534216
 40
0.516689173294893
 40
0.593217216623414
 40
0.6338729178078501
 40
0.6769891422899801
 40
0.722899506325831
 40
0.771958610506146
 40
0.824211323334838
 40
0.879378650627204
 40
0.937948119330419
 40
1.0
 40
1.0
 40
1.0
 40
1.0
 10
2.184798109693373
 20
12.56159950315039
 30
0.0
 10
2.184837457856994
 20
12.56159972116899
 30
0.0
 10
2.184914236315645
 20
12.56160014657974
 30
0.0
 10
2.185630087307074
 20
12.56160076396291
 30
0.0
 10
2.186802672656951
 20
12.5616013398716
 30
0.0
 10
2.188418475041129
 20
12.56160187358067
 30
0.0
 10
2.190476139569169
 20
12.5616023546868
 30
0.0
 10
2.192949125045152
 20
12.56160277726119
 30
0.0
 10
2.195838811067197
 20
12.56160313087694
 30
0.0
 10
2.198528882029854
 20
12.56160337609323
 30
0.0
 10
2.200905155236013
 20
12.5616035331397
 30
0.0
 10
2.202861404685693
 20
12.56160364363942
 30
0.0
 10
2.204995341582902
 20
12.56160372901391
 30
0.0
 10
2.207286520188417
 20
12.56160380549734
 30
0.0
 10
2.209744475246241
 20
12.56160386324138
 30
0.0
 10
2.212363315587023
 20
12.56160390553411
 30
0.0
 10
2.215144908934258
 20
12.56160393196672
 30
0.0
 10
2.21705577686336
 20
12.56160393590308
 30
0.0
 10
2.218038794789527
 20
12.56160393792809
 30
0.0
  0
SPLINE
  5
1B4
330
1F
100
AcDbEntity
  8
0
  6
Continuous
 62
     7
370
     5
100
AcDbSpline
210
0.0
220
0.0
230
1.0
 70
     8
 71
     3
 72
    23
 73
    19
 74
     0
 42
0.0000000001
 43
0.0000000001
 40
0.0
 40
0.0
 40
0.0
 40
0.0
 40
0.0642168426314389
 40
0.1270637656931314
 40
0.1887445383478355
 40
0.249132102835047
 40
0.309452532710643
 40
0.3698266762476825
 40
0.4306501418384716
 40
0.4923519318794871
 40
0.554072106262535
 40
0.615689783744997
 40
0.6767977025065571
 40
0.7384390482469381
 40
0.8013169100649129
 40
0.865184511711544
 40
0.9316413244190979
 40
1.0
 40
1.0
 40
1.0
 40
1.0
 10
2.203690838058758
 20
12.56159535025804
 30
0.0
 10
2.203004946340807
 20
12.5615953798356
 30
0.0
 10
2.2016477948371
 20
12.56159543835975
 30
0.0
 10
2.199693775211031
 20
12.56159556205809
 30
0.0
 10
2.197831784390895
 20
12.5615957052045
 30
0.0
 10
2.196069556953706
 20
12.56159587333449
 30
0.0
 10
2.194415919689678
 20
12.56159606769613
 30
0.0
 10
2.192853822079106
 20
12.56159628493409
 30
0.0
 10
2.191376175738571
 20
12.56159652385971
 30
0.0
 10
2.190042739215883
 20
12.56159679049697
 30
0.0
 10
2.18878544318835
 20
12.56159707023199
 30
0.0
 10
2.187725033549942
 20
12.56159737272134
 30
0.0
 10
2.186810931414518
 20
12.56159768903823
 30
0.0
 10
2.186083149709157
 20
12.56159802239963
 30
0.0
 10
2.185497132562555
 20
12.56159836957259
 30
0.0
 10
2.185083929722261
 20
12.56159873370186
 30
0.0
 10
2.184836130053579
 20
12.56159911312852
 30
0.0
 10
2.184810901779824
 20
12.56159937192613
 30
0.0
 10
2.184798109693373
 20
12.56159950315039
 30
0.0
  0
SPLINE
  5
1B5
330
1F
100
AcDbEntity
  8
0
  6
Continuous
 62
     7
370
     5
100
AcDbSpline
210
0.0
220
0.0
230
1.0
 70
     8
 71
     3
 72
    15
 73
    11
 74
     0
 42
0.0000000001
 43
0.0000000001
 40
0.0
 40
0.0
 40
0.0
 40
0.0
 40
0.1762577548178015
 40
0.338434413880476
 40
0.4848220507878381
 40
0.6171575782663331
 40
0.734698360612481
 40
0.8373851838323639
 40
0.9263724209295839
 40
1.0
 40
1.0
 40
1.0
 40
1.0
 10
2.224931072433758
 20
12.56159512737195
 30
0.0
 10
2.223679077920001
 20
12.56159512809931
 30
0.0
 10
2.221275109766187
 20
12.56159512949593
 30
0.0
 10
2.217831182881554
 20
12.56159513728335
 30
0.0
 10
2.214701885640478
 20
12.56159515960341
 30
0.0
 10
2.211888854230197
 20
12.561595178811
 30
0.0
 10
2.209392140257617
 20
12.56159521383574
 30
0.0
 10
2.207204087826868
 20
12.56159524731168
 30
0.0
 10
2.205334774500943
 20
12.56159529113344
 30
0.0
 10
2.204203189198196
 20
12.5615953318312
 30
0.0
 10
2.203690838058758
 20
12.56159535025804
 30
0.0
  0
LINE
  5
1B6
330
1F
100
AcDbEntity
  8
0
  6
Continuous
 62
     7
370
     5
100
AcDbLine
 10
2.243692348030517
 20
12.56159512834072
 30
0.0
 11
2.224931074762347
 21
12.56159512834072
 31
0.0
  0
LINE
  5
1B7
330
1F
100
AcDbEntity
  8
0
  6
Continuous
 62
     7
370
     5
100
AcDbLine
 10
2.243692348030517
 20
12.5616114906517
 30
0.0
 11
2.243692348030517
 21
12.56159512834072
 31
0.0
  0
LINE
  5
1B8
330
1F
100
AcDbEntity
  8
0
  6
Continuous
 62
     7
370
     5
100
AcDbLine
 10
1.887322149849457
 20
12.56157734750446
 30
0.0
 11
1.940206761421912
 21
12.56157734750446
 31
0.0
  0
LINE
  5
1B9
330
1F
100
AcDbEntity
  8
0
  6
Continuous
 62
     7
370
     5
100
AcDbLine
 10
1.887322149849457
 20
12.56157567002384
 30
0.0
 11
1.887322149849457
 21
12.56157734750446
 31
0.0
  0
LINE
  5
1BA
330
1F
100
AcDbEntity
  8
0
  6
Continuous
 62
     7
370
     5
100
AcDbLine
 10
1.931793297781628
 20
12.56157567002384
 30
0.0
 11
1.887322149849457
 21
12.56157567002384
 31
0.0
  0
LINE
  5
1BB
330
1F
100
AcDbEntity
  8
0
  6
Continuous
 62
     7
370
     5
100
AcDbLine
 10
1.931793297781628
 20
12.56156937717987
 30
0.0
 11
1.931793297781628
 21
12.56157567002384
 31
0.0
  0
LINE
  5
1BC
330
1F
100
AcDbEntity
  8
0
  6
Continuous
 62
     7
370
     5
100
AcDbLine
 10
1.887322149849457
 20
12.56156937717987
 30
0.0
 11
1.931793297781628
 21
12.56156937717987
 31
0.0
  0
LINE
  5
1BD
330
1F
100
AcDbEntity
  8
0
  6
Continuous
 62
     7
370
     5
100
AcDbLine
 10
1.887322149849457
 20
12.56156769740761
 30
0.0
 11
1.887322149849457
 21
12.56156937717987
 31
0.0
  0
LINE
  5
1BE
330
1F
100
AcDbEntity
  8
0
  6
Continuous
 62
     7
370
     5
100
AcDbLine
 10
1.931793297781628
 20
12.56156769740761
 30
0.0
 11
1.887322149849457
 21
12.56156769740761
 31
0.0
  0
LINE
  5
1BF
330
1F
100
AcDbEntity
  8
0
  6
Continuous
 62
     7
370
     5
100
AcDbLine
 10
1.931793297781628
 20
12.5615626626741
 30
0.0
 11
1.931793297781628
 21
12.56156769740761
 31
0.0
  0
LINE
  5
1C0
330
1F
100
AcDbEntity
  8
0
  6
Continuous
 62
     7
370
     5
100
AcDbLine
 10
1.887322149849457
 20
12.5615626626741
 30
0.0
 11
1.931793297781628
 21
12.5615626626741
 31
0.0
  0
LINE
  5
1C1
330
1F
100
AcDbEntity
  8
0
  6
Continuous
 62
     7
370
     5
100
AcDbLine
 10
1.887322149849457
 20
12.56156098519348
 30
0.0
 11
1.887322149849457
 21
12.5615626626741
 31
0.0
  0
LINE
  5
1C2
330
1F
100
AcDbEntity
  8
0
  6
Continuous
 62
     7
370
     5
100
AcDbLine
 10
1.940206761421912
 20
12.56156098519348
 30
0.0
 11
1.887322149849457
 21
12.56156098519348
 31
0.0
  0
LINE
  5
1C3
330
1F
100
AcDbEntity
  8
0
  6
Continuous
 62
     7
370
     5
100
AcDbLine
 10
1.940206761421912
 20
12.56157734750446
 30
0.0
 11
1.940206761421912
 21
12.56156098519348
 31
0.0
  0
LINE
  5
1C4
330
1F
100
AcDbEntity
  8
0
  6
Continuous
 62
     7
370
     5
100
AcDbLine
 10
2.020735611979092
 20
12.56157734750446
 30
0.0
 11
2.029149071036095
 21
12.56157734750446
 31
0.0
  0
LINE
  5
1C5
330
1F
100
AcDbEntity
  8
0
  6
Continuous
 62
     7
370
     5
100
AcDbLine
 10
2.020735611979092
 20
12.56156937717987
 30
0.0
 11
2.020735611979092
 21
12.56157734750446
 31
0.0
  0
LINE
  5
1C6
330
1F
100
AcDbEntity
  8
0
  6
Continuous
 62
     7
370
     5
100
AcDbLine
 10
1.972658687367827
 20
12.56156937717987
 30
0.0
 11
2.020735611979092
 21
12.56156937717987
 31
0.0
  0
LINE
  5
1C7
330
1F
100
AcDbEntity
  8
0
  6
Continuous
 62
     7
370
     5
100
AcDbLine
 10
1.972658687367827
 20
12.56157734750446
 30
0.0
 11
1.972658687367827
 21
12.56156937717987
 31
0.0
  0
LINE
  5
1C8
330
1F
100
AcDbEntity
  8
0
  6
Continuous
 62
     7
370
     5
100
AcDbLine
 10
1.964245223727544
 20
12.56157734750446
 30
0.0
 11
1.972658687367827
 21
12.56157734750446
 31
0.0
  0
LINE
  5
1C9
330
1F
100
AcDbEntity
  8
0
  6
Continuous
 62
     7
370
     5
100
AcDbLine
 10
1.964245223727544
 20
12.56156098519348
 30
0.0
 11
1.964245223727544
 21
12.56157734750446
 31
0.0
  0
LINE
  5
1CA
330
1F
100
AcDbEntity
  8
0
  6
Continuous
 62
     7
370
     5
100
AcDbLine
 10
1.972658687367827
 20
12.56156098519348
 30
0.0
 11
1.964245223727544
 21
12.56156098519348
 31
0.0
  0
LINE
  5
1CB
330
1F
100
AcDbEntity
  8
0
  6
Continuous
 62
     7
370
     5
100
AcDbLine
 10
1.972658687367827
 20
12.56156769740761
 30
0.0
 11
1.972658687367827
 21
12.56156098519348
 31
0.0
  0
LINE
  5
1CC
330
1F
100
AcDbEntity
  8
0
  6
Continuous
 62
     7
370
     5
100
AcDbLine
 10
2.020735611979092
 20
12.56156769740761
 30
0.0
 11
1.972658687367827
 21
12.56156769740761
 31
0.0
  0
LINE
  5
1CD
330
1F
100
AcDbEntity
  8
0
  6
Continuous
 62
     7
370
     5
100
AcDbLine
 10
2.020735611979092
 20
12.56156098519348
 30
0.0
 11
2.020735611979092
 21
12.56156769740761
 31
0.0
  0
LINE
  5
1CE
330
1F
100
AcDbEntity
  8
0
  6
Continuous
 62
     7
370
     5
100
AcDbLine
 10
2.029149071036095
 20
12.56156098519348
 30
0.0
 11
2.020735611979092
 21
12.56156098519348
 31
0.0
  0
LINE
  5
1CF
330
1F
100
AcDbEntity
  8
0
  6
Continuous
 62
     7
370
     5
100
AcDbLine
 10
2.029149071036095
 20
12.56157734750446
 30
0.0
 11
2.029149071036095
 21
12.56156098519348
 31
0.0
  0
SPLINE
  5
1D0
330
1F
100
AcDbEntity
  8
0
  6
Continuous
 62
     7
370
     5
100
AcDbSpline
210
0.0
220
0.0
230
1.0
 70
     8
 71
     3
 72
    19
 73
    15
 74
     0
 42
0.0000000001
 43
0.0000000001
 40
0.0
 40
0.0
 40
0.0
 40
0.0
 40
0.0969723103815096
 40
0.187773438962868
 40
0.27239613901369
 40
0.3513209973752906
 40
0.424334774451469
 40
0.491908784000528
 40
0.554233219796799
 40
0.6112676582441501
 40
0.7163478449915479
 40
0.8145400858216088
 40
0.9084954561491819
 40
1.0
 40
1.0
 40
1.0
 40
1.0
 10
2.070465177001065
 20
12.56156805858379
 30
0.0
 10
2.069447697180331
 20
12.56156818780683
 30
0.0
 10
2.067477488527336
 20
12.56156843802936
 30
0.0
 10
2.064674160493992
 20
12.56156881397178
 30
0.0
 10
2.06213236206288
 20
12.56156918164923
 30
0.0
 10
2.059843169110108
 20
12.5615695387137
 30
0.0
 10
2.05778396620547
 20
12.56156988245673
 30
0.0
 10
2.055977598687396
 20
12.56157021701381
 30
0.0
 10
2.054405660820953
 20
12.5615705399881
 30
0.0
 10
2.052713360326485
 20
12.56157095406391
 30
0.0
 10
2.050984133017901
 20
12.56157146261428
 30
0.0
 10
2.049499092640415
 20
12.56157208568858
 30
0.0
 10
2.048562708333597
 20
12.5615727111849
 30
0.0
 10
2.048440257027384
 20
12.56157313159187
 30
0.0
 10
2.048379840462604
 20
12.56157333901754
 30
0.0
  0
SPLINE
  5
1D1
330
1F
100
AcDbEntity
  8
0
  6
Continuous
 62
     7
370
     5
100
AcDbSpline
210
0.0
220
0.0
230
1.0
 70
     8
 71
     3
 72
    15
 73
    11
 74
     0
 42
0.0000000001
 43
0.0000000001
 40
0.0
 40
0.0
 40
0.0
 40
0.0
 40
0.0525942815291318
 40
0.1249519739750374
 40
0.218093898928582
 40
0.3335024107325195
 40
0.468789178504446
 40
0.6249375859645819
 40
0.801683047928212
 40
1.0
 40
1.0
 40
1.0
 40
1.0
 10
2.083066589260681
 20
12.56156642954866
 30
0.0
 10
2.082861373928332
 20
12.56156646151169
 30
0.0
 10
2.082373829272879
 20
12.5615665374485
 30
0.0
 10
2.081482509833424
 20
12.56156666176712
 30
0.0
 10
2.080305470595122
 20
12.56156681511972
 30
0.0
 10
2.078873447349313
 20
12.56156700486498
 30
0.0
 10
2.077160035874482
 20
12.5615672249703
 30
0.0
 10
2.075165047763465
 20
12.56156747262135
 30
0.0
 10
2.072910720991101
 20
12.5615677558577
 30
0.0
 10
2.071311026815219
 20
12.56156795387873
 30
0.0
 10
2.070465177001065
 20
12.56156805858379
 30
0.0
  0
SPLINE
  5
1D2
330
1F
100
AcDbEntity
  8
0
  6
Continuous
 62
     7
370
     5
100
AcDbSpline
210
0.0
220
0.0
230
1.0
 70
     8
 71
     3
 72
    15
 73
    11
 74
     0
 42
0.0000000001
 43
0.0000000001
 40
0.0
 40
0.0
 40
0.0
 40
0.0
 40
0.107285214268982
 40
0.214745860969639
 40
0.322938559555283
 40
0.4341161625174826
 40
0.5534123109628081
 40
0.6860729848107122
 40
0.8342559920595689
 40
1.0
 40
1.0
 40
1.0
 40
1.0
 10
2.089245225077989
 20
12.56156431540852
 30
0.0
 10
2.089234694900268
 20
12.56156440307148
 30
0.0
 10
2.089213617325914
 20
12.56156457854073
 30
0.0
 10
2.088919649530743
 20
12.56156483777552
 30
0.0
 10
2.088541988933658
 20
12.56156509635542
 30
0.0
 10
2.08794352558312
 20
12.56156535311789
 30
0.0
 10
2.087117312093412
 20
12.5615656125534
 30
0.0
 10
2.086032352024491
 20
12.5615658791294
 30
0.0
 10
2.084665924023152
 20
12.56156615519549
 30
0.0
 10
2.083619218335168
 20
12.56156633474953
 30
0.0
 10
2.083066589260681
 20
12.56156642954866
 30
0.0
  0
SPLINE
  5
1D3
330
1F
100
AcDbEntity
  8
0
  6
Continuous
 62
     7
370
     5
100
AcDbSpline
210
0.0
220
0.0
230
1.0
 70
     8
 71
     3
 72
    15
 73
    11
 74
     0
 42
0.0000000001
 43
0.0000000001
 40
0.0
 40
0.0
 40
0.0
 40
0.0
 40
0.1430730837303646
 40
0.275902964093012
 40
0.402370856274002
 40
0.528413645093597
 40
0.650356379186968
 40
0.7658950861247061
 40
0.8807741308440309
 40
1.0
 40
1.0
 40
1.0
 40
1.0
 10
2.075498229885681
 20
12.56156224387895
 30
0.0
 10
2.076466708164399
 20
12.56156224954363
 30
0.0
 10
2.078334327291569
 20
12.56156226046744
 30
0.0
 10
2.080985851473021
 20
12.56156237977309
 30
0.0
 10
2.083372295894358
 20
12.56156256762285
 30
0.0
 10
2.085422811029792
 20
12.56156283089475
 30
0.0
 10
2.087130051486302
 20
12.56156314281465
 30
0.0
 10
2.088365019131791
 20
12.56156350175495
 30
0.0
 10
2.089108327110864
 20
12.56156389811175
 30
0.0
 10
2.089199031030088
 20
12.56156417459834
 30
0.0
 10
2.089245225077989
 20
12.56156431540852
 30
0.0
  0
SPLINE
  5
1D4
330
1F
100
AcDbEntity
  8
0
  6
Continuous
 62
     7
370
     5
100
AcDbSpline
210
0.0
220
0.0
230
1.0
 70
     8
 71
     3
 72
    19
 73
    15
 74
     0
 42
0.0000000001
 43
0.0000000001
 40
0.0
 40
0.0
 40
0.0
 40
0.0
 40
0.0984694310255573
 40
0.189629101137625
 40
0.274184089437957
 40
0.3521831609671465
 40
0.4231988731834675
 40
0.488550946000536
 40
0.548473346027932
 40
0.601440163617867
 40
0.701198082425766
 40
0.7995918021381811
 40
0.898545098482227
 40
1.0
 40
1.0
 40
1.0
 40
1.0
 10
2.057187683010681
 20
12.56156434163041
 30
0.0
 10
2.057646949059046
 20
12.56156423836603
 30
0.0
 10
2.058531388087764
 20
12.56156403950297
 30
0.0
 10
2.059874142200099
 20
12.56156376100772
 30
0.0
 10
2.061139730983678
 20
12.56156350661128
 30
0.0
 10
2.062386616692184
 20
12.56156328564733
 30
0.0
 10
2.06354894610645
 20
12.56156308601533
 30
0.0
 10
2.064677081166636
 20
12.56156291509887
 30
0.0
 10
2.065754787003352
 20
12.5615627712233
 30
0.0
 10
2.067113275681371
 20
12.56156261768002
 30
0.0
 10
2.068820000279314
 20
12.56156246547872
 30
0.0
 10
2.070962443214296
 20
12.56156233668709
 30
0.0
 10
2.073201361295589
 20
12.56156225929236
 30
0.0
 10
2.07472626213909
 20
12.56156224905933
 30
0.0
 10
2.075498229885681
 20
12.56156224387895
 30
0.0
  0
LINE
  5
1D5
330
1F
100
AcDbEntity
  8
0
  6
Continuous
 62
     7
370
     5
100
AcDbLine
 10
2.049581763537554
 20
12.56156333641632
 30
0.0
 11
2.05718768296499
 21
12.56156434244636
 31
0.0
  0
SPLINE
  5
1D6
330
1F
100
AcDbEntity
  8
0
  6
Continuous
 62
     7
370
     5
100
AcDbSpline
210
0.0
220
0.0
230
1.0
 70
     8
 71
     3
 72
    19
 73
    15
 74
     0
 42
0.0000000001
 43
0.0000000001
 40
0.0
 40
0.0
 40
0.0
 40
0.0
 40
0.1072327993600882
 40
0.213251812781847
 40
0.3188304473075855
 40
0.426793530634268
 40
0.483645950782716
 40
0.5436038220211391
 40
0.6083076495640761
 40
0.6771267602600331
 40
0.7506856360204841
 40
0.8287134184432758
 40
0.912190348223452
 40
1.0
 40
1.0
 40
1.0
 40
1.0
 10
2.074559227481834
 20
12.56156056567778
 30
0.0
 10
2.073454474795281
 20
12.56156057232819
 30
0.0
 10
2.071257474302063
 20
12.56156058555374
 30
0.0
 10
2.068025798885022
 20
12.56156070054693
 30
0.0
 10
2.064914351124291
 20
12.56156089082212
 30
0.0
 10
2.062411406530912
 20
12.56156110675359
 30
0.0
 10
2.060452493277471
 20
12.56156132241745
 30
0.0
 10
2.058958580794731
 20
12.56156151885966
 30
0.0
 10
2.057444720505805
 20
12.56156174501276
 30
0.0
 10
2.055898701180035
 20
12.56156200147913
 30
0.0
 10
2.054346719230772
 20
12.56156229061201
 30
0.0
 10
2.052765733902803
 20
12.56156261043123
 30
0.0
 10
2.051152048131088
 20
12.56156295898231
 30
0.0
 10
2.050113944734912
 20
12.56156320780626
 30
0.0
 10
2.049581763539527
 20
12.56156333536526
 30
0.0
  0
SPLINE
  5
1D7
330
1F
100
AcDbEntity
  8
0
  6
Continuous
 62
     7
370
     5
100
AcDbSpline
210
0.0
220
0.0
230
1.0
 70
     8
 71
     3
 72
    19
 73
    15
 74
     0
 42
0.0000000001
 43
0.0000000001
 40
0.0
 40
0.0
 40
0.0
 40
0.0
 40
0.0837853706537208
 40
0.1657798879221445
 40
0.2462800078932725
 40
0.3274609277363985
 40
0.4087969540320735
 40
0.4897152412309941
 40
0.571376032130058
 40
0.655523321111283
 40
0.741019482799978
 40
0.826546760503761
 40
0.9119888516548339
 40
1.0
 40
1.0
 40
1.0
 40
1.0
 10
2.09765868661645
 20
12.56156438424099
 30
0.0
 10
2.097623725661271
 20
12.5615642111272
 30
0.0
 10
2.097554551016747
 20
12.56156386859981
 30
0.0
 10
2.096969537161288
 20
12.56156336823186
 30
0.0
 10
2.096046156081258
 20
12.56156289051149
 30
0.0
 10
2.094752543013537
 20
12.56156244016824
 30
0.0
 10
2.093084935346084
 20
12.56156202892825
 30
0.0
 10
2.091155132461302
 20
12.56156165206109
 30
0.0
 10
2.088856610508512
 20
12.56156133524371
 30
0.0
 10
2.086334665242528
 20
12.56156105842799
 30
0.0
 10
2.0835742267046
 20
12.5615608417613
 30
0.0
 10
2.080681613220734
 20
12.5615606783191
 30
0.0
 10
2.077652227362916
 20
12.56156058571104
 30
0.0
 10
2.075600357685503
 20
12.56156057242115
 30
0.0
 10
2.074559227481834
 20
12.56156056567778
 30
0.0
  0
SPLINE
  5
1D8
330
1F
100
AcDbEntity
  8
0
  6
Continuous
 62
     7
370
     5
100
AcDbSpline
210
0.0
220
0.0
230
1.0
 70
     8
 71
     3
 72
    15
 73
    11
 74
     0
 42
0.0000000001
 43
0.0000000001
 40
0.0
 40
0.0
 40
0.0
 40
0.0
 40
0.1335067689985226
 40
0.2625589787303605
 40
0.388264447148877
 40
0.512667354681439
 40
0.633722269965783
 40
0.7553938601371
 40
0.877552945091292
 40
1.0
 40
1.0
 40
1.0
 40
1.0
 10
2.092419053202989
 20
12.56156687532085
 30
0.0
 10
2.092833496378823
 20
12.56156677901123
 30
0.0
 10
2.093648554505127
 20
12.56156658960544
 30
0.0
 10
2.094724429651513
 20
12.56156629356242
 30
0.0
 10
2.095638871512184
 20
12.56156599051437
 30
0.0
 10
2.096355719694405
 20
12.56156567964694
 30
0.0
 10
2.096959368413322
 20
12.56156536532439
 30
0.0
 10
2.097365384414691
 20
12.56156504344557
 30
0.0
 10
2.09761961826065
 20
12.56156471545481
 30
0.0
 10
2.097645653614215
 20
12.56156449473221
 30
0.0
 10
2.09765868661645
 20
12.56156438424099
 30
0.0
  0
SPLINE
  5
1D9
330
1F
100
AcDbEntity
  8
0
  6
Continuous
 62
     7
370
     5
100
AcDbSpline
210
0.0
220
0.0
230
1.0
 70
     8
 71
     3
 72
    15
 73
    11
 74
     0
 42
0.0000000001
 43
0.0000000001
 40
0.0
 40
0.0
 40
0.0
 40
0.0
 40
0.181535301376271
 40
0.347081672481623
 40
0.4955678164315511
 40
0.628357301877213
 40
0.7455196699921581
 40
0.845830750757651
 40
0.9307818073847609
 40
1.0
 40
1.0
 40
1.0
 40
1.0
 10
2.077056973876065
 20
12.56156910090404
 30
0.0
 10
2.078043330916576
 20
12.56156897828568
 30
0.0
 10
2.079929170467831
 20
12.56156874384872
 30
0.0
 10
2.082566453923537
 20
12.56156839591601
 30
0.0
 10
2.08492478775416
 20
12.56156807781168
 30
0.0
 10
2.086993689982463
 20
12.56156778654111
 30
0.0
 10
2.088772250612268
 20
12.5615675220648
 30
0.0
 10
2.090274484835861
 20
12.56156728692249
 30
0.0
 10
2.091462124758064
 20
12.56156707475484
 30
0.0
 10
2.092122542097131
 20
12.5615669371169
 30
0.0
 10
2.092419053202989
 20
12.56156687532085
 30
0.0
  0
SPLINE
  5
1DA
330
1F
100
AcDbEntity
  8
0
  6
Continuous
 62
     7
370
     5
100
AcDbSpline
210
0.0
220
0.0
230
1.0
 70
     8
 71
     3
 72
    15
 73
    11
 74
     0
 42
0.0000000001
 43
0.0000000001
 40
0.0
 40
0.0
 40
0.0
 40
0.0
 40
0.0902792146500252
 40
0.1895299184469685
 40
0.299197872400289
 40
0.4189258867738261
 40
0.5483762854012451
 40
0.688136369538682
 40
0.839083501658917
 40
1.0
 40
1.0
 40
1.0
 40
1.0
 10
2.060154930606835
 20
12.56157170998242
 30
0.0
 10
2.060574679200958
 20
12.56157161626374
 30
0.0
 10
2.061455888869438
 20
12.5615714195131
 30
0.0
 10
2.062970822242465
 20
12.56157112664731
 30
0.0
 10
2.064748486018503
 20
12.56157082455692
 30
0.0
 10
2.066728045525065
 20
12.56157050170659
 30
0.0
 10
2.068981610404724
 20
12.56157017311191
 30
0.0
 10
2.071438597397666
 20
12.56156982310354
 30
0.0
 10
2.074161736477116
 20
12.56156946499201
 30
0.0
 10
2.07607154442224
 20
12.56156922482584
 30
0.0
 10
2.077056973876065
 20
12.56156910090404
 30
0.0
  0
SPLINE
  5
1DB
330
1F
100
AcDbEntity
  8
0
  6
Continuous
 62
     7
370
     5
100
AcDbSpline
210
0.0
220
0.0
230
1.0
 70
     8
 71
     3
 72
    11
 73
     7
 74
     0
 42
0.0000000001
 43
0.0000000001
 40
0.0
 40
0.0
 40
0.0
 40
0.0
 40
0.2347233736739175
 40
0.477158318928966
 40
0.7285562842030431
 40
1.0
 40
1.0
 40
1.0
 40
1.0
 10
2.056793302001066
 20
12.56157331607339
 30
0.0
 10
2.056832792466225
 20
12.56157317984024
 30
0.0
 10
2.056913070811217
 20
12.56157290289815
 30
0.0
 10
2.057591592598872
 20
12.56157249430573
 30
0.0
 10
2.058658983139321
 20
12.56157208995392
 30
0.0
 10
2.05964369680999
 20
12.5615718398361
 30
0.0
 10
2.060154930606835
 20
12.56157170998242
 30
0.0
  0
SPLINE
  5
1DC
330
1F
100
AcDbEntity
  8
0
  6
Continuous
 62
     7
370
     5
100
AcDbSpline
210
0.0
220
0.0
230
1.0
 70
     8
 71
     3
 72
    19
 73
    15
 74
     0
 42
0.0000000001
 43
0.0000000001
 40
0.0
 40
0.0
 40
0.0
 40
0.0
 40
0.0912636048966265
 40
0.1809303110850785
 40
0.2700882198317211
 40
0.3601561333877245
 40
0.4483425324981546
 40
0.5326658421383251
 40
0.6138337041070401
 40
0.693981527283559
 40
0.7727159770890081
 40
0.849335172062236
 40
0.923967326575222
 40
1.0
 40
1.0
 40
1.0
 40
1.0
 10
2.075160189020297
 20
12.5615760890386
 30
0.0
 10
2.07433821954231
 20
12.56157608504302
 30
0.0
 10
2.072708663121402
 20
12.56157607712176
 30
0.0
 10
2.070309674470657
 20
12.56157600100919
 30
0.0
 10
2.067979804767102
 20
12.56157588407776
 30
0.0
 10
2.06576707339932
 20
12.5615757166153
 30
0.0
 10
2.063702012295797
 20
12.56157551400836
 30
0.0
 10
2.061891118670708
 20
12.56157526929056
 30
0.0
 10
2.060325597781972
 20
12.56157499530719
 30
0.0
 10
2.059044996498924
 20
12.561574689644
 30
0.0
 10
2.0580624955537
 20
12.56157436091211
 30
0.0
 10
2.057307350864061
 20
12.56157402349033
 30
0.0
 10
2.056888286391122
 20
12.56157367207811
 30
0.0
 10
2.056825159066389
 20
12.56157343547475
 30
0.0
 10
2.056793302001066
 20
12.56157331607339
 30
0.0
  0
SPLINE
  5
1DD
330
1F
100
AcDbEntity
  8
0
  6
Continuous
 62
     7
370
     5
100
AcDbSpline
210
0.0
220
0.0
230
1.0
 70
     8
 71
     3
 72
    15
 73
    11
 74
     0
 42
0.0000000001
 43
0.0000000001
 40
0.0
 40
0.0
 40
0.0
 40
0.0
 40
0.1590042985173855
 40
0.3046460998968195
 40
0.438546904579599
 40
0.562322298775928
 40
0.677432542525729
 40
0.786897392938753
 40
0.893610889104268
 40
1.0
 40
1.0
 40
1.0
 40
1.0
 10
2.095743121712604
 20
12.5615733619617
 30
0.0
 10
2.095006026071965
 20
12.56157357731219
 30
0.0
 10
2.093593779269422
 20
12.56157398991542
 30
0.0
 10
2.091237939292123
 20
12.56157454744545
 30
0.0
 10
2.088796879171608
 20
12.56157502131241
 30
0.0
 10
2.086252522022962
 20
12.56157540875964
 30
0.0
 10
2.083620398412541
 20
12.56157571379746
 30
0.0
 10
2.080883325544594
 20
12.56157592979239
 30
0.0
 10
2.078050527043394
 20
12.56157606450675
 30
0.0
 10
2.076122656825196
 20
12.56157608086962
 30
0.0
 10
2.075160189020297
 20
12.5615760890386
 30
0.0
  0
LINE
  5
1DE
330
1F
100
AcDbEntity
  8
0
  6
Continuous
 62
     7
370
     5
100
AcDbLine
 10
2.103668301433586
 20
12.56157419191591
 30
0.0
 11
2.0957431221526
 21
12.56157336234216
 31
0.0
  0
SPLINE
  5
1DF
330
1F
100
AcDbEntity
  8
0
  6
Continuous
 62
     7
370
     5
100
AcDbSpline
210
0.0
220
0.0
230
1.0
 70
     8
 71
     3
 72
    23
 73
    19
 74
     0
 42
0.0000000001
 43
0.0000000001
 40
0.0
 40
0.0
 40
0.0
 40
0.0
 40
0.057208269433509
 40
0.113696059657491
 40
0.1691779164171955
 40
0.224159216580541
 40
0.2787198783810419
 40
0.333794217446987
 40
0.389241459340001
 40
0.445822073393619
 40
0.50370428110902
 40
0.5642938918193671
 40
0.627975415895228
 40
0.6950382596840471
 40
0.7653727258510071
 40
0.8396114430907289
 40
0.9175377500777919
 40
1.0
 40
1.0
 40
1.0
 40
1.0
 10
2.075160189020297
 20
12.56157776723977
 30
0.0
 10
2.07586827856443
 20
12.56157776485
 30
0.0
 10
2.077275539994461
 20
12.56157776010056
 30
0.0
 10
2.079357043973207
 20
12.56157771811318
 30
0.0
 10
2.081396497255298
 20
12.56157765870761
 30
0.0
 10
2.083368308381212
 20
12.56157756439405
 30
0.0
 10
2.08529788190733
 20
12.56157744996445
 30
0.0
 10
2.087176825689275
 20
12.56157730906808
 30
0.0
 10
2.089006050346129
 20
12.56157714022056
 30
0.0
 10
2.090795807030103
 20
12.56157694716678
 30
0.0
 10
2.092541543849374
 20
12.56157672249735
 30
0.0
 10
2.094226886740325
 20
12.56157646082187
 30
0.0
 10
2.09590713278086
 20
12.56157616935732
 30
0.0
 10
2.097532688039474
 20
12.56157584018872
 30
0.0
 10
2.099136432976237
 20
12.56157547863403
 30
0.0
 10
2.100686747517393
 20
12.56157508131054
 30
0.0
 10
2.102215722098081
 20
12.56157465038242
 30
0.0
 10
2.103175064986313
 20
12.56157434713886
 30
0.0
 10
2.103668302001066
 20
12.56157419122907
 30
0.0
  0
SPLINE
  5
1E0
330
1F
100
AcDbEntity
  8
0
  6
Continuous
 62
     7
370
     5
100
AcDbSpline
210
0.0
220
0.0
230
1.0
 70
     8
 71
     3
 72
    23
 73
    19
 74
     0
 42
0.0000000001
 43
0.0000000001
 40
0.0
 40
0.0
 40
0.0
 40
0.0
 40
0.0614842551968883
 40
0.1217745277022128
 40
0.1809195598139275
 40
0.240256115078267
 40
0.3001144444023534
 40
0.3611459476126095
 40
0.4235005824125816
 40
0.4886693612807181
 40
0.553954104653561
 40
0.617581261015257
 40
0.680238426816739
 40
0.742187388772452
 40
0.8046632117692929
 40
0.868258989312663
 40
0.9330202571803759
 40
1.0
 40
1.0
 40
1.0
 40
1.0
 10
2.048379840462604
 20
12.56157333901754
 30
0.0
 10
2.048397442376638
 20
12.56157348571105
 30
0.0
 10
2.048432304387431
 20
12.56157377624939
 30
0.0
 10
2.048833043149358
 20
12.56157420286587
 30
0.0
 10
2.049420177037641
 20
12.5615746172142
 30
0.0
 10
2.050305102947031
 20
12.56157501417272
 30
0.0
 10
2.051385187543278
 20
12.56157540100357
 30
0.0
 10
2.052755712039689
 20
12.56157576755964
 30
0.0
 10
2.054344310738021
 20
12.56157612195372
 30
0.0
 10
2.05616664372653
 20
12.56157645473576
 30
0.0
 10
2.058160730395723
 20
12.5615767602285
 30
0.0
 10
2.060268329359904
 20
12.56157703198122
 30
0.0
 10
2.062492890242069
 20
12.5615772585701
 30
0.0
 10
2.064822345153227
 20
12.56157744346985
 30
0.0
 10
2.067257229172166
 20
12.5615775880837
 30
0.0
 10
2.069796723382019
 20
12.56157769286362
 30
0.0
 10
2.072445013861115
 20
12.56157775717142
 30
0.0
 10
2.074245026760377
 20
12.56157776384619
 30
0.0
 10
2.075160189020297
 20
12.56157776723977
 30
0.0
  0
LINE
  5
1E1
330
1F
100
AcDbEntity
  8
0
  6
Continuous
 62
     7
370
     5
100
AcDbLine
 10
2.199822150656114
 20
12.56157734750446
 30
0.0
 11
2.155350993557383
 21
12.56156098519348
 31
0.0
  0
LINE
  5
1E2
330
1F
100
AcDbEntity
  8
0
  6
Continuous
 62
     7
370
     5
100
AcDbLine
 10
2.176384648074811
 20
12.5615721042317
 30
0.0
 11
2.190638705077395
 21
12.56157734750446
 31
0.0
  0
LINE
  5
1E3
330
1F
100
AcDbEntity
  8
0
  6
Continuous
 62
     7
370
     5
100
AcDbLine
 10
2.167929705747026
 20
12.5615721042317
 30
0.0
 11
2.176384648074811
 21
12.5615721042317
 31
0.0
  0
LINE
  5
1E4
330
1F
100
AcDbEntity
  8
0
  6
Continuous
 62
     7
370
     5
100
AcDbLine
 10
2.120025722054601
 20
12.56157734750446
 30
0.0
 11
2.133885401529734
 21
12.5615721042317
 31
0.0
  0
LINE
  5
1E5
330
1F
100
AcDbEntity
  8
0
  6
Continuous
 62
     7
370
     5
100
AcDbLine
 10
2.110879841041932
 20
12.56157734750446
 30
0.0
 11
2.120025722054601
 21
12.56157734750446
 31
0.0
  0
LINE
  5
1E6
330
1F
100
AcDbEntity
  8
0
  6
Continuous
 62
     7
370
     5
100
AcDbLine
 10
2.154149074108726
 20
12.56156098519348
 30
0.0
 11
2.110879841041932
 21
12.56157734750446
 31
0.0
  0
LINE
  5
1E7
330
1F
100
AcDbEntity
  8
0
  6
Continuous
 62
     7
370
     5
100
AcDbLine
 10
1.444004849422075
 20
12.56145989636127
 30
0.0
 11
1.444933458694701
 21
12.56145729764129
 31
0.0
  0
LINE
  5
1E8
330
1F
100
AcDbEntity
  8
0
  6
Continuous
 62
     7
370
     5
100
AcDbLine
 10
1.683076197649459
 20
12.56145729764129
 30
0.0
 11
1.684004843588329
 21
12.56145989636127
 31
0.0
  0
LINE
  5
1E9
330
1F
100
AcDbEntity
  8
0
  6
Continuous
 62
     7
370
     5
100
AcDbLine
 10
1.684004843588329
 20
12.56160825027247
 30
0.0
 11
1.683861881906501
 21
12.561609272344
 31
0.0
  0
LWPOLYLINE
  5
1EA
330
1F
100
AcDbEntity
  8
0
  6
Continuous
 62
     7
370
     5
100
AcDbPolyline
 90
       35
 70
   128
 43
0.0
 10
2.064004840462605
 20
12.56145226290778
 10
2.023809631884418
 20
12.5614529137336
 10
1.984983229160335
 20
12.561454841003
 10
1.948847803266525
 20
12.56145798284171
 10
1.916633914570783
 20
12.56146222695935
 10
1.889438580400271
 20
12.5614674358575
 10
1.868187870890281
 20
12.56147342391333
 10
1.853605486013902
 20
12.56147999404576
 10
1.846187996701371
 20
12.56148691938243
 10
1.846187996701371
 20
12.56149396617602
 10
1.853605486013902
 20
12.56150089151269
 10
1.868187870890281
 20
12.56150746164512
 10
1.889438580400271
 20
12.56151344970095
 10
1.916633914570783
 20
12.56151865630747
 10
1.948847803266525
 20
12.56152290271675
 10
1.984983229160335
 20
12.56152604455545
 10
2.023809631884418
 20
12.56152797182485
 10
2.064004840462607
 20
12.56152862265067
 10
2.104200049040792
 20
12.56152797182485
 10
2.143026451764875
 20
12.56152604455545
 10
2.179161877658684
 20
12.56152290271675
 10
2.211375766354427
 20
12.56151865630747
 10
2.238571100524939
 20
12.56151344970095
 10
2.259821810034929
 20
12.56150746164512
 10
2.274404194911308
 20
12.56150089151269
 10
2.281821684223839
 20
12.56149396617602
 10
2.281821684223839
 20
12.56148691938243
 10
2.274404194911308
 20
12.56147999404576
 10
2.259821810034929
 20
12.56147342391333
 10
2.238571100524939
 20
12.5614674358575
 10
2.211375766354427
 20
12.56146222695935
 10
2.179161877658684
 20
12.56145798284171
 10
2.143026451764875
 20
12.561454841003
 10
2.104200049040792
 20
12.5614529137336
 10
2.064004840462605
 20
12.56145226290778
  0
LINE
  5
1EB
330
1F
100
AcDbEntity
  8
0
  6
Continuous
 62
     7
370
     5
100
AcDbLine
 10
1.334004873484517
 20
12.56164337653336
 30
0.0
 11
1.446133984826121
 21
12.56164337653336
 31
0.0
  0
LINE
  5
1EC
330
1F
100
AcDbEntity
  8
0
  6
Continuous
 62
     7
370
     5
100
AcDbLine
 10
1.683167386596037
 20
12.56164337653336
 30
0.0
 11
1.740785674317994
 21
12.56164337653336
 31
0.0
  0
LINE
  5
1ED
330
1F
100
AcDbEntity
  8
0
  6
Continuous
 62
     7
370
     5
100
AcDbLine
 10
1.780809426960188
 20
12.56164337653336
 30
0.0
 11
1.93051140009022
 21
12.56164337653336
 31
0.0
  0
LINE
  5
1EE
330
1F
100
AcDbEntity
  8
0
  6
Continuous
 62
     7
370
     5
100
AcDbLine
 10
1.969508497925751
 20
12.56164337653336
 30
0.0
 11
2.127626780913186
 21
12.56164337653336
 31
0.0
  0
LINE
  5
1EF
330
1F
100
AcDbEntity
  8
0
  6
Continuous
 62
     7
370
     5
100
AcDbLine
 10
2.206337421224486
 20
12.56164337653336
 30
0.0
 11
2.446133972740927
 21
12.56164337653336
 31
0.0
  0
LINE
  5
1F0
330
1F
100
AcDbEntity
  8
0
  6
Continuous
 62
     7
370
     5
100
AcDbLine
 10
2.683167374510843
 20
12.56164337653336
 30
0.0
 11
2.794004807440693
 21
12.56164337653336
 31
0.0
  0
LINE
  5
1F1
330
1F
100
AcDbEntity
  8
0
  6
Continuous
 62
     7
370
     5
100
AcDbLine
 10
2.795004842554869
 20
12.56164315882754
 30
0.0
 11
2.794004807440693
 21
12.56164315882754
 31
0.0
  0
ARC
  5
1F2
330
1F
100
AcDbEntity
  8
0
  6
Continuous
 62
     7
370
     5
100
AcDbCircle
 10
2.794789115813342
 20
11.98868741080358
 30
0.0
 40
0.5727730853430866
100
AcDbArc
 50
89.97842036850867
 51
90.17848484385062
  0
LINE
  5
1F3
330
1F
100
AcDbEntity
  8
0
  6
Continuous
 62
     7
370
     5
100
AcDbLine
 10
2.251504842779912
 20
12.5614140864738
 30
0.0
 11
2.12650483970728
 21
12.5614140864738
 31
0.0
  0
LINE
  5
1F4
330
1F
100
AcDbEntity
  8
0
  6
Continuous
 62
     7
370
     5
100
AcDbLine
 10
2.00150484121793
 20
12.5614140864738
 30
0.0
 11
1.876504838145298
 21
12.5614140864738
 31
0.0
  0
ARC
  5
1F5
330
1F
100
AcDbEntity
  8
0
  6
Continuous
 62
     7
370
     5
100
AcDbCircle
 10
1.333220565111869
 20
11.98868741080423
 30
0.0
 40
0.5727730853424347
100
AcDbArc
 50
89.82151515614928
 51
90.02157963149141
  0
LINE
  5
1F6
330
1F
100
AcDbEntity
  8
0
  6
Continuous
 62
     7
370
     5
100
AcDbLine
 10
1.334004873484517
 20
12.56164315882754
 30
0.0
 11
1.333004838370341
 21
12.56164315882754
 31
0.0
  0
LINE
  5
1F7
330
1F
100
AcDbEntity
  8
0
  6
Continuous
 62
     7
370
     5
100
AcDbLine
 10
2.444004837336881
 20
12.56145989636127
 30
0.0
 11
2.444933483275751
 21
12.56145729764129
 31
0.0
  0
LINE
  5
1F8
330
1F
100
AcDbEntity
  8
0
  6
Continuous
 62
     7
370
     5
100
AcDbLine
 10
2.683076222230509
 20
12.56145729764129
 30
0.0
 11
2.684004831503135
 21
12.56145989636127
 31
0.0
  0
LINE
  5
1F9
330
1F
100
AcDbEntity
  8
0
  6
Continuous
 62
     7
370
     5
100
AcDbLine
 10
2.684004831503135
 20
12.56160825027247
 30
0.0
 11
2.683861906487551
 21
12.561609272344
 31
0.0
  0
LINE
  5
1FA
330
1F
100
AcDbEntity
  8
0
  6
Continuous
 62
     7
370
     5
100
AcDbLine
 10
2.292670712228275
 20
12.56157734750446
 30
0.0
 11
2.293872631676932
 21
12.56157734750446
 31
0.0
  0
LINE
  5
1FB
330
1F
100
AcDbEntity
  8
0
  6
Continuous
 62
     7
370
     5
100
AcDbLine
 10
2.264125033657056
 20
12.56156483285736
 30
0.0
 11
2.292670712228275
 21
12.56157734750446
 31
0.0
  0
LINE
  5
1FC
330
1F
100
AcDbEntity
  8
0
  6
Continuous
 62
     7
370
     5
100
AcDbLine
 10
2.235917399514053
 20
12.56157734750446
 30
0.0
 11
2.264125033657056
 21
12.56156483285736
 31
0.0
  0
LINE
  5
1FD
330
1F
100
AcDbEntity
  8
0
  6
Continuous
 62
     7
370
     5
100
AcDbLine
 10
2.234715480065396
 20
12.56157734750446
 30
0.0
 11
2.235917399514053
 21
12.56157734750446
 31
0.0
  0
LINE
  5
1FE
330
1F
100
AcDbEntity
  8
0
  6
Continuous
 62
     7
370
     5
100
AcDbLine
 10
2.209437533745055
 20
12.56156098519348
 30
0.0
 11
2.234715480065396
 21
12.56157734750446
 31
0.0
  0
LINE
  5
1FF
330
1F
100
AcDbEntity
  8
0
  6
Continuous
 62
     7
370
     5
100
AcDbLine
 10
2.218038792715911
 20
12.56156098519348
 30
0.0
 11
2.209437533745055
 21
12.56156098519348
 31
0.0
  0
LINE
  5
200
330
1F
100
AcDbEntity
  8
0
  6
Continuous
 62
     7
370
     5
100
AcDbLine
 10
2.236480794672331
 20
12.56157290401413
 30
0.0
 11
2.218038792715911
 21
12.56156098519348
 31
0.0
  0
LINE
  5
201
330
1F
100
AcDbEntity
  8
0
  6
Continuous
 62
     7
370
     5
100
AcDbLine
 10
2.263261158636614
 20
12.56156098519348
 30
0.0
 11
2.236480794672331
 21
12.56157290401413
 31
0.0
  0
LINE
  5
202
330
1F
100
AcDbEntity
  8
0
  6
Continuous
 62
     7
370
     5
100
AcDbLine
 10
2.264481851201736
 20
12.56156098519348
 30
0.0
 11
2.263261158636614
 21
12.56156098519348
 31
0.0
  0
LINE
  5
203
330
1F
100
AcDbEntity
  8
0
  6
Continuous
 62
     7
370
     5
100
AcDbLine
 10
2.291769272641782
 20
12.56157298422153
 30
0.0
 11
2.264481851201736
 21
12.56156098519348
 31
0.0
  0
LINE
  5
204
330
1F
100
AcDbEntity
  8
0
  6
Continuous
 62
     7
370
     5
100
AcDbLine
 10
2.310117372349635
 20
12.56156098519348
 30
0.0
 11
2.291769272641782
 21
12.56157298422153
 31
0.0
  0
LINE
  5
205
330
1F
100
AcDbEntity
  8
0
  6
Continuous
 62
     7
370
     5
100
AcDbLine
 10
2.318812533569057
 20
12.56156098519348
 30
0.0
 11
2.310117372349635
 21
12.56156098519348
 31
0.0
  0
LINE
  5
206
330
1F
100
AcDbEntity
  8
0
  6
Continuous
 62
     7
370
     5
100
AcDbLine
 10
2.293872631676932
 20
12.56157734750446
 30
0.0
 11
2.318812533569057
 21
12.56156098519348
 31
0.0
  0
LINE
  5
207
330
1F
100
AcDbEntity
  8
0
  6
Continuous
 62
     7
370
     5
100
AcDbLine
 10
1.862081768095168
 20
12.56157734750446
 30
0.0
 11
1.87049522256889
 21
12.56157734750446
 31
0.0
  0
LINE
  5
208
330
1F
100
AcDbEntity
  8
0
  6
Continuous
 62
     7
370
     5
100
AcDbLine
 10
1.862081768095168
 20
12.56156979655002
 30
0.0
 11
1.862081768095168
 21
12.56157734750446
 31
0.0
  0
LINE
  5
209
330
1F
100
AcDbEntity
  8
0
  6
Continuous
 62
     7
370
     5
100
AcDbLine
 10
1.855245823731247
 20
12.56156979655002
 30
0.0
 11
1.862081768095168
 21
12.56156979655002
 31
0.0
  0
LINE
  5
20A
330
1F
100
AcDbEntity
  8
0
  6
Continuous
 62
     7
370
     5
100
AcDbLine
 10
1.820803223281773
 20
12.56157734750446
 30
0.0
 11
1.855245823731247
 21
12.56156979655002
 31
0.0
  0
LINE
  5
20B
330
1F
100
AcDbEntity
  8
0
  6
Continuous
 62
     7
370
     5
100
AcDbLine
 10
1.81039906680481
 20
12.56157734750446
 30
0.0
 11
1.820803223281773
 21
12.56157734750446
 31
0.0
  0
LINE
  5
20C
330
1F
100
AcDbEntity
  8
0
  6
Continuous
 62
     7
370
     5
100
AcDbLine
 10
1.844841685587405
 20
12.56156979655002
 30
0.0
 11
1.81039906680481
 21
12.56157734750446
 31
0.0
  0
SPLINE
  5
20D
330
1F
100
AcDbEntity
  8
0
  6
Continuous
 62
     7
370
     5
100
AcDbSpline
210
0.0
220
0.0
230
1.0
 70
     8
 71
     3
 72
    23
 73
    19
 74
     0
 42
0.0000000001
 43
0.0000000001
 40
0.0
 40
0.0
 40
0.0
 40
0.0
 40
0.0787802355821394
 40
0.1537206442085865
 40
0.22671353030878
 40
0.2991911660659379
 40
0.3711899968376635
 40
0.4430064143534066
 40
0.516689173294879
 40
0.593217216623411
 40
0.6338729178078441
 40
0.6769891422899791
 40
0.7228995063258261
 40
0.7719586105061431
 40
0.824211323334835
 40
0.879378650627202
 40
0.9379481193304179
 40
1.0
 40
1.0
 40
1.0
 40
1.0
 10
1.811600994308758
 20
12.56156536100651
 30
0.0
 10
1.811640342472379
 20
12.56156557902511
 30
0.0
 10
1.811717120931029
 20
12.56156600443587
 30
0.0
 10
1.812432971922458
 20
12.56156662181904
 30
0.0
 10
1.813605557272336
 20
12.56156719772772
 30
0.0
 10
1.815221359656514
 20
12.56156773143679
 30
0.0
 10
1.817279024184554
 20
12.56156821254293
 30
0.0
 10
1.819752009660536
 20
12.56156863511731
 30
0.0
 10
1.822641695682581
 20
12.56156898873306
 30
0.0
 10
1.825331766645238
 20
12.56156923394935
 30
0.0
 10
1.827708039851398
 20
12.56156939099583
 30
0.0
 10
1.829664289301077
 20
12.56156950149554
 30
0.0
 10
1.831798226198286
 20
12.56156958687003
 30
0.0
 10
1.834089404803801
 20
12.56156966335347
 30
0.0
 10
1.836547359861626
 20
12.5615697210975
 30
0.0
 10
1.839166200202408
 20
12.56156976339023
 30
0.0
 10
1.841947793549642
 20
12.56156978982285
 30
0.0
 10
1.843858661478744
 20
12.56156979375921
 30
0.0
 10
1.844841679404911
 20
12.56156979578421
 30
0.0
  0
SPLINE
  5
20E
330
1F
100
AcDbEntity
  8
0
  6
Continuous
 62
     7
370
     5
100
AcDbSpline
210
0.0
220
0.0
230
1.0
 70
     8
 71
     3
 72
    23
 73
    19
 74
     0
 42
0.0000000001
 43
0.0000000001
 40
0.0
 40
0.0
 40
0.0
 40
0.0
 40
0.0642168426314287
 40
0.1270637656931262
 40
0.188744538347829
 40
0.24913210283504
 40
0.309452532710625
 40
0.369826676247674
 40
0.4306501418384621
 40
0.4923519318794641
 40
0.554072106262511
 40
0.615689783744971
 40
0.6767977025065301
 40
0.7384390482469421
 40
0.8013169100648831
 40
0.86518451171153
 40
0.9316413244190659
 40
1.0
 40
1.0
 40
1.0
 40
1.0
 10
1.830493722674142
 20
12.56156120811416
 30
0.0
 10
1.829807830956191
 20
12.56156123769172
 30
0.0
 10
1.828450679452484
 20
12.56156129621587
 30
0.0
 10
1.826496659826416
 20
12.56156141991421
 30
0.0
 10
1.82463466900628
 20
12.56156156306062
 30
0.0
 10
1.822872441569091
 20
12.56156173119062
 30
0.0
 10
1.821218804305062
 20
12.56156192555225
 30
0.0
 10
1.81965670669449
 20
12.56156214279021
 30
0.0
 10
1.818179060353956
 20
12.56156238171584
 30
0.0
 10
1.816845623831268
 20
12.56156264835309
 30
0.0
 10
1.815588327803735
 20
12.56156292808811
 30
0.0
 10
1.814527918165327
 20
12.56156323057746
 30
0.0
 10
1.813613816029903
 20
12.56156354689436
 30
0.0
 10
1.812886034324541
 20
12.56156388025575
 30
0.0
 10
1.812300017177939
 20
12.56156422742872
 30
0.0
 10
1.811886814337646
 20
12.56156459155798
 30
0.0
 10
1.811639014668964
 20
12.56156497098465
 30
0.0
 10
1.811613786395208
 20
12.56156522978226
 30
0.0
 10
1.811600994308758
 20
12.56156536100651
 30
0.0
  0
SPLINE
  5
20F
330
1F
100
AcDbEntity
  8
0
  6
Continuous
 62
     7
370
     5
100
AcDbSpline
210
0.0
220
0.0
230
1.0
 70
     8
 71
     3
 72
    15
 73
    11
 74
     0
 42
0.0000000001
 43
0.0000000001
 40
0.0
 40
0.0
 40
0.0
 40
0.0
 40
0.1762577548178015
 40
0.3384344138804755
 40
0.484822050787837
 40
0.617157578266332
 40
0.7346983606124759
 40
0.8373851838323609
 40
0.9263724209295849
 40
1.0
 40
1.0
 40
1.0
 40
1.0
 10
1.851733957049142
 20
12.56156098522807
 30
0.0
 10
1.850481962535386
 20
12.56156098595544
 30
0.0
 10
1.848077994381572
 20
12.56156098735205
 30
0.0
 10
1.844634067496939
 20
12.56156099513948
 30
0.0
 10
1.841504770255862
 20
12.56156101745953
 30
0.0
 10
1.838691738845582
 20
12.56156103666712
 30
0.0
 10
1.836195024873002
 20
12.56156107169186
 30
0.0
 10
1.834006972442253
 20
12.56156110516781
 30
0.0
 10
1.832137659116328
 20
12.56156114898957
 30
0.0
 10
1.831006073813581
 20
12.56156118968732
 30
0.0
 10
1.830493722674142
 20
12.56156120811416
 30
0.0
  0
LINE
  5
210
330
1F
100
AcDbEntity
  8
0
  6
Continuous
 62
     7
370
     5
100
AcDbLine
 10
1.87049522256889
 20
12.56156098519348
 30
0.0
 11
1.85173394930072
 21
12.56156098519348
 31
0.0
  0
LINE
  5
211
330
1F
100
AcDbEntity
  8
0
  6
Continuous
 62
     7
370
     5
100
AcDbLine
 10
1.87049522256889
 20
12.56157734750446
 30
0.0
 11
1.87049522256889
 21
12.56156098519348
 31
0.0
  0
SPLINE
  5
212
330
1F
100
AcDbEntity
  8
0
  6
Continuous
 62
     7
370
     5
100
AcDbSpline
210
0.0
220
0.0
230
1.0
 70
     8
 71
     3
 72
    31
 73
    27
 74
     0
 42
0.0000000001
 43
0.0000000001
 40
0.0
 40
0.0
 40
0.0
 40
0.0
 40
0.0429467432831212
 40
0.0855917492701604
 40
0.127344234847797
 40
0.169121093308215
 40
0.210633266773468
 40
0.2525241407022985
 40
0.2943009991627225
 40
0.3368059667078295
 40
0.3791196007503879
 40
0.4208686033260826
 40
0.4620374625207031
 40
0.502825195942497
 40
0.543601519010982
 40
0.584362861143416
 40
0.625520415646623
 40
0.6670122666286009
 40
0.7085517546538101
 40
0.749889109682319
 40
0.791017681730942
 40
0.832067686396123
 40
0.8733740728916949
 40
0.914888348114993
 40
0.95705325671688
 40
1.0
 40
1.0
 40
1.0
 40
1.0
 10
2.099461571231834
 20
12.56160338071286
 30
0.0
 10
2.099446898217518
 20
12.56160318608707
 30
0.0
 10
2.099417655279254
 20
12.56160279820289
 30
0.0
 10
2.099079374428562
 20
12.56160222370672
 30
0.0
 10
2.098576772899549
 20
12.56160165866824
 30
0.0
 10
2.097865862546008
 20
12.56160110543553
 30
0.0
 10
2.096935221597584
 20
12.56160056174096
 30
0.0
 10
2.095819479180028
 20
12.56160002865662
 30
0.0
 10
2.094467608728129
 20
12.56159950755613
 30
0.0
 10
2.092939351984606
 20
12.56159899950602
 30
0.0
 10
2.091234907344616
 20
12.56159850890959
 30
0.0
 10
2.089378217103481
 20
12.56159804274933
 30
0.0
 10
2.087364713636012
 20
12.56159760561929
 30
0.0
 10
2.085195822375971
 20
12.56159719771946
 30
0.0
 10
2.082880205169856
 20
12.56159681814819
 30
0.0
 10
2.080437774464374
 20
12.56159646065506
 30
0.0
 10
2.077816452765529
 20
12.56159613853921
 30
0.0
 10
2.075085424870491
 20
12.56159583898438
 30
0.0
 10
2.072229375462576
 20
12.56159557556739
 30
0.0
 10
2.069304168825059
 20
12.56159534008103
 30
0.0
 10
2.066287922814351
 20
12.56159514901351
 30
0.0
 10
2.063219773470197
 20
12.56159498620084
 30
0.0
 10
2.060081106661997
 20
12.56159486190266
 30
0.0
 10
2.05687436854572
 20
12.56159477482519
 30
0.0
 10
2.053601815079451
 20
12.56159471521457
 30
0.0
 10
2.051391788997015
 20
12.561594710301
 30
0.0
 10
2.050276625318373
 20
12.56159470782166
 30
0.0
  0
SPLINE
  5
213
330
1F
100
AcDbEntity
  8
0
  6
Continuous
 62
     7
370
     5
100
AcDbSpline
210
0.0
220
0.0
230
1.0
 70
     8
 71
     3
 72
    23
 73
    19
 74
     0
 42
0.0000000001
 43
0.0000000001
 40
0.0
 40
0.0
 40
0.0
 40
0.0
 40
0.065984410694279
 40
0.1298376775260084
 40
0.1923264853163985
 40
0.25364252753006
 40
0.3149010679722
 40
0.3765395581448085
 40
0.4394064860026835
 40
0.503573112895526
 40
0.567724176807502
 40
0.63000962758645
 40
0.691359187611019
 40
0.751740850183237
 40
0.812223107217636
 40
0.8732972781823939
 40
0.9357103752807219
 40
1.0
 40
1.0
 40
1.0
 40
1.0
 10
2.049919804404912
 20
12.56161190938365
 30
0.0
 10
2.051624992107223
 20
12.56161190221527
 30
0.0
 10
2.054980293892669
 20
12.56161188811004
 30
0.0
 10
2.059908064889275
 20
12.56161176496869
 30
0.0
 10
2.064637983257561
 20
12.56161157478771
 30
0.0
 10
2.069160621222597
 20
12.56161129961476
 30
0.0
 10
2.073480905472948
 20
12.56161094813748
 30
0.0
 10
2.077596828813189
 20
12.56161051481614
 30
0.0
 10
2.08151048323324
 20
12.56161000565273
 30
0.0
 10
2.085164097258911
 20
12.56160942397481
 30
0.0
 10
2.088504956657654
 20
12.56160879119024
 30
0.0
 10
2.091436351441104
 20
12.56160811508848
 30
0.0
 10
2.093928829024013
 20
12.56160740688861
 30
0.0
 10
2.09594414562347
 20
12.56160666305908
 30
0.0
 10
2.097543568691359
 20
12.56160589007542
 30
0.0
 10
2.098633532136749
 20
12.56160508150899
 30
0.0
 10
2.099339052791785
 20
12.56160424217306
 30
0.0
 10
2.099420330497979
 20
12.56160367068758
 30
0.0
 10
2.099461571231834
 20
12.56160338071286
 30
0.0
  0
SPLINE
  5
214
330
1F
100
AcDbEntity
  8
0
  6
Continuous
 62
     7
370
     5
100
AcDbSpline
210
0.0
220
0.0
230
1.0
 70
     8
 71
     3
 72
    15
 73
    11
 74
     0
 42
0.0000000001
 43
0.0000000001
 40
0.0
 40
0.0
 40
0.0
 40
0.0
 40
0.1287770352440074
 40
0.2551818927067125
 40
0.380150205827778
 40
0.5033630045969931
 40
0.626858645170286
 40
0.750310134428098
 40
0.874439812691417
 40
1.0
 40
1.0
 40
1.0
 40
1.0
 10
2.023007995510681
 20
12.56161052617878
 30
0.0
 10
2.024051489068855
 20
12.56161063685323
 30
0.0
 10
2.026119254184721
 20
12.56161085616342
 30
0.0
 10
2.029343360553756
 20
12.56161113884209
 30
0.0
 10
2.03263158287966
 20
12.5616113740676
 30
0.0
 10
2.035976645635736
 20
12.56161156840678
 30
0.0
 10
2.039373676575476
 20
12.56161172396388
 30
0.0
 10
2.042839901707189
 20
12.56161183192709
 30
0.0
 10
2.046362749309218
 20
12.56161189461998
 30
0.0
 10
2.048729599365222
 20
12.56161190444367
 30
0.0
 10
2.049919804404912
 20
12.56161190938365
 30
0.0
  0
LINE
  5
215
330
1F
100
AcDbEntity
  8
0
  6
Continuous
 62
     7
370
     5
100
AcDbLine
 10
2.012603850501227
 20
12.56161274876217
 30
0.0
 11
2.02300799322835
 21
12.56161052587118
 31
0.0
  0
LINE
  5
216
330
1F
100
AcDbEntity
  8
0
  6
Continuous
 62
     7
370
     5
100
AcDbLine
 10
2.002105800942258
 20
12.56161274876217
 30
0.0
 11
2.012603850501227
 21
12.56161274876217
 31
0.0
  0
LINE
  5
217
330
1F
100
AcDbEntity
  8
0
  6
Continuous
 62
     7
370
     5
100
AcDbLine
 10
2.016510097875924
 20
12.56160966650611
 30
0.0
 11
2.002105800942258
 21
12.56161274876217
 31
0.0
  0
SPLINE
  5
218
330
1F
100
AcDbEntity
  8
0
  6
Continuous
 62
     7
370
     5
100
AcDbSpline
210
0.0
220
0.0
230
1.0
 70
     8
 71
     3
 72
    15
 73
    11
 74
     0
 42
0.0000000001
 43
0.0000000001
 40
0.0
 40
0.0
 40
0.0
 40
0.0
 40
0.130707616753221
 40
0.2570291278115465
 40
0.3802316977119375
 40
0.501247331541772
 40
0.6219529799761191
 40
0.744318176351878
 40
0.870128899674407
 40
1.0
 40
1.0
 40
1.0
 40
1.0
 10
2.000903878924142
 20
12.56160332826907
 30
0.0
 10
2.000948949049692
 20
12.56160363792803
 30
0.0
 10
2.001037576899761
 20
12.56160424685484
 30
0.0
 10
2.00179181515057
 20
12.56160513978112
 30
0.0
 10
2.003004497833588
 20
12.56160599273607
 30
0.0
 10
2.004724228332131
 20
12.56160680516082
 30
0.0
 10
2.00694745122993
 20
12.5616075769077
 30
0.0
 10
2.009631215508536
 20
12.56160831569427
 30
0.0
 10
2.012807833956546
 20
12.56160902146814
 30
0.0
 10
2.01526301400419
 20
12.56160944982968
 30
0.0
 10
2.016510098876066
 20
12.56160966741177
 30
0.0
  0
SPLINE
  5
219
330
1F
100
AcDbEntity
  8
0
  6
Continuous
 62
     7
370
     5
100
AcDbSpline
210
0.0
220
0.0
230
1.0
 70
     8
 71
     3
 72
    23
 73
    19
 74
     0
 42
0.0000000001
 43
0.0000000001
 40
0.0
 40
0.0
 40
0.0
 40
0.0
 40
0.0656670126655705
 40
0.1289742151073964
 40
0.1909276749603035
 40
0.2519487749183355
 40
0.31269422357106
 40
0.3738296131874405
 40
0.4362009092567646
 40
0.499880541208264
 40
0.5635601731597601
 40
0.625931469229082
 40
0.6870668588454611
 40
0.7478123074981941
 40
0.8088334074562208
 40
0.8707868673091228
 40
0.934332987334422
 40
1.0
 40
1.0
 40
1.0
 40
1.0
 10
2.050276625318373
 20
12.56159470782166
 30
0.0
 10
2.048571431247182
 20
12.56159471495404
 30
0.0
 10
2.0452223209708
 20
12.56159472896251
 30
0.0
 10
2.040306757688641
 20
12.56159485212243
 30
0.0
 10
2.035590773447187
 20
12.56159504306657
 30
0.0
 10
2.031077725469024
 20
12.56159531683717
 30
0.0
 10
2.026771637503079
 20
12.5615956691996
 30
0.0
 10
2.022674318628711
 20
12.5615961024336
 30
0.0
 10
2.01877941639485
 20
12.56159661163073
 30
0.0
 10
2.01514489368382
 20
12.56159719334761
 30
0.0
 10
2.011811902644744
 20
12.56159782769145
 30
0.0
 10
2.008894413317319
 20
12.56159850748002
 30
0.0
 10
2.0064121820322
 20
12.56159922259744
 30
0.0
 10
2.004393232072635
 20
12.56159997415013
 30
0.0
 10
2.002824875121137
 20
12.56160076183095
 30
0.0
 10
2.001728551213214
 20
12.56160158596056
 30
0.0
 10
2.001026266224553
 20
12.56160244506888
 30
0.0
 10
2.000945118673792
 20
12.56160303066503
 30
0.0
 10
2.000903878924142
 20
12.56160332826907
 30
0.0
  0
LINE
  5
21A
330
1F
100
AcDbEntity
  8
0
  6
Continuous
 62
     7
370
     5
100
AcDbLine
 10
1.986480797693629
 20
12.56159470667893
 30
0.0
 11
1.978067343219906
 21
12.56159470667893
 31
0.0
  0
LINE
  5
21B
330
1F
100
AcDbEntity
  8
0
  6
Continuous
 62
     7
370
     5
100
AcDbLine
 10
1.985222540562456
 20
12.56159974141243
 30
0.0
 11
1.986480797693629
 21
12.56159470667893
 31
0.0
  0
LINE
  5
21C
330
1F
100
AcDbEntity
  8
0
  6
Continuous
 62
     7
370
     5
100
AcDbLine
 10
1.979381947200156
 20
12.56159974141243
 30
0.0
 11
1.985222540562456
 21
12.56159974141243
 31
0.0
  0
LINE
  5
21D
330
1F
100
AcDbEntity
  8
0
  6
Continuous
 62
     7
370
     5
100
AcDbLine
 10
1.978067343219906
 20
12.56159470667893
 30
0.0
 11
1.979381947200156
 21
12.56159974141243
 31
0.0
  0
LINE
  5
21E
330
1F
100
AcDbEntity
  8
0
  6
Continuous
 62
     7
370
     5
100
AcDbLine
 10
1.335004835266206
 20
12.5614140864738
 30
0.0
 11
1.335004835266206
 21
12.56145771701144
 31
0.0
  0
LINE
  5
21F
330
1F
100
AcDbEntity
  8
0
  6
Continuous
 62
     7
370
     5
100
AcDbLine
 10
2.793004845659003
 20
12.5614140864738
 30
0.0
 11
2.793004845659003
 21
12.56145771701144
 31
0.0
  0
ARC
  5
220
330
1F
100
AcDbEntity
  8
0
  6
Continuous
 62
     7
370
     5
100
AcDbCircle
 10
1.564004846505202
 20
12.51310826986084
 30
0.0
 40
0.1234999864676838
100
AcDbArc
 50
25.98922603415858
 51
154.0107739658414
  0
ARC
  5
221
330
1F
100
AcDbEntity
  8
0
  6
Continuous
 62
     7
370
     5
100
AcDbCircle
 10
2.564004834420008
 20
12.51310826986084
 30
0.0
 40
0.123499986467684
100
AcDbArc
 50
25.98922603415863
 51
154.0107739658415
  0
ARC
  5
222
330
1F
100
AcDbEntity
  8
0
  6
Continuous
 62
     7
370
     5
100
AcDbCircle
 10
1.684004837969945
 20
12.57160824542465
 30
0.0
 40
0.009999995152185
100
AcDbArc
 50
205.989222401061
 51
270.0000321909854
  0
ARC
  5
223
330
1F
100
AcDbEntity
  8
0
  6
Continuous
 62
     7
370
     5
100
AcDbCircle
 10
2.684004841653365
 20
12.57160827065444
 30
0.0
 40
0.0100000203819785
100
AcDbArc
 50
205.9893127484481
 51
269.9999418435879
  0
ARC
  5
224
330
1F
100
AcDbEntity
  8
0
  6
Continuous
 62
     7
370
     5
100
AcDbCircle
 10
2.795004883166549
 20
12.43864320701229
 30
0.0
 40
0.1229999518152541
100
AcDbArc
 50
359.9999778798162
 51
90.00001891771352
  0
ARC
  5
225
330
1F
100
AcDbEntity
  8
0
  6
Continuous
 62
     7
370
     5
100
AcDbCircle
 10
1.333004797758661
 20
12.43864320701229
 30
0.0
 40
0.1229999518152538
100
AcDbArc
 50
89.99998108228629
 51
180.0000221201853
  0
LINE
  5
226
330
1F
100
AcDbEntity
  8
0
  6
Continuous
 62
     7
370
     5
100
AcDbLine
 10
2.234715480065396
 20
12.56157176277731
 30
0.0
 11
2.234715480065396
 21
12.56157734750446
 31
0.0
  0
LINE
  5
227
330
1F
100
AcDbEntity
  8
0
  6
Continuous
 62
     7
370
     5
100
AcDbLine
 10
2.293872631676932
 20
12.56157160923742
 30
0.0
 11
2.293872631676932
 21
12.56157734750446
 31
0.0
  0
SPLINE
  5
228
330
1F
100
AcDbEntity
  8
0
  6
Continuous
 62
     7
370
     5
100
AcDbSpline
210
0.0
220
0.0
230
1.0
 70
     8
 71
     3
 72
    23
 73
    19
 74
     0
 42
0.0000000001
 43
0.0000000001
 40
0.0
 40
0.0
 40
0.0
 40
0.0
 40
0.0749140613226159
 40
0.144716810486923
 40
0.2088885770519541
 40
0.268065700770419
 40
0.3211212143033521
 40
0.3693533312372119
 40
0.4123484235823521
 40
0.4506919934902161
 40
0.520831233486555
 40
0.5890345558610465
 40
0.6570866804385075
 40
0.7269362613753855
 40
0.7959806464887541
 40
0.8636351754477789
 40
0.9311857041756969
 40
1.0
 40
1.0
 40
1.0
 40
1.0
 10
1.844503638539527
 20
12.56156266342924
 30
0.0
 10
1.843683513997287
 20
12.56156266376584
 30
0.0
 10
1.842099221197517
 20
12.56156266441608
 30
0.0
 10
1.839813414583375
 20
12.56156267757087
 30
0.0
 10
1.837702415000567
 20
12.56156269978538
 30
0.0
 10
1.835780228461687
 20
12.56156273276717
 30
0.0
 10
1.834037135820295
 20
12.56156277113976
 30
0.0
 10
1.832480578381383
 20
12.56156281903254
 30
0.0
 10
1.831102998201716
 20
12.56156287864409
 30
0.0
 10
1.829516367509955
 20
12.5615629633542
 30
0.0
 10
1.82774124612553
 20
12.56156310152061
 30
0.0
 10
1.825841999826868
 20
12.56156331773634
 30
0.0
 10
1.824145986986832
 20
12.56156357975617
 30
0.0
 10
1.822699581050337
 20
12.56156388599476
 30
0.0
 10
1.82151237824878
 20
12.56156422336293
 30
0.0
 10
1.820631412676732
 20
12.56156458365007
 30
0.0
 10
1.820110463519767
 20
12.56156496539055
 30
0.0
 10
1.820046655519233
 20
12.56156522614386
 30
0.0
 10
1.820014455847219
 20
12.56156535772878
 30
0.0
  0
LINE
  5
229
330
1F
100
AcDbEntity
  8
0
  6
Continuous
 62
     7
370
     5
100
AcDbLine
 10
1.862081768095168
 20
12.56156098519348
 30
0.0
 11
1.862081768095168
 21
12.5615626626741
 31
0.0
  0
LINE
  5
22A
330
1F
100
AcDbEntity
  8
0
  6
Continuous
 62
     7
370
     5
100
AcDbLine
 10
1.862081768095168
 20
12.5615626626741
 30
0.0
 11
1.84450364115919
 21
12.5615626626741
 31
0.0
  0
LINE
  5
22B
330
1F
100
AcDbEntity
  8
0
  6
Continuous
 62
     7
370
     5
100
AcDbLine
 10
1.931793297781628
 20
12.56156098519348
 30
0.0
 11
1.931793297781628
 21
12.5615626626741
 31
0.0
  0
SPLINE
  5
22C
330
1F
100
AcDbEntity
  8
0
  6
Continuous
 62
     7
370
     5
100
AcDbSpline
210
0.0
220
0.0
230
1.0
 70
     8
 71
     3
 72
    23
 73
    19
 74
     0
 42
0.0000000001
 43
0.0000000001
 40
0.0
 40
0.0
 40
0.0
 40
0.0
 40
0.0690506190121389
 40
0.1368251067921279
 40
0.203677513095279
 40
0.2727167816316371
 40
0.3415377580142911
 40
0.4105384209668041
 40
0.4812222195117411
 40
0.5548983414092895
 40
0.5949138566713575
 40
0.6393184903768921
 40
0.6877449585737665
 40
0.7408755717094551
 40
0.7988154299734415
 40
0.8610867137257965
 40
0.9283318503203956
 40
1.0
 40
1.0
 40
1.0
 40
1.0
 10
1.820014455847219
 20
12.56156535772878
 30
0.0
 10
1.820045932586117
 20
12.56156549262884
 30
0.0
 10
1.820108304339226
 20
12.56156575993586
 30
0.0
 10
1.820637119757764
 20
12.56156614885567
 30
0.0
 10
1.821470478356011
 20
12.56156652012632
 30
0.0
 10
1.8226525166991
 20
12.56156686437497
 30
0.0
 10
1.824123530867982
 20
12.56156717747514
 30
0.0
 10
1.825864664914871
 20
12.56156745128512
 30
0.0
 10
1.82790925759015
 20
12.56156766897832
 30
0.0
 10
1.829790593251496
 20
12.5615678186061
 30
0.0
 10
1.831475375530676
 20
12.56156791304848
 30
0.0
 10
1.832919957277909
 20
12.56156797406672
 30
0.0
 10
1.834524780846345
 20
12.56156802644055
 30
0.0
 10
1.83629246589972
 20
12.56156806831009
 30
0.0
 10
1.83822212890407
 20
12.5615681007982
 30
0.0
 10
1.840314631895809
 20
12.56156812203817
 30
0.0
 10
1.842561971131829
 20
12.56156814070903
 30
0.0
 10
1.844115369983241
 20
12.56156814058908
 30
0.0
 10
1.844916799597219
 20
12.5615681405272
 30
0.0
  0
LINE
  5
22D
330
1F
100
AcDbEntity
  8
0
  6
Continuous
 62
     7
370
     5
100
AcDbLine
 10
1.844916796386386
 20
12.56156813969416
 30
0.0
 11
1.862081768095168
 21
12.56156811677776
 31
0.0
  0
LINE
  5
22E
330
1F
100
AcDbEntity
  8
0
  6
Continuous
 62
     7
370
     5
100
AcDbLine
 10
1.862081768095168
 20
12.56156811677776
 30
0.0
 11
1.862081768095168
 21
12.5615626626741
 31
0.0
  0
LINE
  5
22F
330
1F
100
AcDbEntity
  8
0
  6
Continuous
 62
     7
370
     5
100
AcDbLine
 10
2.154843936081621
 20
12.56156098519348
 30
0.0
 11
2.154843936081621
 21
12.56156417515663
 31
0.0
  0
LINE
  5
230
330
1F
100
AcDbEntity
  8
0
  6
Continuous
 62
     7
370
     5
100
AcDbLine
 10
2.138317488663218
 20
12.56156697095766
 30
0.0
 11
2.138317488663218
 21
12.56157042445944
 31
0.0
  0
LINE
  5
231
330
1F
100
AcDbEntity
  8
0
  6
Continuous
 62
     7
370
     5
100
AcDbLine
 10
2.154843936081621
 20
12.56156417515663
 30
0.0
 11
2.138317488663218
 21
12.56157042445944
 31
0.0
  0
LINE
  5
232
330
1F
100
AcDbEntity
  8
0
  6
Continuous
 62
     7
370
     5
100
AcDbLine
 10
2.171821094126709
 20
12.56156704429015
 30
0.0
 11
2.171821094126709
 21
12.56157042445944
 31
0.0
  0
LINE
  5
233
330
1F
100
AcDbEntity
  8
0
  6
Continuous
 62
     7
370
     5
100
AcDbLine
 10
2.171821094126709
 20
12.56157042445944
 30
0.0
 11
2.154843936081621
 21
12.56156417515663
 31
0.0
  0
LINE
  5
234
330
1F
100
AcDbEntity
  8
0
  6
Continuous
 62
     7
370
     5
100
AcDbLine
 10
2.167929779079512
 20
12.56157042445944
 30
0.0
 11
2.171821094126709
 21
12.56157042445944
 31
0.0
  0
LINE
  5
235
330
1F
100
AcDbEntity
  8
0
  6
Continuous
 62
     7
370
     5
100
AcDbLine
 10
2.264125033657056
 20
12.56156098519348
 30
0.0
 11
2.264125033657056
 21
12.56156483285736
 31
0.0
  0
LINE
  5
236
330
1F
100
AcDbEntity
  8
0
  6
Continuous
 62
     7
370
     5
100
AcDbLine
 10
2.235917399514053
 20
12.56157253964334
 30
0.0
 11
2.235917399514053
 21
12.56157734750446
 31
0.0
  0
LINE
  5
237
330
1F
100
AcDbEntity
  8
0
  6
Continuous
 62
     7
370
     5
100
AcDbLine
 10
2.292670712228275
 20
12.56157239527
 30
0.0
 11
2.292670712228275
 21
12.56157734750446
 31
0.0
  0
LINE
  5
238
330
1F
100
AcDbEntity
  8
0
  6
Continuous
 62
     7
370
     5
100
AcDbLine
 10
1.972658687367827
 20
12.56156769740761
 30
0.0
 11
1.972658687367827
 21
12.56156937717987
 31
0.0
  0
LINE
  5
239
330
1F
100
AcDbEntity
  8
0
  6
Continuous
 62
     7
370
     5
100
AcDbLine
 10
2.020735611979092
 20
12.56156769740761
 30
0.0
 11
2.020735611979092
 21
12.56156937717987
 31
0.0
  0
LINE
  5
23A
330
1F
100
AcDbEntity
  8
0
  6
Continuous
 62
     7
370
     5
100
AcDbLine
 10
1.931793297781628
 20
12.56156769740761
 30
0.0
 11
1.931793297781628
 21
12.56156937717987
 31
0.0
  0
LINE
  5
23B
330
1F
100
AcDbEntity
  8
0
  6
Continuous
 62
     7
370
     5
100
AcDbLine
 10
1.862081768095168
 20
12.56156811677776
 30
0.0
 11
1.862081768095168
 21
12.56156979655002
 31
0.0
  0
LINE
  5
23C
330
1F
100
AcDbEntity
  8
0
  6
Continuous
 62
     7
370
     5
100
AcDbLine
 10
1.855245823731247
 20
12.56156812594432
 30
0.0
 11
1.855245823731247
 21
12.56156979655002
 31
0.0
  0
LINE
  5
23D
330
1F
100
AcDbEntity
  8
0
  6
Continuous
 62
     7
370
     5
100
AcDbLine
 10
1.820803223281773
 20
12.56157506732247
 30
0.0
 11
1.820803223281773
 21
12.56157734750446
 31
0.0
  0
LINE
  5
23E
330
1F
100
AcDbEntity
  8
0
  6
Continuous
 62
     7
370
     5
100
AcDbLine
 10
2.176384648074811
 20
12.56156872406241
 30
0.0
 11
2.176384648074811
 21
12.5615721042317
 31
0.0
  0
LINE
  5
23F
330
1F
100
AcDbEntity
  8
0
  6
Continuous
 62
     7
370
     5
100
AcDbLine
 10
2.133885401529734
 20
12.56156864843829
 30
0.0
 11
2.133885401529734
 21
12.5615721042317
 31
0.0
  0
LINE
  5
240
330
1F
100
AcDbEntity
  8
0
  6
Continuous
 62
     7
370
     5
100
AcDbLine
 10
2.190638705077395
 20
12.56157396962682
 30
0.0
 11
2.190638705077395
 21
12.56157734750446
 31
0.0
  0
LINE
  5
241
330
1F
100
AcDbEntity
  8
0
  6
Continuous
 62
     7
370
     5
100
AcDbLine
 10
2.120025722054601
 20
12.56157388941941
 30
0.0
 11
2.120025722054601
 21
12.56157734750446
 31
0.0
  0
LINE
  5
242
330
1F
100
AcDbEntity
  8
0
  6
Continuous
 62
     7
370
     5
100
AcDbLine
 10
1.979381947200156
 20
12.56159470667893
 30
0.0
 11
1.979381947200156
 21
12.56159974141243
 31
0.0
  0
LINE
  5
243
330
1F
100
AcDbEntity
  8
0
  6
Continuous
 62
     7
370
     5
100
AcDbLine
 10
1.985222540562456
 20
12.56159470667893
 30
0.0
 11
1.985222540562456
 21
12.56159974141243
 31
0.0
  0
SPLINE
  5
244
330
1F
100
AcDbEntity
  8
0
  6
Continuous
 62
     7
370
     5
100
AcDbSpline
210
0.0
220
0.0
230
1.0
 70
     8
 71
     3
 72
    31
 73
    27
 74
     0
 42
0.0000000001
 43
0.0000000001
 40
0.0
 40
0.0
 40
0.0
 40
0.0
 40
0.0433968752394249
 40
0.085799022024636
 40
0.127621090413508
 40
0.169139070268668
 40
0.210125044064571
 40
0.251123764898023
 40
0.292181919580111
 40
0.3335159511281279
 40
0.374777229072636
 40
0.415740886008131
 40
0.456776763084519
 40
0.497472733111046
 40
0.5384257586957791
 40
0.579813482448569
 40
0.621640756407267
 40
0.664254948540739
 40
0.7071522674986625
 40
0.749312393860449
 40
0.7911407088553711
 40
0.832692236904365
 40
0.8741440894063535
 40
0.9156746530099905
 40
0.9577831061983419
 40
1.0
 40
1.0
 40
1.0
 40
1.0
 10
2.091048109693373
 20
12.56160337415739
 30
0.0
 10
2.091037774770184
 20
12.56160321340951
 30
0.0
 10
2.091017341817408
 20
12.56160289559836
 30
0.0
 10
2.090730454327971
 20
12.56160242529334
 30
0.0
 10
2.090335393466163
 20
12.56160196461075
 30
0.0
 10
2.089722457742971
 20
12.56160151642645
 30
0.0
 10
2.088972369394189
 20
12.56160107813874
 30
0.0
 10
2.088058718079226
 20
12.56160065083725
 30
0.0
 10
2.086933839453114
 20
12.56160023794208
 30
0.0
 10
2.085686570172374
 20
12.56159983490113
 30
0.0
 10
2.084275388532411
 20
12.56159944898621
 30
0.0
 10
2.082735113528588
 20
12.56159907977802
 30
0.0
 10
2.08104452864257
 20
12.56159873388228
 30
0.0
 10
2.079233323503681
 20
12.56159840728555
 30
0.0
 10
2.07729294649029
 20
12.56159810216034
 30
0.0
 10
2.075228244019811
 20
12.56159781615237
 30
0.0
 10
2.073019630412189
 20
12.56159755386634
 30
0.0
 10
2.070697373142858
 20
12.56159731268543
 30
0.0
 10
2.068296909695162
 20
12.56159709298797
 30
0.0
 10
2.065822440030468
 20
12.56159690732398
 30
0.0
 10
2.063325311676643
 20
12.5615967451161
 30
0.0
 10
2.060783808328717
 20
12.56159661412248
 30
0.0
 10
2.058205818611996
 20
12.56159651172541
 30
0.0
 10
2.055582212949075
 20
12.56159644114355
 30
0.0
 10
2.05292453046873
 20
12.56159639181088
 30
0.0
 10
2.051134987409235
 20
12.56159638795383
 30
0.0
 10
2.050239065222219
 20
12.56159638602283
 30
0.0
  0
LINE
  5
245
330
1F
100
AcDbEntity
  8
0
  6
Continuous
 62
     7
370
     5
100
AcDbLine
 10
2.022162891324372
 20
12.56160845881173
 30
0.0
 11
2.039365418432644
 21
12.56160477614594
 31
0.0
  0
LINE
  5
246
330
1F
100
AcDbEntity
  8
0
  6
Continuous
 62
     7
370
     5
100
AcDbLine
 10
2.039365418432644
 20
12.56160477614594
 30
0.0
 11
2.049863464554153
 21
12.56160477614594
 31
0.0
  0
LINE
  5
247
330
1F
100
AcDbEntity
  8
0
  6
Continuous
 62
     7
370
     5
100
AcDbLine
 10
2.049863464554153
 20
12.56160477614594
 30
0.0
 11
2.028754691217004
 21
12.56160929296876
 31
0.0
  0
SPLINE
  5
248
330
1F
100
AcDbEntity
  8
0
  6
Continuous
 62
     7
370
     5
100
AcDbSpline
210
0.0
220
0.0
230
1.0
 70
     8
 71
     3
 72
    15
 73
    11
 74
     0
 42
0.0000000001
 43
0.0000000001
 40
0.0
 40
0.0
 40
0.0
 40
0.0
 40
0.121304668560147
 40
0.242251582129208
 40
0.364241292225983
 40
0.4862492174452021
 40
0.6115281986589006
 40
0.7377526061154445
 40
0.8674131658977884
 40
1.0
 40
1.0
 40
1.0
 40
1.0
 10
2.028754690222219
 20
12.56160929374979
 30
0.0
 10
2.029525019051884
 20
12.56160936895227
 30
0.0
 10
2.031063404836711
 20
12.56160951913542
 30
0.0
 10
2.033482845179508
 20
12.56160970897211
 30
0.0
 10
2.035975709648198
 20
12.56160986910314
 30
0.0
 10
2.038555221919992
 20
12.56161000074549
 30
0.0
 10
2.041206027954324
 20
12.56161010663371
 30
0.0
 10
2.043951114351321
 20
12.5616101762557
 30
0.0
 10
2.046765060919124
 20
12.56161022571998
 30
0.0
 10
2.048673325006019
 20
12.56161022934815
 30
0.0
 10
2.049638103683758
 20
12.56161023118248
 30
0.0
  0
SPLINE
  5
249
330
1F
100
AcDbEntity
  8
0
  6
Continuous
 62
     7
370
     5
100
AcDbSpline
210
0.0
220
0.0
230
1.0
 70
     8
 71
     3
 72
    23
 73
    19
 74
     0
 42
0.0000000001
 43
0.0000000001
 40
0.0
 40
0.0
 40
0.0
 40
0.0
 40
0.066257371756822
 40
0.130669702483478
 40
0.193406432668559
 40
0.255465604221613
 40
0.317253933891701
 40
0.379207448756893
 40
0.4421852892106719
 40
0.506748651891023
 40
0.57091641406456
 40
0.6331372440766286
 40
0.6938876635445736
 40
0.753895917316709
 40
0.8138437306341934
 40
0.8742733749771762
 40
0.9360920922942892
 40
1.0
 40
1.0
 40
1.0
 40
1.0
 10
2.049638103683758
 20
12.56161023118248
 30
0.0
 10
2.051042361942761
 20
12.56161022632352
 30
0.0
 10
2.053811774674486
 20
12.5616102167409
 30
0.0
 10
2.05787603536832
 20
12.56161011665099
 30
0.0
 10
2.061794543460333
 20
12.56160996564639
 30
0.0
 10
2.065541683531141
 20
12.56160974260333
 30
0.0
 10
2.069147035415336
 20
12.56160946485284
 30
0.0
 10
2.072583713871325
 20
12.56160912072601
 30
0.0
 10
2.075862510650626
 20
12.56160871511285
 30
0.0
 10
2.078955432156141
 20
12.56160825424598
 30
0.0
 10
2.081767140831844
 20
12.56160774554043
 30
0.0
 10
2.08427097238005
 20
12.5616072078937
 30
0.0
 10
2.086372205785786
 20
12.56160663761292
 30
0.0
 10
2.088061876581944
 20
12.56160603687018
 30
0.0
 10
2.089407838680988
 20
12.56160541155078
 30
0.0
 10
2.090369898831723
 20
12.56160475805048
 30
0.0
 10
2.090943706245386
 20
12.56160407543437
 30
0.0
 10
2.091012925142215
 20
12.56160361049169
 30
0.0
 10
2.091048109693373
 20
12.56160337415739
 30
0.0
  0
SPLINE
  5
24A
330
1F
100
AcDbEntity
  8
0
  6
Continuous
 62
     7
370
     5
100
AcDbSpline
210
0.0
220
0.0
230
1.0
 70
     8
 71
     3
 72
    31
 73
    27
 74
     0
 42
0.0000000001
 43
0.0000000001
 40
0.0
 40
0.0
 40
0.0
 40
0.0
 40
0.042150131673819
 40
0.0841925572643441
 40
0.125949219641065
 40
0.1676267424008
 40
0.2096890568488949
 40
0.2520236356330839
 40
0.2948040226155729
 40
0.3381984133284349
 40
0.3815552546602909
 40
0.423855505996131
 40
0.4657542429921681
 40
0.50695373578826
 40
0.5476587737647001
 40
0.58846749699842
 40
0.628939359589084
 40
0.6699256790233595
 40
0.710705267424437
 40
0.751323698838975
 40
0.7917139044846835
 40
0.8323550879864566
 40
0.8734540236175179
 40
0.9149176457400635
 40
0.9569600713305844
 40
1.0
 40
1.0
 40
1.0
 40
1.0
 10
2.050239065222219
 20
12.56159638602283
 30
0.0
 10
2.049349386522816
 20
12.56159638794045
 30
0.0
 10
2.047572302516864
 20
12.5615963917708
 30
0.0
 10
2.044927389252405
 20
12.56159644141815
 30
0.0
 10
2.042309790982586
 20
12.56159651164809
 30
0.0
 10
2.039726276823052
 20
12.56159661455663
 30
0.0
 10
2.037172317345848
 20
12.561596745296
 30
0.0
 10
2.034651217397113
 20
12.56159690652914
 30
0.0
 10
2.03216688103425
 20
12.56159709689509
 30
0.0
 10
2.029740168457943
 20
12.56159731673292
 30
0.0
 10
2.027385279291599
 20
12.56159755585759
 30
0.0
 10
2.025160837531684
 20
12.56159782077779
 30
0.0
 10
2.023055835702041
 20
12.56159810091159
 30
0.0
 10
2.021096212194702
 20
12.56159840303814
 30
0.0
 10
2.019288994953349
 20
12.56159872702794
 30
0.0
 10
2.017599340852058
 20
12.56159906620236
 30
0.0
 10
2.016045708580341
 20
12.56159942615085
 30
0.0
 10
2.014649966412346
 20
12.5615998050174
 30
0.0
 10
2.013383889952236
 20
12.56160019816866
 30
0.0
 10
2.012297857568174
 20
12.5616006050348
 30
0.0
 10
2.011370304623293
 20
12.56160102308838
 30
0.0
 10
2.010619303025862
 20
12.56160145367809
 30
0.0
 10
2.010036116002345
 20
12.56160189621938
 30
0.0
 10
2.0096332772561
 20
12.56160234981565
 30
0.0
 10
2.009348525709911
 20
12.56160281365645
 30
0.0
 10
2.009327816476525
 20
12.56160312709955
 30
0.0
 10
2.009317340462604
 20
12.5616032856585
 30
0.0
  0
SPLINE
  5
24B
330
1F
100
AcDbEntity
  8
0
  6
Continuous
 62
     7
370
     5
100
AcDbSpline
210
0.0
220
0.0
230
1.0
 70
     8
 71
     3
 72
    15
 73
    11
 74
     0
 42
0.0000000001
 43
0.0000000001
 40
0.0
 40
0.0
 40
0.0
 40
0.0
 40
0.1273122088526489
 40
0.251836711903621
 40
0.3736932732582879
 40
0.4949402063822451
 40
0.6172702731887665
 40
0.741282007586851
 40
0.868473736423069
 40
1.0
 40
1.0
 40
1.0
 40
1.0
 10
2.009317340462604
 20
12.5616032856585
 30
0.0
 10
2.009357434659429
 20
12.56160353187279
 30
0.0
 10
2.009436745126083
 20
12.56160401891013
 30
0.0
 10
2.010055497307092
 20
12.56160473492126
 30
0.0
 10
2.011043699807248
 20
12.56160542565829
 30
0.0
 10
2.012474032085172
 20
12.56160608797666
 30
0.0
 10
2.014271753230719
 20
12.56160672712432
 30
0.0
 10
2.016517195699294
 20
12.5616073350937
 30
0.0
 10
2.019127870776731
 20
12.56160791997222
 30
0.0
 10
2.02113998225387
 20
12.56160827661698
 30
0.0
 10
2.022162893347219
 20
12.56160845792695
 30
0.0
  0
LINE
  5
24C
330
1F
100
AcDbEntity
  8
0
  6
Continuous
 62
     7
370
     5
100
AcDbLine
 10
2.155951953281712
 20
12.56159512834072
 30
0.0
 11
2.155951953281712
 21
12.56159680582134
 31
0.0
  0
LINE
  5
24D
330
1F
100
AcDbEntity
  8
0
  6
Continuous
 62
     7
370
     5
100
AcDbLine
 10
1.948019265337866
 20
12.56159512834072
 30
0.0
 11
1.948019265337866
 21
12.56159680582134
 31
0.0
  0
SPLINE
  5
24E
330
1F
100
AcDbEntity
  8
0
  6
Continuous
 62
     7
370
     5
100
AcDbSpline
210
0.0
220
0.0
230
1.0
 70
     8
 71
     3
 72
    15
 73
    11
 74
     0
 42
0.0000000001
 43
0.0000000001
 40
0.0
 40
0.0
 40
0.0
 40
0.0
 40
0.1670241602395119
 40
0.3218097900065859
 40
0.4644071265810251
 40
0.594888516565721
 40
0.713417472353437
 40
0.8207154857860965
 40
0.9156813830414126
 40
1.0
 40
1.0
 40
1.0
 40
1.0
 10
1.941427466664526
 20
12.56159680557312
 30
0.0
 10
1.939812274791049
 20
12.56159680641922
 30
0.0
 10
1.93670024263427
 20
12.56159680804942
 30
0.0
 10
1.932210967511923
 20
12.56159683192287
 30
0.0
 10
1.928078315155171
 20
12.56159686731868
 30
0.0
 10
1.924300499286537
 20
12.5615969144768
 30
0.0
 10
1.920874614435277
 20
12.56159698019798
 30
0.0
 10
1.917804565789847
 20
12.56159705782383
 30
0.0
 10
1.915076723003449
 20
12.56159714583224
 30
0.0
 10
1.913405064335196
 20
12.56159722651204
 30
0.0
 10
1.912618872914526
 20
12.56159726445625
 30
0.0
  0
LINE
  5
24F
330
1F
100
AcDbEntity
  8
0
  6
Continuous
 62
     7
370
     5
100
AcDbLine
 10
2.235278875223674
 20
12.56159680582134
 30
0.0
 11
2.217700757454256
 21
12.56159680582134
 31
0.0
  0
LINE
  5
250
330
1F
100
AcDbEntity
  8
0
  6
Continuous
 62
     7
370
     5
100
AcDbLine
 10
2.235278875223674
 20
12.56159512834072
 30
0.0
 11
2.235278875223674
 21
12.56159680582134
 31
0.0
  0
SPLINE
  5
251
330
1F
100
AcDbEntity
  8
0
  6
Continuous
 62
     7
370
     5
100
AcDbSpline
210
0.0
220
0.0
230
1.0
 70
     8
 71
     3
 72
    23
 73
    19
 74
     0
 42
0.0000000001
 43
0.0000000001
 40
0.0
 40
0.0
 40
0.0
 40
0.0
 40
0.0749140613226159
 40
0.144716810486922
 40
0.2088885770519541
 40
0.268065700770418
 40
0.321121214303353
 40
0.3693533312372079
 40
0.4123484235823511
 40
0.4506919934902161
 40
0.520831233486555
 40
0.5890345558610365
 40
0.6570866804385089
 40
0.7269362613753997
 40
0.7959806464887541
 40
0.8636351754477788
 40
0.9311857041756804
 40
1.0
 40
1.0
 40
1.0
 40
1.0
 10
2.217700753924142
 20
12.56159680557312
 30
0.0
 10
2.216880629381903
 20
12.56159680590972
 30
0.0
 10
2.215296336582132
 20
12.56159680655996
 30
0.0
 10
2.21301052996799
 20
12.56159681971474
 30
0.0
 10
2.210899530385183
 20
12.56159684192926
 30
0.0
 10
2.208977343846302
 20
12.56159687491104
 30
0.0
 10
2.207234251204911
 20
12.56159691328364
 30
0.0
 10
2.205677693765998
 20
12.56159696117642
 30
0.0
 10
2.204300113586331
 20
12.56159702078797
 30
0.0
 10
2.202713482894571
 20
12.56159710549808
 30
0.0
 10
2.200938361510146
 20
12.56159724366449
 30
0.0
 10
2.199039115211482
 20
12.56159745988022
 30
0.0
 10
2.197343102371448
 20
12.56159772190004
 30
0.0
 10
2.195896696434952
 20
12.56159802813864
 30
0.0
 10
2.194709493633395
 20
12.56159836550681
 30
0.0
 10
2.193828528061347
 20
12.56159872579395
 30
0.0
 10
2.193307578904382
 20
12.56159910753443
 30
0.0
 10
2.193243770903848
 20
12.56159936828773
 30
0.0
 10
2.193211571231835
 20
12.56159949987265
 30
0.0
  0
SPLINE
  5
252
330
1F
100
AcDbEntity
  8
0
  6
Continuous
 62
     7
370
     5
100
AcDbSpline
210
0.0
220
0.0
230
1.0
 70
     8
 71
     3
 72
    23
 73
    19
 74
     0
 42
0.0000000001
 43
0.0000000001
 40
0.0
 40
0.0
 40
0.0
 40
0.0
 40
0.06399298672559
 40
0.1259203143629199
 40
0.186874199696386
 40
0.2465583782195529
 40
0.305883684810351
 40
0.365134517377784
 40
0.425000007181729
 40
0.48566609235412
 40
0.546915601002846
 40
0.6082057282133056
 40
0.6699759965918199
 40
0.732825944705529
 40
0.796773752818592
 40
0.862187393809804
 40
0.9298488240027216
 40
1.0
 40
1.0
 40
1.0
 40
1.0
 10
1.912618872914526
 20
12.56159726445625
 30
0.0
 10
1.911668543390203
 20
12.56159731881277
 30
0.0
 10
1.909798560465914
 20
12.5615974257712
 30
0.0
 10
1.907110729987774
 20
12.56159762687002
 30
0.0
 10
1.904599470413039
 20
12.56159786382969
 30
0.0
 10
1.902227940968904
 20
12.56159812873175
 30
0.0
 10
1.900052007501371
 20
12.56159843325732
 30
0.0
 10
1.898010345755068
 20
12.56159876515489
 30
0.0
 10
1.896125223987187
 20
12.56159912959326
 30
0.0
 10
1.894426592022169
 20
12.56159952740261
 30
0.0
 10
1.892875609785275
 20
12.56159994803178
 30
0.0
 10
1.891572039626304
 20
12.56160039685348
 30
0.0
 10
1.890431111722121
 20
12.56160086350859
 30
0.0
 10
1.889516891753047
 20
12.56160135292548
 30
0.0
 10
1.888799471591295
 20
12.56160186239734
 30
0.0
 10
1.888303358497562
 20
12.56160239291813
 30
0.0
 10
1.887963868039818
 20
12.56160294452333
 30
0.0
 10
1.887936858462051
 20
12.56160332045876
 30
0.0
 10
1.887923109693373
 20
12.56160351182233
 30
0.0
  0
SPLINE
  5
253
330
1F
100
AcDbEntity
  8
0
  6
Continuous
 62
     7
370
     5
100
AcDbSpline
210
0.0
220
0.0
230
1.0
 70
     8
 71
     3
 72
    23
 73
    19
 74
     0
 42
0.0000000001
 43
0.0000000001
 40
0.0
 40
0.0
 40
0.0
 40
0.0
 40
0.071535599266509
 40
0.140327671697169
 40
0.2071051852187651
 40
0.2721942773329849
 40
0.3355367880535249
 40
0.397696604101625
 40
0.459149464239947
 40
0.5204693355422031
 40
0.5811183591499511
 40
0.6403199251033661
 40
0.6994211174490186
 40
0.758217005361053
 40
0.816875462307806
 40
0.8766617685266817
 40
0.9375854997367273
 40
1.0
 40
1.0
 40
1.0
 40
1.0
 10
1.887923109693373
 20
12.56160351182233
 30
0.0
 10
1.887940334385323
 20
12.56160369330765
 30
0.0
 10
1.887974123169393
 20
12.56160404931799
 30
0.0
 10
1.888263803288853
 20
12.5616045727451
 30
0.0
 10
1.888728928859205
 20
12.56160507556921
 30
0.0
 10
1.889385596292419
 20
12.56160555769642
 30
0.0
 10
1.890223415737496
 20
12.56160601916065
 30
0.0
 10
1.891290867476551
 20
12.56160645583646
 30
0.0
 10
1.892508846835718
 20
12.56160687442952
 30
0.0
 10
1.89391531926518
 20
12.56160727035338
 30
0.0
 10
1.895486952514936
 20
12.56160763971566
 30
0.0
 10
1.897211465051368
 20
12.56160798021743
 30
0.0
 10
1.899071039595315
 20
12.56160829143607
 30
0.0
 10
1.901061932151504
 20
12.56160857495546
 30
0.0
 10
1.90320773640024
 20
12.5616088246105
 30
0.0
 10
1.905478013310716
 20
12.56160904920665
 30
0.0
 10
1.907912328092973
 20
12.56160923881327
 30
0.0
 10
1.909603407687187
 20
12.56160934275872
 30
0.0
 10
1.91045916738568
 20
12.56160939535963
 30
0.0
  0
SPLINE
  5
254
330
1F
100
AcDbEntity
  8
0
  6
Continuous
 62
     7
370
     5
100
AcDbSpline
210
0.0
220
0.0
230
1.0
 70
     8
 71
     3
 72
    15
 73
    11
 74
     0
 42
0.0000000001
 43
0.0000000001
 40
0.0
 40
0.0
 40
0.0
 40
0.0
 40
0.0786771796560301
 40
0.170257613041548
 40
0.2749761965325109
 40
0.393253809687638
 40
0.524451164119085
 40
0.6693720679041205
 40
0.8280993353867319
 40
1.0
 40
1.0
 40
1.0
 40
1.0
 10
1.91045916738568
 20
12.56160939535963
 30
0.0
 10
1.911139076123075
 20
12.56160942981918
 30
0.0
 10
1.912610400326878
 20
12.56160950438974
 30
0.0
 10
1.915041880460579
 20
12.56160958665763
 30
0.0
 10
1.917846445189578
 20
12.56160965269139
 30
0.0
 10
1.921014901197542
 20
12.56160971191703
 30
0.0
 10
1.924553870199145
 20
12.56160975668042
 30
0.0
 10
1.928461354033186
 20
12.5616097886664
 30
0.0
 10
1.932737907531999
 20
12.56160980824153
 30
0.0
 10
1.935712000346628
 20
12.56160981047234
 30
0.0
 10
1.93725829599145
 20
12.56160981163219
 30
0.0
  0
LINE
  5
255
330
1F
100
AcDbEntity
  8
0
  6
Continuous
 62
     7
370
     5
100
AcDbLine
 10
1.948019265337866
 20
12.56160981087944
 30
0.0
 11
1.948019265337866
 21
12.56159680582134
 31
0.0
  0
SPLINE
  5
256
330
1F
100
AcDbEntity
  8
0
  6
Continuous
 62
     7
370
     5
100
AcDbSpline
210
0.0
220
0.0
230
1.0
 70
     8
 71
     3
 72
    23
 73
    19
 74
     0
 42
0.0000000001
 43
0.0000000001
 40
0.0
 40
0.0
 40
0.0
 40
0.0
 40
0.0690506190121559
 40
0.1368251067921289
 40
0.203677513095295
 40
0.272716781631638
 40
0.3415377580142921
 40
0.4105384209667951
 40
0.4812222195117491
 40
0.5548983414092975
 40
0.5949138566713551
 40
0.6393184903768901
 40
0.6877449585737646
 40
0.740875571709454
 40
0.7988154299734425
 40
0.8610867137257963
 40
0.9283318503203949
 40
1.0
 40
1.0
 40
1.0
 40
1.0
 10
2.193211571231835
 20
12.56159949987265
 30
0.0
 10
2.193243047970732
 20
12.56159963477272
 30
0.0
 10
2.193305419723842
 20
12.56159990207974
 30
0.0
 10
2.19383423514238
 20
12.56160029099955
 30
0.0
 10
2.194667593740626
 20
12.5616006622702
 30
0.0
 10
2.195849632083715
 20
12.56160100651884
 30
0.0
 10
2.197320646252598
 20
12.56160131961901
 30
0.0
 10
2.199061780299488
 20
12.561601593429
 30
0.0
 10
2.201106372974765
 20
12.56160181112219
 30
0.0
 10
2.202987708636111
 20
12.56160196074997
 30
0.0
 10
2.204672490915291
 20
12.56160205519235
 30
0.0
 10
2.206117072662525
 20
12.5616021162106
 30
0.0
 10
2.207721896230961
 20
12.56160216858443
 30
0.0
 10
2.209489581284335
 20
12.56160221045397
 30
0.0
 10
2.211419244288685
 20
12.56160224294208
 30
0.0
 10
2.213511747280425
 20
12.56160226418204
 30
0.0
 10
2.215759086516444
 20
12.5616022828529
 30
0.0
 10
2.217312485367857
 20
12.56160228273296
 30
0.0
 10
2.218113914981835
 20
12.56160228267108
 30
0.0
  0
LINE
  5
257
330
1F
100
AcDbEntity
  8
0
  6
Continuous
 62
     7
370
     5
100
AcDbLine
 10
2.218113921848013
 20
12.56160228284141
 30
0.0
 11
2.235278875223674
 21
12.561602259925
 31
0.0
  0
LINE
  5
258
330
1F
100
AcDbEntity
  8
0
  6
Continuous
 62
     7
370
     5
100
AcDbLine
 10
2.235278875223674
 20
12.561602259925
 30
0.0
 11
2.235278875223674
 21
12.56159680582134
 31
0.0
  0
LINE
  5
259
330
1F
100
AcDbEntity
  8
0
  6
Continuous
 62
     7
370
     5
100
AcDbLine
 10
2.155951953281712
 20
12.56160184055485
 30
0.0
 11
2.155951953281712
 21
12.56160351803547
 31
0.0
  0
LINE
  5
25A
330
1F
100
AcDbEntity
  8
0
  6
Continuous
 62
     7
370
     5
100
AcDbLine
 10
2.228442949192874
 20
12.56160226909156
 30
0.0
 11
2.228442949192874
 21
12.56160393740562
 31
0.0
  0
LINE
  5
25B
330
1F
100
AcDbEntity
  8
0
  6
Continuous
 62
     7
370
     5
100
AcDbLine
 10
2.194000330410279
 20
12.56160920817807
 30
0.0
 11
2.194000330410279
 21
12.5616114906517
 31
0.0
  0
LINE
  5
25C
330
1F
100
AcDbEntity
  8
0
  6
Continuous
 62
     7
370
     5
100
AcDbLine
 10
2.235278875223674
 20
12.561602259925
 30
0.0
 11
2.235278875223674
 21
12.56160393740562
 31
0.0
  0
LINE
  5
25D
330
1F
100
AcDbEntity
  8
0
  6
Continuous
 62
     7
370
     5
100
AcDbLine
 10
2.028754691217004
 20
12.56160704716137
 30
0.0
 11
2.028754691217004
 21
12.56160929296876
 31
0.0
  0
LINE
  5
25E
330
1F
100
AcDbEntity
  8
0
  6
Continuous
 62
     7
370
     5
100
AcDbLine
 10
2.02300799322835
 20
12.56160827777215
 30
0.0
 11
2.02300799322835
 21
12.56161052587118
 31
0.0
  0
LINE
  5
25F
330
1F
100
AcDbEntity
  8
0
  6
Continuous
 62
     7
370
     5
100
AcDbLine
 10
2.012603850501227
 20
12.56161050295478
 30
0.0
 11
2.012603850501227
 21
12.56161274876217
 31
0.0
  0
LINE
  5
260
330
1F
100
AcDbEntity
  8
0
  6
Continuous
 62
     7
370
     5
100
AcDbLine
 10
2.794004807440693
 20
12.45864861925425
 30
0.0
 11
2.794004807440693
 21
12.48845966362452
 31
0.0
  0
LINE
  5
261
330
1F
100
AcDbEntity
  8
0
  6
Continuous
 62
     7
370
     5
100
AcDbLine
 10
1.334004873484517
 20
12.48845966362452
 30
0.0
 11
1.334004873484517
 21
12.45864861925425
 31
0.0
  0
LINE
  5
262
330
1F
100
AcDbEntity
  8
0
  6
Continuous
 62
     7
370
     5
100
AcDbLine
 10
2.794004807440693
 20
12.16343843871411
 30
0.0
 11
1.334004873484517
 21
12.16343843871411
 31
0.0
  0
LINE
  5
263
330
1F
100
AcDbEntity
  8
0
  6
Continuous
 62
     7
370
     5
100
AcDbLine
 10
2.794004807440693
 20
12.45864861925425
 30
0.0
 11
2.794004807440693
 21
12.16343843871411
 31
0.0
  0
LINE
  5
264
330
1F
100
AcDbEntity
  8
0
  6
Continuous
 62
     7
370
     5
100
AcDbLine
 10
1.334004873484517
 20
12.16343843871411
 30
0.0
 11
1.334004873484517
 21
12.45864861925425
 31
0.0
  0
LINE
  5
265
330
1F
100
AcDbEntity
  8
0
  6
Continuous
 62
     7
370
     5
100
AcDbLine
 10
1.439004820516169
 20
12.44341408857818
 30
0.0
 11
2.689004860409041
 21
12.44341408857818
 31
0.0
  0
LINE
  5
266
330
1F
100
AcDbEntity
  8
0
  6
Continuous
 62
     7
370
     5
100
AcDbLine
 10
1.439004820516169
 20
12.48841408748435
 30
0.0
 11
1.439004820516169
 21
12.44341408857818
 31
0.0
  0
LINE
  5
267
330
1F
100
AcDbEntity
  8
0
  6
Continuous
 62
     7
370
     5
100
AcDbLine
 10
2.689004860409041
 20
12.48841408748435
 30
0.0
 11
2.689004860409041
 21
12.44341408857818
 31
0.0
  0
LINE
  5
268
330
1F
100
AcDbEntity
  8
0
  6
PHANTOM
 62
     8
370
     5
100
AcDbLine
 10
2.426504846164939
 20
12.56141408418216
 30
0.0
 11
2.426504846164939
 21
12.48841408748435
 31
0.0
  0
LINE
  5
269
330
1F
100
AcDbEntity
  8
0
  6
PHANTOM
 62
     8
370
     5
100
AcDbLine
 10
1.701504834760271
 20
12.56141408418216
 30
0.0
 11
1.701504834760271
 21
12.48841408748435
 31
0.0
  0
LINE
  5
26A
330
1F
100
AcDbEntity
  8
0
  6
PHANTOM
 62
     8
370
     5
100
AcDbLine
 10
1.675016077427323
 20
12.56703206303279
 30
0.0
 11
1.452993615583081
 21
12.56703206303279
 31
0.0
  0
LINE
  5
26B
330
1F
100
AcDbEntity
  8
0
  6
PHANTOM
 62
     8
370
     5
100
AcDbLine
 10
2.452993603497887
 20
12.56703206303279
 30
0.0
 11
2.675016065342129
 21
12.56703206303279
 31
0.0
  0
LINE
  5
26C
330
1F
100
AcDbEntity
  8
0
  6
PHANTOM
 62
     8
370
     5
100
AcDbLine
 10
2.923622836748824
 20
11.90373811212778
 30
0.0
 11
2.923622836748824
 21
11.68171565028353
 31
0.0
  0
LINE
  5
26D
330
1F
100
AcDbEntity
  8
0
  6
PHANTOM
 62
     8
370
     5
100
AcDbLine
 10
1.204386844176385
 20
11.68171565028353
 30
0.0
 11
1.204386844176385
 21
11.90373811212778
 31
0.0
  0
LINE
  5
26E
330
1F
100
AcDbEntity
  8
0
  6
PHANTOM
 62
     8
370
     5
100
AcDbLine
 10
2.923622836748824
 20
12.24373809775226
 30
0.0
 11
2.923622836748824
 21
12.02171563590802
 31
0.0
  0
LINE
  5
26F
330
1F
100
AcDbEntity
  8
0
  6
PHANTOM
 62
     8
370
     5
100
AcDbLine
 10
1.204386844176385
 20
12.02171563590802
 30
0.0
 11
1.204386844176385
 21
12.24373809775226
 31
0.0
  0
LINE
  5
270
330
1F
100
AcDbEntity
  8
0
  6
PHANTOM
 62
     8
370
     5
100
AcDbLine
 10
1.444004849422075
 20
12.56160825027247
 30
0.0
 11
1.444004849422075
 21
12.56145989636127
 31
0.0
  0
LINE
  5
271
330
1F
100
AcDbEntity
  8
0
  6
PHANTOM
 62
     8
370
     5
100
AcDbLine
 10
1.684004843588329
 20
12.56145989636127
 30
0.0
 11
1.684004843588329
 21
12.56160825027247
 31
0.0
  0
LINE
  5
272
330
1F
100
AcDbEntity
  8
0
  6
PHANTOM
 62
     8
370
     5
100
AcDbLine
 10
2.795004842554869
 20
12.56164315882754
 30
0.0
 11
2.795004842554869
 21
12.56146045552147
 31
0.0
  0
LINE
  5
273
330
1F
100
AcDbEntity
  8
0
  6
PHANTOM
 62
     8
370
     5
100
AcDbLine
 10
1.333004838370341
 20
12.56164315882754
 30
0.0
 11
1.333004838370341
 21
12.56146045552147
 31
0.0
  0
LINE
  5
274
330
1F
100
AcDbEntity
  8
0
  6
PHANTOM
 62
     8
370
     5
100
AcDbLine
 10
2.444004837336881
 20
12.56160825027247
 30
0.0
 11
2.444004837336881
 21
12.56145989636127
 31
0.0
  0
LINE
  5
275
330
1F
100
AcDbEntity
  8
0
  6
PHANTOM
 62
     8
370
     5
100
AcDbLine
 10
2.684004831503135
 20
12.56145989636127
 30
0.0
 11
2.684004831503135
 21
12.56160825027247
 31
0.0
  0
ARC
  5
276
330
1F
100
AcDbEntity
  8
0
  6
PHANTOM
 62
     8
370
     5
100
AcDbCircle
 10
2.444004838473972
 20
12.57145989689604
 30
0.0
 40
0.0100000005347739
100
AcDbArc
 50
269.9999934849479
 51
334.0107729312142
  0
ARC
  5
277
330
1F
100
AcDbEntity
  8
0
  6
PHANTOM
 62
     8
370
     5
100
AcDbCircle
 10
2.684004846134739
 20
12.57145992212595
 30
0.0
 40
0.0100000257646962
100
AcDbArc
 50
205.9893174165305
 51
269.9999161673015
  0
ARC
  5
278
330
1F
100
AcDbEntity
  8
0
  6
PHANTOM
 62
     8
370
     5
100
AcDbCircle
 10
1.684004842451237
 20
12.57145989689604
 30
0.0
 40
0.0100000005347739
100
AcDbArc
 50
205.9892270687891
 51
270.0000065150588
  0
ARC
  5
279
330
1F
100
AcDbEntity
  8
0
  6
PHANTOM
 62
     8
370
     5
100
AcDbCircle
 10
1.444004834790471
 20
12.57145992212595
 30
0.0
 40
0.0100000257646958
100
AcDbArc
 50
270.0000838326976
 51
334.01068258347
  0
ARC
  5
27A
330
1F
100
AcDbEntity
  8
0
  6
PHANTOM
 62
     8
370
     5
100
AcDbCircle
 10
2.564004834420008
 20
12.51295991824127
 30
0.0
 40
0.1234999864676863
100
AcDbArc
 50
25.98922603416084
 51
154.0107739658392
  0
ARC
  5
27B
330
1F
100
AcDbEntity
  8
0
  6
PHANTOM
 62
     8
370
     5
100
AcDbCircle
 10
1.564004846505202
 20
12.51295991824127
 30
0.0
 40
0.1234999864676846
100
AcDbArc
 50
25.98922603415932
 51
154.0107739658407
  0
LINE
  5
27C
330
1F
100
AcDbEntity
  8
0
  6
PHANTOM
 62
     8
370
     5
100
AcDbLine
 10
1.452993615583081
 20
12.5670778752119
 30
0.0
 11
1.452993615583081
 21
12.56722622683146
 31
0.0
  0
LINE
  5
27D
330
1F
100
AcDbEntity
  8
0
  6
PHANTOM
 62
     8
370
     5
100
AcDbLine
 10
1.675016077427323
 20
12.56722622683146
 30
0.0
 11
1.675016077427323
 21
12.5670778752119
 31
0.0
  0
LINE
  5
27E
330
1F
100
AcDbEntity
  8
0
  6
PHANTOM
 62
     8
370
     5
100
AcDbLine
 10
2.675016065342129
 20
12.5670778752119
 30
0.0
 11
2.675016065342129
 21
12.56722622683146
 31
0.0
  0
LINE
  5
27F
330
1F
100
AcDbEntity
  8
0
  6
PHANTOM
 62
     8
370
     5
100
AcDbLine
 10
2.452993603497887
 20
12.56722622683146
 30
0.0
 11
2.452993603497887
 21
12.5670778752119
 31
0.0
  0
ARC
  5
280
330
1F
100
AcDbEntity
  8
0
  6
PHANTOM
 62
     8
370
     5
100
AcDbCircle
 10
2.444004842955265
 20
12.57160824542465
 30
0.0
 40
0.009999995152185
100
AcDbArc
 50
269.9999678090162
 51
334.0107775989401
  0
ARC
  5
281
330
1F
100
AcDbEntity
  8
0
  6
PHANTOM
 62
     8
370
     5
100
AcDbCircle
 10
1.444004839271846
 20
12.57160827065444
 30
0.0
 40
0.0100000203819784
100
AcDbArc
 50
270.0000581564112
 51
334.0106872515524
  0
LINE
  5
282
330
1F
100
AcDbEntity
  8
0
  6
PHANTOM
 62
     8
370
     5
100
AcDbLine
 10
1.941427463153594
 20
12.56159512834072
 30
0.0
 11
1.941427463153594
 21
12.56159680582134
 31
0.0
  0
LINE
  5
283
330
1F
100
AcDbEntity
  8
0
  6
PHANTOM
 62
     8
370
     5
100
AcDbLine
 10
1.334004873484517
 20
12.45864861925425
 30
0.0
 11
1.439004820516169
 21
12.45864861925425
 31
0.0
  0
LINE
  5
284
330
1F
100
AcDbEntity
  8
0
  6
PHANTOM
 62
     8
370
     5
100
AcDbLine
 10
2.689004860409041
 20
12.45864861925425
 30
0.0
 11
2.794004807440693
 21
12.45864861925425
 31
0.0
  0
ARC
  5
285
330
1F
100
AcDbEntity
  8
0
  6
Continuous
 62
     7
370
     5
100
AcDbCircle
 10
6.777119605469823
 20
0.3492668502075783
 30
0.0
 40
0.0100000000000004
100
AcDbArc
 50
180.0099993691581
 51
244.0207664161653
  0
ARC
  5
286
330
1F
100
AcDbEntity
  8
0
  6
Continuous
 62
     7
370
     5
100
AcDbCircle
 10
6.777309846359584
 20
-0.7407331461370142
 30
0.0
 40
0.0100000000000007
100
AcDbArc
 50
115.9992335838337
 51
180.010000630846
  0
ARC
  5
287
330
1F
100
AcDbEntity
  8
0
  6
Continuous
 62
     7
370
     5
100
AcDbCircle
 10
6.777094737773412
 20
0.6342470593720597
 30
0.0
 40
0.0100000000000007
100
AcDbArc
 50
115.989233583834
 51
180.0
  0
ARC
  5
288
330
1F
100
AcDbEntity
  8
0
  6
Continuous
 62
     7
370
     5
100
AcDbCircle
 10
6.777094737773412
 20
5.974247059372059
 30
0.0
 40
0.0100000000000007
100
AcDbArc
 50
180.0
 51
244.0107664161682
  0
ARC
  5
289
330
1F
100
AcDbEntity
  8
0
  6
Continuous
 62
     7
370
     5
100
AcDbCircle
 10
6.718594737773412
 20
0.7542470593720602
 30
0.0
 40
0.1235000000000008
100
AcDbArc
 50
295.989233583834
 51
0.000000000000206
  0
ARC
  5
28A
330
1F
100
AcDbEntity
  8
0
  6
Continuous
 62
     7
370
     5
100
AcDbCircle
 10
6.718594737773412
 20
5.85424705937206
 30
0.0
 40
0.1235000000000008
100
AcDbArc
 50
0.000000000000206
 51
64.01076641616661
  0
LINE
  5
28B
330
1F
100
AcDbEntity
  8
0
  6
Continuous
 62
     7
370
     5
100
AcDbLine
 10
6.842094734869449
 20
0.7542470066196022
 30
0.0
 11
6.842094734869449
 21
5.854247010984352
 31
0.0
  0
LINE
  5
28C
330
1F
100
AcDbEntity
  8
0
  6
Continuous
 62
     7
370
     5
100
AcDbLine
 10
6.842288900959759
 20
-0.6207218562894296
 30
0.0
 11
6.842140549340196
 21
0.229278217770515
 31
0.0
  0
ARC
  5
28D
330
1F
100
AcDbEntity
  8
0
  6
Continuous
 62
     7
370
     5
100
AcDbCircle
 10
6.718788903299672
 20
-0.6207433581407909
 30
0.0
 40
0.1234999999999998
100
AcDbArc
 50
295.9992335838337
 51
0.0099999999999664
  0
ARC
  5
28E
330
1F
100
AcDbEntity
  8
0
  6
Continuous
 62
     7
370
     5
100
AcDbCircle
 10
6.718640550311747
 20
0.2292566418592107
 30
0.0
 40
0.1234999999999994
100
AcDbArc
 50
0.0099999999999794
 51
64.02076641616712
  0
LINE
  5
28F
330
1F
100
AcDbEntity
  8
0
  6
Continuous
 62
     7
370
     5
100
AcDbLine
 10
6.458407516423604
 20
4.204247060257915
 30
0.0
 11
6.458407516423604
 21
4.194247057445468
 31
0.0
  0
LINE
  5
290
330
1F
100
AcDbEntity
  8
0
  6
Continuous
 62
     7
370
     5
100
AcDbLine
 10
6.21840752225735
 20
4.194247057445468
 30
0.0
 11
6.21840752225735
 21
4.204247060257915
 31
0.0
  0
LINE
  5
291
330
1F
100
AcDbEntity
  8
0
  6
Continuous
 62
     7
370
     5
100
AcDbLine
 10
6.118407494132875
 20
4.204247060257915
 30
0.0
 11
6.118407494132875
 21
4.194247057445468
 31
0.0
  0
LINE
  5
292
330
1F
100
AcDbEntity
  8
0
  6
Continuous
 62
     7
370
     5
100
AcDbLine
 10
5.878407499966621
 20
4.194247057445468
 30
0.0
 11
5.878407499966621
 21
4.204247060257915
 31
0.0
  0
LINE
  5
293
330
1F
100
AcDbEntity
  8
0
  6
Continuous
 62
     7
370
     5
100
AcDbLine
 10
6.767323811337871
 20
-0.8207488255608115
 30
0.0
 11
6.767141108031808
 21
0.2260668415352739
 31
0.0
  0
LWPOLYLINE
  5
294
330
1F
100
AcDbEntity
  8
0
  6
Continuous
 62
     7
370
     5
100
AcDbPolyline
 90
        9
 70
   128
 43
0.0
 10
6.767323811337871
 20
-0.8207488255608115
 10
6.764960401556849
 20
-0.8207494122207011
 10
6.75796099449793
 20
-0.82075058554048
 10
6.74659457429337
 20
-0.8207523455201485
 10
6.731297946470069
 20
-0.8207552788195963
 10
6.712658950539341
 20
-0.8207582121190439
 10
6.691393877028618
 20
-0.8207623187382704
 10
6.668319924830883
 20
-0.8207658386976076
 10
6.644323812036025
 20
-0.8207705319767237
  0
SPLINE
  5
295
330
1F
100
AcDbEntity
  8
0
  6
Continuous
 62
     7
370
     5
100
AcDbSpline
210
0.0
220
0.0
230
1.0
 70
     8
 71
     3
 72
    10
 73
     6
 74
     0
 42
0.0000000001
 43
0.0000000001
 40
0.0
 40
0.0
 40
0.0
 40
0.0
 40
0.5
 40
0.5
 40
1.0
 40
1.0
 40
1.0
 40
1.0
 10
6.644143560531272
 20
0.212002853257589
 30
0.0
 10
6.657115147323225
 20
0.2016326479989438
 30
0.0
 10
6.671334677598503
 20
0.1937047866109569
 30
0.0
 10
6.700120202657762
 20
0.1828057553597392
 30
0.0
 10
6.714673774867703
 20
0.1798235881976179
 30
0.0
 10
6.727626054138267
 20
0.1793052578820676
 30
0.0
  0
SPLINE
  5
296
330
1F
100
AcDbEntity
  8
0
  6
Continuous
 62
     7
370
     5
100
AcDbSpline
210
0.0
220
0.0
230
1.0
 70
     8
 71
     3
 72
    16
 73
    12
 74
     0
 42
0.0000000001
 43
0.0000000001
 40
0.0
 40
0.0
 40
0.0
 40
0.0
 40
0.25
 40
0.25
 40
0.375
 40
0.375
 40
0.4375
 40
0.4375
 40
0.5
 40
0.5
 40
1.0
 40
1.0
 40
1.0
 40
1.0
 10
6.727626054138267
 20
0.1793052578820676
 30
0.0
 10
6.740078414675184
 20
0.181404622641793
 30
0.0
 10
6.748073621211729
 20
0.1837883036122286
 30
0.0
 10
6.756064169595567
 20
0.1878212571725091
 30
0.0
 10
6.758061099556846
 20
0.1892401199323864
 30
0.0
 10
6.760374065898294
 20
0.1914802868374665
 30
0.0
 10
6.761030888521911
 20
0.1922456545253272
 30
0.0
 10
6.76216206339031
 20
0.1938136886778028
 30
0.0
 10
6.762618771121485
 20
0.1945803367034984
 30
0.0
 10
6.766404901029194
 20
0.2022963766202046
 30
0.0
 10
6.767143471964874
 20
0.2125210351114632
 30
0.0
 10
6.767141107790549
 20
0.2260667560522851
 30
0.0
  0
LINE
  5
297
330
1F
100
AcDbEntity
  8
0
  6
Continuous
 62
     7
370
     5
100
AcDbLine
 10
6.636616246907809
 20
0.2417283139459415
 30
0.0
 11
6.635926399043657
 21
4.194247057445468
 31
0.0
  0
ARC
  5
298
330
1F
100
AcDbEntity
  8
0
  6
Continuous
 62
     7
370
     5
100
AcDbCircle
 10
6.69911624282342
 20
0.2417392653075739
 30
0.0
 40
0.0625000000000002
100
AcDbArc
 50
180.0100000000009
 51
208.4103168030368
  0
LINE
  5
299
330
1F
100
AcDbEntity
  8
0
  6
Continuous
 62
     7
370
     5
100
AcDbLine
 10
5.756594760491116
 20
-0.8209254101875574
 30
0.0
 11
6.644323812036025
 21
-0.8207705319767237
 31
0.0
  0
LINE
  5
29A
330
1F
100
AcDbEntity
  8
0
  6
Continuous
 62
     7
370
     5
100
AcDbLine
 10
5.756594760491116
 20
4.194247057445468
 30
0.0
 11
5.756594760491116
 21
-0.8209254101875574
 31
0.0
  0
LINE
  5
29B
330
1F
100
AcDbEntity
  8
0
  6
Continuous
 62
     7
370
     5
100
AcDbLine
 10
5.756594760491116
 20
4.194247057445468
 30
0.0
 11
5.878407499966621
 21
4.194247057445468
 31
0.0
  0
LINE
  5
29C
330
1F
100
AcDbEntity
  8
0
  6
Continuous
 62
     7
370
     5
100
AcDbLine
 10
6.118407494132875
 20
4.194247057445468
 30
0.0
 11
6.21840752225735
 21
4.194247057445468
 31
0.0
  0
LINE
  5
29D
330
1F
100
AcDbEntity
  8
0
  6
Continuous
 62
     7
370
     5
100
AcDbLine
 10
6.458407516423604
 20
4.194247057445468
 30
0.0
 11
6.635926399043657
 21
4.194247057445468
 31
0.0
  0
SPLINE
  5
29E
330
1F
100
AcDbEntity
  8
0
  6
Continuous
 62
     7
370
     5
100
AcDbSpline
210
0.0
220
0.0
230
1.0
 70
     8
 71
     3
 72
    22
 73
    18
 74
     0
 42
0.0000000001
 43
0.0000000001
 40
0.0
 40
0.0
 40
0.0
 40
0.0
 40
0.044994954924012
 40
0.0911354306802925
 40
0.1384243224258721
 40
0.1868643194029752
 40
0.2364579235961135
 40
0.2872074663693918
 40
0.3391151233347679
 40
0.3921829276673461
 40
0.4464127820543336
 40
0.5018064694392145
 40
0.612284371929492
 40
0.7173393149328586
 40
0.816974378115862
 40
0.9111931783166461
 40
1.0
 40
1.0
 40
1.0
 40
1.0
 10
6.694094737773412
 20
4.941877238046037
 30
0.0
 10
6.694062179566946
 20
4.946003324955961
 30
0.0
 10
6.69399623425878
 20
4.954360544297446
 30
0.0
 10
6.693479434005102
 20
4.967097267190046
 30
0.0
 10
6.692663059586335
 20
4.980179945717003
 30
0.0
 10
6.691520168560213
 20
4.993611986922715
 30
0.0
 10
6.690067227240969
 20
5.007392442471517
 30
0.0
 10
6.688311380114783
 20
5.02152160807232
 30
0.0
 10
6.686264523938658
 20
5.035999300686869
 30
0.0
 10
6.68394123388131
 20
5.050825982337861
 30
0.0
 10
6.681351797836077
 20
5.065999958439885
 30
0.0
 10
6.677617991455635
 20
5.086565813462804
 30
0.0
 10
6.672485687809342
 20
5.111885423160005
 30
0.0
 10
6.665664843073084
 20
5.141288785911725
 30
0.0
 10
6.658557876443412
 20
5.169133861381663
 30
0.0
 10
6.651380167438109
 20
5.195423179499616
 30
0.0
 10
6.646474865195393
 20
5.212400581888665
 30
0.0
 10
6.644094737773412
 20
5.220638276322318
 30
0.0
  0
SPLINE
  5
29F
330
1F
100
AcDbEntity
  8
0
  6
Continuous
 62
     7
370
     5
100
AcDbSpline
210
0.0
220
0.0
230
1.0
 70
     8
 71
     3
 72
    20
 73
    16
 74
     0
 42
0.0000000001
 43
0.0000000001
 40
0.0
 40
0.0
 40
0.0
 40
0.0
 40
0.25
 40
0.25
 40
0.375
 40
0.375
 40
0.4375
 40
0.4375
 40
0.46875
 40
0.46875
 40
0.5
 40
0.5
 40
0.75
 40
0.75
 40
1.0
 40
1.0
 40
1.0
 40
1.0
 10
6.767094737773412
 20
4.941877238046037
 30
0.0
 10
6.767094737773412
 20
4.962230304392496
 30
0.0
 10
6.763674323024018
 20
4.984032821026103
 30
0.0
 10
6.753825257813266
 20
5.018918305329787
 30
0.0
 10
6.749764470097138
 20
5.030909999771976
 30
0.0
 10
6.742631221044806
 20
5.049442340946697
 30
0.0
 10
6.740080273989836
 20
5.055710587923512
 30
0.0
 10
6.736013712807649
 20
5.065249158266592
 30
0.0
 10
6.734618196006616
 20
5.06845138169393
 30
0.0
 10
6.731750757950034
 20
5.07490122850789
 30
0.0
 10
6.730295595235061
 20
5.078112514733328
 30
0.0
 10
6.716570697214471
 20
5.107872459480403
 30
0.0
 10
6.702469744804598
 20
5.132700693345342
 30
0.0
 10
6.673381717674849
 20
5.179107060365855
 30
0.0
 10
6.65840159325026
 20
5.200691651801274
 30
0.0
 10
6.644094737773411
 20
5.220638276322318
 30
0.0
  0
LINE
  5
2A0
330
1F
100
AcDbEntity
  8
0
  6
Continuous
 62
     7
370
     5
100
AcDbLine
 10
6.767094736692494
 20
4.941877254090972
 30
0.0
 11
6.694094739994685
 21
4.941877254090972
 31
0.0
  0
LINE
  5
2A1
330
1F
100
AcDbEntity
  8
0
  6
Continuous
 62
     7
370
     5
100
AcDbLine
 10
6.767094736692494
 20
4.941877254090972
 30
0.0
 11
6.767094736692494
 21
6.929243619198467
 31
0.0
  0
LINE
  5
2A2
330
1F
100
AcDbEntity
  8
0
  6
Continuous
 62
     7
370
     5
100
AcDbLine
 10
6.644094739682289
 20
6.929243619198467
 30
0.0
 11
6.767094736692494
 21
6.929243619198467
 31
0.0
  0
LINE
  5
2A3
330
1F
100
AcDbEntity
  8
0
  6
Continuous
 62
     7
370
     5
100
AcDbLine
 10
6.642550476688414
 20
6.929243619198467
 30
0.0
 11
6.642550476688414
 21
9.67924353096482
 31
0.0
  0
LINE
  5
2A4
330
1F
100
AcDbEntity
  8
0
  6
Continuous
 62
     7
370
     5
100
AcDbLine
 10
6.644094739682289
 20
6.929243619198467
 30
0.0
 11
6.642550476688414
 21
6.929243619198467
 31
0.0
  0
LINE
  5
2A5
330
1F
100
AcDbEntity
  8
0
  6
Continuous
 62
     7
370
     5
100
AcDbLine
 10
5.756594760491116
 20
7.470638298294268
 30
0.0
 11
6.644094739682289
 21
5.220638270486589
 31
0.0
  0
LINE
  5
2A6
330
1F
100
AcDbEntity
  8
0
  6
Continuous
 62
     7
370
     5
100
AcDbLine
 10
5.756594760491116
 20
9.67924353096482
 30
0.0
 11
5.756594760491116
 21
7.470638298294268
 31
0.0
  0
LINE
  5
2A7
330
1F
100
AcDbEntity
  8
0
  6
Continuous
 62
     7
370
     5
100
AcDbLine
 10
6.642550476688414
 20
9.67924353096482
 30
0.0
 11
5.756594760491116
 21
9.67924353096482
 31
0.0
  0
ARC
  5
2A8
330
1F
100
AcDbEntity
  8
0
  6
Continuous
 62
     7
370
     5
100
AcDbCircle
 10
5.942302689211235
 20
8.241743628685149
 30
0.0
 40
0.081999999999999
100
AcDbArc
 50
90.0
 51
270.0000000000008
  0
LINE
  5
2A9
330
1F
100
AcDbEntity
  8
0
  6
Continuous
 62
     7
370
     5
100
AcDbLine
 10
6.028302695031203
 20
8.159743671023532
 30
0.0
 11
5.942302681844028
 21
8.159743671023532
 31
0.0
  0
ARC
  5
2AA
330
1F
100
AcDbEntity
  8
0
  6
Continuous
 62
     7
370
     5
100
AcDbCircle
 10
6.028302689211235
 20
8.241743628685147
 30
0.0
 40
0.0820000000000008
100
AcDbArc
 50
270.0000000000008
 51
90.0
  0
LINE
  5
2AB
330
1F
100
AcDbEntity
  8
0
  6
Continuous
 62
     7
370
     5
100
AcDbLine
 10
5.942302681844028
 20
8.32374356314945
 30
0.0
 11
6.028302695031203
 21
8.32374356314945
 31
0.0
  0
ARC
  5
2AC
330
1F
100
AcDbEntity
  8
0
  6
Continuous
 62
     7
370
     5
100
AcDbCircle
 10
6.192302689211236
 20
8.866743628685147
 30
0.0
 40
0.0820000000000008
100
AcDbArc
 50
90.0
 51
270.0000000000008
  0
LINE
  5
2AD
330
1F
100
AcDbEntity
  8
0
  6
Continuous
 62
     7
370
     5
100
AcDbLine
 10
6.278302673676783
 20
8.784743544304996
 30
0.0
 11
6.192302697155851
 21
8.784743544304996
 31
0.0
  0
ARC
  5
2AE
330
1F
100
AcDbEntity
  8
0
  6
Continuous
 62
     7
370
     5
100
AcDbCircle
 10
6.278302689211236
 20
8.866743628685149
 30
0.0
 40
0.0820000000000008
100
AcDbArc
 50
270.0000000000008
 51
90.0
  0
LINE
  5
2AF
330
1F
100
AcDbEntity
  8
0
  6
Continuous
 62
     7
370
     5
100
AcDbLine
 10
6.192302697155851
 20
8.94874372976086
 30
0.0
 11
6.278302673676783
 21
8.94874372976086
 31
0.0
  0
ARC
  5
2B0
330
1F
100
AcDbEntity
  8
0
  6
Continuous
 62
     7
370
     5
100
AcDbCircle
 10
5.942302689211236
 20
9.491743628685151
 30
0.0
 40
0.0820000000000008
100
AcDbArc
 50
90.0
 51
270.0000000000008
  0
LINE
  5
2B1
330
1F
100
AcDbEntity
  8
0
  6
Continuous
 62
     7
370
     5
100
AcDbLine
 10
6.028302695031203
 20
9.409743710916405
 30
0.0
 11
5.942302681844028
 21
9.409743710916405
 31
0.0
  0
ARC
  5
2B2
330
1F
100
AcDbEntity
  8
0
  6
Continuous
 62
     7
370
     5
100
AcDbCircle
 10
6.028302689211236
 20
9.491743628685149
 30
0.0
 40
0.0820000000000008
100
AcDbArc
 50
270.0000000000014
 51
90.0
  0
LINE
  5
2B3
330
1F
100
AcDbEntity
  8
0
  6
Continuous
 62
     7
370
     5
100
AcDbLine
 10
5.942302681844028
 20
9.573743896372267
 30
0.0
 11
6.028302695031203
 21
9.573743896372267
 31
0.0
  0
CIRCLE
  5
2B4
330
1F
100
AcDbEntity
  8
0
  6
Continuous
 62
     7
370
     5
100
AcDbCircle
 10
6.280732676252974
 20
5.304166320705387
 30
0.0
 40
0.0819999999999999
  0
ARC
  5
2B5
330
1F
100
AcDbEntity
  8
0
  6
Continuous
 62
     7
370
     5
100
AcDbCircle
 10
5.944645414908389
 20
5.804107670027383
 30
0.0
 40
0.0820000000000005
100
AcDbArc
 50
90.00999999999971
 51
270.0100000000005
  0
LINE
  5
2B6
330
1F
100
AcDbEntity
  8
0
  6
Continuous
 62
     7
370
     5
100
AcDbLine
 10
6.030659747802328
 20
5.722122697295698
 30
0.0
 11
5.944659734615153
 21
5.722107737468515
 31
0.0
  0
ARC
  5
2B7
330
1F
100
AcDbEntity
  8
0
  6
Continuous
 62
     7
370
     5
100
AcDbCircle
 10
6.030645413598535
 20
5.804122679858873
 30
0.0
 40
0.0819999999999997
100
AcDbArc
 50
270.0100000000011
 51
90.01000000000033
  0
LINE
  5
2B8
330
1F
100
AcDbEntity
  8
0
  6
Continuous
 62
     7
370
     5
100
AcDbLine
 10
5.944631134945539
 20
5.886107629594433
 30
0.0
 11
6.030631074800228
 21
5.886122736086588
 31
0.0
  0
LINE
  5
2B9
330
1F
100
AcDbEntity
  8
0
  6
Continuous
 62
     7
370
     5
100
AcDbLine
 10
6.609631780301337
 20
4.307397103659812
 30
0.0
 11
6.609631780301337
 21
4.309926148610736
 31
0.0
  0
LINE
  5
2BA
330
1F
100
AcDbEntity
  8
0
  6
Continuous
 62
     7
370
     5
100
AcDbLine
 10
6.609631780301337
 20
4.309926148610736
 30
0.0
 11
6.519687863507805
 21
4.355048342355303
 31
0.0
  0
LINE
  5
2BB
330
1F
100
AcDbEntity
  8
0
  6
Continuous
 62
     7
370
     5
100
AcDbLine
 10
6.519687863507805
 20
4.355048342355303
 30
0.0
 11
6.609631780301337
 21
4.367017492003332
 31
0.0
  0
LINE
  5
2BC
330
1F
100
AcDbEntity
  8
0
  6
Continuous
 62
     7
370
     5
100
AcDbLine
 10
6.609631780301337
 20
4.367017492003332
 30
0.0
 11
6.609631780301337
 21
4.378285518917456
 31
0.0
  0
LINE
  5
2BD
330
1F
100
AcDbEntity
  8
0
  6
Continuous
 62
     7
370
     5
100
AcDbLine
 10
6.609631780301337
 20
4.378285518917456
 30
0.0
 11
6.484631781811986
 21
4.361683960700074
 31
0.0
  0
LINE
  5
2BE
330
1F
100
AcDbEntity
  8
0
  6
Continuous
 62
     7
370
     5
100
AcDbLine
 10
6.484631781811986
 20
4.361683960700074
 30
0.0
 11
6.484631781811986
 21
4.360056355335643
 31
0.0
  0
LINE
  5
2BF
330
1F
100
AcDbEntity
  8
0
  6
Continuous
 62
     7
370
     5
100
AcDbLine
 10
6.484631781811986
 20
4.360056355335643
 30
0.0
 11
6.587195880316101
 21
4.308573980064435
 31
0.0
  0
LINE
  5
2C0
330
1F
100
AcDbEntity
  8
0
  6
Continuous
 62
     7
370
     5
100
AcDbLine
 10
6.587195880316101
 20
4.308573980064435
 30
0.0
 11
6.484631781811986
 21
4.25696640790618
 31
0.0
  0
LINE
  5
2C1
330
1F
100
AcDbEntity
  8
0
  6
Continuous
 62
     7
370
     5
100
AcDbLine
 10
6.484631781811986
 20
4.25696640790618
 30
0.0
 11
6.484631781811986
 21
4.255363854752344
 31
0.0
  0
LINE
  5
2C2
330
1F
100
AcDbEntity
  8
0
  6
Continuous
 62
     7
370
     5
100
AcDbLine
 10
6.484631781811986
 20
4.255363854752344
 30
0.0
 11
6.609631780301337
 21
4.238862450377975
 31
0.0
  0
LINE
  5
2C3
330
1F
100
AcDbEntity
  8
0
  6
Continuous
 62
     7
370
     5
100
AcDbLine
 10
6.609631780301337
 20
4.238862450377975
 30
0.0
 11
6.609631780301337
 21
4.250155506586293
 31
0.0
  0
LINE
  5
2C4
330
1F
100
AcDbEntity
  8
0
  6
Continuous
 62
     7
370
     5
100
AcDbLine
 10
6.609631780301337
 20
4.250155506586293
 30
0.0
 11
6.519487555821777
 21
4.262099626940129
 31
0.0
  0
LINE
  5
2C5
330
1F
100
AcDbEntity
  8
0
  6
Continuous
 62
     7
370
     5
100
AcDbLine
 10
6.519487555821777
 20
4.262099626940129
 30
0.0
 11
6.609631780301337
 21
4.307397103659812
 31
0.0
  0
LINE
  5
2C6
330
1F
100
AcDbEntity
  8
0
  6
Continuous
 62
     7
370
     5
100
AcDbLine
 10
6.609631780301337
 20
4.406555753795624
 30
0.0
 11
6.569567685625178
 21
4.425561161795612
 31
0.0
  0
LINE
  5
2C7
330
1F
100
AcDbEntity
  8
0
  6
Continuous
 62
     7
370
     5
100
AcDbLine
 10
6.569567685625178
 20
4.425561161795612
 30
0.0
 11
6.569567685625178
 21
4.482226829011906
 31
0.0
  0
LINE
  5
2C8
330
1F
100
AcDbEntity
  8
0
  6
Continuous
 62
     7
370
     5
100
AcDbLine
 10
6.569567685625178
 20
4.482226829011906
 30
0.0
 11
6.609631780301337
 21
4.500706395534376
 31
0.0
  0
LINE
  5
2C9
330
1F
100
AcDbEntity
  8
0
  6
Continuous
 62
     7
370
     5
100
AcDbLine
 10
6.609631780301337
 20
4.500706395534376
 30
0.0
 11
6.609631780301337
 21
4.512900909662309
 31
0.0
  0
LINE
  5
2CA
330
1F
100
AcDbEntity
  8
0
  6
Continuous
 62
     7
370
     5
100
AcDbLine
 10
6.609631780301337
 20
4.512900909662309
 30
0.0
 11
6.484631781811986
 21
4.455208597378823
 31
0.0
  0
LINE
  5
2CB
330
1F
100
AcDbEntity
  8
0
  6
Continuous
 62
     7
370
     5
100
AcDbLine
 10
6.484631781811986
 20
4.455208597378823
 30
0.0
 11
6.484631781811986
 21
4.453606032766787
 31
0.0
  0
LINE
  5
2CC
330
1F
100
AcDbEntity
  8
0
  6
Continuous
 62
     7
370
     5
100
AcDbLine
 10
6.484631781811986
 20
4.453606032766787
 30
0.0
 11
6.609631780301337
 21
4.394311162746185
 31
0.0
  0
LINE
  5
2CD
330
1F
100
AcDbEntity
  8
0
  6
Continuous
 62
     7
370
     5
100
AcDbLine
 10
6.609631780301337
 20
4.394311162746185
 30
0.0
 11
6.609631780301337
 21
4.406555753795624
 31
0.0
  0
LINE
  5
2CE
330
1F
100
AcDbEntity
  8
0
  6
Continuous
 62
     7
370
     5
100
AcDbLine
 10
6.609631780301337
 20
4.534660720791114
 30
0.0
 11
6.555995969073472
 21
4.568990645875556
 31
0.0
  0
LINE
  5
2CF
330
1F
100
AcDbEntity
  8
0
  6
Continuous
 62
     7
370
     5
100
AcDbLine
 10
6.555995969073472
 20
4.568990645875556
 30
0.0
 11
6.609631780301337
 21
4.60332058012656
 31
0.0
  0
LINE
  5
2D0
330
1F
100
AcDbEntity
  8
0
  6
Continuous
 62
     7
370
     5
100
AcDbLine
 10
6.609631780301337
 20
4.60332058012656
 30
0.0
 11
6.609631780301337
 21
4.616266293909903
 31
0.0
  0
LINE
  5
2D1
330
1F
100
AcDbEntity
  8
0
  6
Continuous
 62
     7
370
     5
100
AcDbLine
 10
6.609631780301337
 20
4.616266293909903
 30
0.0
 11
6.545879770936656
 21
4.575476024289245
 31
0.0
  0
LINE
  5
2D2
330
1F
100
AcDbEntity
  8
0
  6
Continuous
 62
     7
370
     5
100
AcDbLine
 10
6.545879770936656
 20
4.575476024289245
 30
0.0
 11
6.484631781811986
 21
4.614663722422945
 31
0.0
  0
LINE
  5
2D3
330
1F
100
AcDbEntity
  8
0
  6
Continuous
 62
     7
370
     5
100
AcDbLine
 10
6.484631781811986
 20
4.614663722422945
 30
0.0
 11
6.484631781811986
 21
4.601718008639602
 31
0.0
  0
LINE
  5
2D4
330
1F
100
AcDbEntity
  8
0
  6
Continuous
 62
     7
370
     5
100
AcDbLine
 10
6.484631781811986
 20
4.601718008639602
 30
0.0
 11
6.535763591132961
 21
4.568990645875556
 31
0.0
  0
LINE
  5
2D5
330
1F
100
AcDbEntity
  8
0
  6
Continuous
 62
     7
370
     5
100
AcDbLine
 10
6.535763591132961
 20
4.568990645875556
 30
0.0
 11
6.484631781811986
 21
4.536263283111511
 31
0.0
  0
LINE
  5
2D6
330
1F
100
AcDbEntity
  8
0
  6
Continuous
 62
     7
370
     5
100
AcDbLine
 10
6.484631781811986
 20
4.536263283111511
 30
0.0
 11
6.484631781811986
 21
4.523317569328168
 31
0.0
  0
LINE
  5
2D7
330
1F
100
AcDbEntity
  8
0
  6
Continuous
 62
     7
370
     5
100
AcDbLine
 10
6.484631781811986
 20
4.523317569328168
 30
0.0
 11
6.545879770936656
 21
4.562530310505902
 31
0.0
  0
LINE
  5
2D8
330
1F
100
AcDbEntity
  8
0
  6
Continuous
 62
     7
370
     5
100
AcDbLine
 10
6.545879770936656
 20
4.562530310505902
 30
0.0
 11
6.609631780301337
 21
4.521715007007771
 31
0.0
  0
LINE
  5
2D9
330
1F
100
AcDbEntity
  8
0
  6
Continuous
 62
     7
370
     5
100
AcDbLine
 10
6.609631780301337
 20
4.521715007007771
 30
0.0
 11
6.609631780301337
 21
4.534660720791114
 31
0.0
  0
LINE
  5
2DA
330
1F
100
AcDbEntity
  8
0
  6
Continuous
 62
     7
370
     5
100
AcDbLine
 10
6.21840752225735
 20
4.204247060257915
 30
0.0
 11
6.118407494132875
 21
4.204247060257915
 31
0.0
  0
LINE
  5
2DB
330
1F
100
AcDbEntity
  8
0
  6
Continuous
 62
     7
370
     5
100
AcDbLine
 10
5.878407499966621
 20
4.204247060257915
 30
0.0
 11
5.756594760491116
 21
4.204247060257915
 31
0.0
  0
LINE
  5
2DC
330
1F
100
AcDbEntity
  8
0
  6
Continuous
 62
     7
370
     5
100
AcDbLine
 10
5.756594760491116
 20
6.054074809223241
 30
0.0
 11
5.756594760491116
 21
4.204247060257915
 31
0.0
  0
LINE
  5
2DD
330
1F
100
AcDbEntity
  8
0
  6
Continuous
 62
     7
370
     5
100
AcDbLine
 10
6.201526603933825
 20
6.054152541658602
 30
0.0
 11
5.756594760491116
 21
6.054074809223241
 31
0.0
  0
LINE
  5
2DE
330
1F
100
AcDbEntity
  8
0
  6
Continuous
 62
     7
370
     5
100
AcDbLine
 10
6.635793841408307
 20
4.953756053532734
 30
0.0
 11
6.201526603933825
 21
6.054152541658602
 31
0.0
  0
LINE
  5
2DF
330
1F
100
AcDbEntity
  8
0
  6
Continuous
 62
     7
370
     5
100
AcDbLine
 10
6.63592465739711
 20
4.204247060257915
 30
0.0
 11
6.458407516423604
 21
4.204247060257915
 31
0.0
  0
LINE
  5
2E0
330
1F
100
AcDbEntity
  8
0
  6
Continuous
 62
     7
370
     5
100
AcDbLine
 10
6.63592465739711
 20
4.204247060257915
 30
0.0
 11
6.635793841408307
 21
4.953756053532734
 31
0.0
  0
LINE
  5
2E1
330
1F
100
AcDbEntity
  8
0
  6
Continuous
 62
     7
370
     5
100
AcDbLine
 10
6.508995767023816
 20
4.454282114748297
 30
0.0
 11
6.556747168728882
 21
4.431645897480789
 31
0.0
  0
LINE
  5
2E2
330
1F
100
AcDbEntity
  8
0
  6
Continuous
 62
     7
370
     5
100
AcDbLine
 10
6.556747168728882
 20
4.431645897480789
 30
0.0
 11
6.556747168728882
 21
4.476317371861792
 31
0.0
  0
LINE
  5
2E3
330
1F
100
AcDbEntity
  8
0
  6
Continuous
 62
     7
370
     5
100
AcDbLine
 10
6.556747168728882
 20
4.476317371861792
 30
0.0
 11
6.508995767023816
 21
4.454282114748297
 31
0.0
  0
LINE
  5
2E4
330
1F
100
AcDbEntity
  8
0
  6
Continuous
 62
     7
370
     5
100
AcDbLine
 10
6.635926399043657
 20
4.194247057445468
 30
0.0
 11
6.63592465739711
 21
4.204247060257915
 31
0.0
  0
LINE
  5
2E5
330
1F
100
AcDbEntity
  8
0
  6
Continuous
 62
     7
370
     5
100
AcDbLine
 10
5.756594760491116
 20
4.204247060257915
 30
0.0
 11
5.756594760491116
 21
4.194247057445468
 31
0.0
  0
SPLINE
  5
2E6
330
1F
100
AcDbEntity
  8
0
  6
Continuous
 62
     7
370
     5
100
AcDbSpline
210
0.0
220
0.0
230
1.0
 70
     8
 71
     3
 72
    11
 73
     7
 74
     0
 42
0.0000000001
 43
0.0000000001
 40
0.0
 40
0.0
 40
0.0
 40
0.0
 40
0.1326069138492467
 40
0.2758161408839674
 40
0.5944244595763126
 40
1.0
 40
1.0
 40
1.0
 40
1.0
 10
6.689041852116077
 20
0.1872798229395559
 30
0.0
 10
6.689774951286142
 20
0.1883625825299066
 30
0.0
 10
6.69129976306332
 20
0.1906146715277333
 30
0.0
 10
6.69308837782288
 20
0.1972710820331104
 30
0.0
 10
6.694064281784769
 20
0.209295866042436
 30
0.0
 10
6.694113528606624
 20
0.2200379081682076
 30
0.0
 10
6.69414110904236
 20
0.2260539350177045
 30
0.0
  0
LINE
  5
2E7
330
1F
100
AcDbEntity
  8
0
  6
Continuous
 62
     7
370
     5
100
AcDbLine
 10
6.767141108031808
 20
0.2260668415352739
 30
0.0
 11
6.69414110904236
 21
0.2260539350177045
 31
0.0
  0
LINE
  5
2E8
330
1F
100
AcDbEntity
  8
0
  6
Continuous
 62
     7
370
     5
100
AcDbLine
 10
6.69414110904236
 20
0.2260539350177045
 30
0.0
 11
6.694138372823968
 21
0.2417382871640634
 31
0.0
  0
LINE
  5
2E9
330
1F
100
AcDbEntity
  8
0
  6
Continuous
 62
     7
370
     5
100
AcDbLine
 10
6.767141108031808
 20
0.2260668415352739
 30
0.0
 11
6.767138369521777
 21
0.2417511936816329
 31
0.0
  0
LINE
  5
2EA
330
1F
100
AcDbEntity
  8
0
  6
Continuous
 62
     7
370
     5
100
AcDbLine
 10
6.694094739994685
 20
4.941877254090972
 30
0.0
 11
6.694094739994685
 21
4.936806825998323
 31
0.0
  0
LINE
  5
2EB
330
1F
100
AcDbEntity
  8
0
  6
Continuous
 62
     7
370
     5
100
AcDbLine
 10
6.767094736692494
 20
4.936806825998323
 30
0.0
 11
6.694094739994685
 21
4.936806825998323
 31
0.0
  0
LINE
  5
2EC
330
1F
100
AcDbEntity
  8
0
  6
Continuous
 62
     7
370
     5
100
AcDbLine
 10
6.767094736692494
 20
4.941877254090972
 30
0.0
 11
6.767094736692494
 21
4.936806825998323
 31
0.0
  0
ARC
  5
2ED
330
1F
100
AcDbEntity
  8
0
  6
Continuous
 62
     7
370
     5
100
AcDbCircle
 10
6.664324031316582
 20
-0.822016823280777
 30
0.0
 40
0.1029999999999997
100
AcDbArc
 50
270.0100000000002
 51
0.0099999999997101
  0
LINE
  5
2EE
330
1F
100
AcDbEntity
  8
0
  6
Continuous
 62
     7
370
     5
100
AcDbLine
 10
6.664342004117496
 20
-0.9250170610452576
 30
0.0
 11
6.369131814410799
 21
-0.925068100455646
 31
0.0
  0
LINE
  5
2EF
330
1F
100
AcDbEntity
  8
0
  6
Continuous
 62
     7
370
     5
100
AcDbLine
 10
6.369131814410799
 20
-0.925068100455646
 30
0.0
 11
6.369119091224445
 21
-0.8520682504228096
 31
0.0
  0
LINE
  5
2F0
330
1F
100
AcDbEntity
  8
0
  6
Continuous
 62
     7
370
     5
100
AcDbLine
 10
6.664329271764581
 20
-0.8520166243525316
 30
0.0
 11
6.369119091224445
 21
-0.8520682504228096
 31
0.0
  0
ARC
  5
2F1
330
1F
100
AcDbEntity
  8
0
  6
Continuous
 62
     7
370
     5
100
AcDbCircle
 10
6.664324031316582
 20
-0.822016823280777
 30
0.0
 40
0.03
100
AcDbArc
 50
270.0100000000012
 51
0.00999999999977
  0
LINE
  5
2F2
330
1F
100
AcDbEntity
  8
0
  6
Continuous
 62
     7
370
     5
100
AcDbLine
 10
6.694323812348422
 20
-0.8207617320783809
 30
0.0
 11
6.694324032345881
 21
-0.8220113176430619
 31
0.0
  0
LINE
  5
2F3
330
1F
100
AcDbEntity
  8
0
  6
Continuous
 62
     7
370
     5
100
AcDbLine
 10
6.767323811337871
 20
-0.8207488255608115
 30
0.0
 11
6.767324029043689
 21
-0.8219989977853819
 31
0.0
  0
LINE
  5
2F4
330
1F
100
AcDbEntity
  8
0
  6
Continuous
 62
     7
370
     5
100
AcDbLine
 10
6.767094737773414
 20
0.4917479920082794
 30
0.0
 11
6.767094737880029
 21
0.4917467702778088
 31
0.0
  0
LINE
  5
2F5
330
1F
100
AcDbEntity
  8
0
  6
Continuous
 62
     7
370
     5
100
AcDbLine
 10
6.694094739994685
 20
0.4917340125254445
 30
0.0
 11
6.694094739994685
 21
0.4917480923627929
 31
0.0
  0
LINE
  5
2F6
330
1F
100
AcDbEntity
  8
0
  6
Continuous
 62
     7
370
     5
100
AcDbLine
 10
6.694094739994685
 20
4.936806825998323
 30
0.0
 11
6.694094739994685
 21
0.4917480923627929
 31
0.0
  0
LINE
  5
2F7
330
1F
100
AcDbEntity
  8
0
  6
Continuous
 62
     7
370
     5
100
AcDbLine
 10
6.767094736692494
 20
4.936806825998323
 30
0.0
 11
6.767094736692494
 21
0.4917480923627929
 31
0.0
  0
LINE
  5
2F8
330
1F
100
AcDbEntity
  8
0
  6
Continuous
 62
     7
370
     5
100
AcDbLine
 10
6.694094739994685
 20
0.4917340125254445
 30
0.0
 11
6.694138372823968
 21
0.2417382871640634
 31
0.0
  0
LINE
  5
2F9
330
1F
100
AcDbEntity
  8
0
  6
Continuous
 62
     7
370
     5
100
AcDbLine
 10
6.767094738984135
 20
0.4917466257130691
 30
0.0
 11
6.767138369521777
 21
0.2417511936816329
 31
0.0
  0
LINE
  5
2FA
330
1F
100
AcDbEntity
  8
0
  6
Continuous
 62
     7
370
     5
100
AcDbLine
 10
6.694094739994685
 20
6.929243619198467
 30
0.0
 11
6.694094739994685
 21
6.991743723858591
 31
0.0
  0
LINE
  5
2FB
330
1F
100
AcDbEntity
  8
0
  6
Continuous
 62
     7
370
     5
100
AcDbLine
 10
6.767094736692494
 20
6.929243619198467
 30
0.0
 11
6.767094736692494
 21
6.991743723858591
 31
0.0
  0
LINE
  5
2FC
330
1F
100
AcDbEntity
  8
0
  6
Continuous
 62
     7
370
     5
100
AcDbLine
 10
6.767094736692494
 20
7.178043731705003
 30
0.0
 11
6.694094739994685
 21
7.178043731705003
 31
0.0
  0
LINE
  5
2FD
330
1F
100
AcDbEntity
  8
0
  6
Continuous
 62
     7
370
     5
100
AcDbLine
 10
6.694094739994685
 20
7.178043731705003
 30
0.0
 11
6.694094739994685
 21
6.991743723858591
 31
0.0
  0
LINE
  5
2FE
330
1F
100
AcDbEntity
  8
0
  6
Continuous
 62
     7
370
     5
100
AcDbLine
 10
6.767094736692494
 20
7.178043731705003
 30
0.0
 11
6.767094736692494
 21
6.991743723858591
 31
0.0
  0
LINE
  5
2FF
330
1F
100
AcDbEntity
  8
0
  6
PHANTOM
 62
     8
370
     5
100
AcDbLine
 10
6.449418750262598
 20
4.991247067100013
 30
0.0
 11
6.227396288418356
 21
4.991247067100013
 31
0.0
  0
ARC
  5
300
330
1F
100
AcDbEntity
  8
0
  6
PHANTOM
 62
     8
370
     5
100
AcDbCircle
 10
6.338407514079309
 20
4.991247059372059
 30
0.0
 40
0.1110112359550568
100
AcDbArc
 50
0.0000000000002292
 51
180.0000000000013
  0
LINE
  5
301
330
1F
100
AcDbEntity
  8
0
  6
PHANTOM
 62
     8
370
     5
100
AcDbLine
 10
6.449418750262598
 20
-0.6207529492635742
 30
0.0
 11
6.449418750262598
 21
4.991247067100013
 31
0.0
  0
LINE
  5
302
330
1F
100
AcDbEntity
  8
0
  6
PHANTOM
 62
     8
370
     5
100
AcDbLine
 10
6.449418750262598
 20
-0.6207529492635742
 30
0.0
 11
6.227396288418356
 21
-0.6207529492635742
 31
0.0
  0
LINE
  5
303
330
1F
100
AcDbEntity
  8
0
  6
PHANTOM
 62
     8
370
     5
100
AcDbLine
 10
6.227396288418356
 20
4.991247067100013
 30
0.0
 11
6.227396288418356
 21
-0.6207529492635742
 31
0.0
  0
ARC
  5
304
330
1F
100
AcDbEntity
  8
0
  6
PHANTOM
 62
     8
370
     5
100
AcDbCircle
 10
6.338407514079314
 20
-0.6207529406279404
 30
0.0
 40
0.1110112359550568
100
AcDbArc
 50
179.9999999999998
 51
0.0000000000002865
  0
LINE
  5
305
330
1F
100
AcDbEntity
  8
0
  6
PHANTOM
 62
     8
370
     5
100
AcDbLine
 10
6.109418764638112
 20
5.481247039911846
 30
0.0
 11
5.88739630279387
 21
5.481247039911846
 31
0.0
  0
ARC
  5
306
330
1F
100
AcDbEntity
  8
0
  6
PHANTOM
 62
     8
370
     5
100
AcDbCircle
 10
5.998407514079308
 20
5.481247059372059
 30
0.0
 40
0.1110112359550568
100
AcDbArc
 50
0.0000000000002292
 51
179.9999999999998
  0
LINE
  5
307
330
1F
100
AcDbEntity
  8
0
  6
PHANTOM
 62
     8
370
     5
100
AcDbLine
 10
6.109418764638112
 20
-0.6207529492635742
 30
0.0
 11
6.109418764638112
 21
5.481247039911846
 31
0.0
  0
LINE
  5
308
330
1F
100
AcDbEntity
  8
0
  6
PHANTOM
 62
     8
370
     5
100
AcDbLine
 10
6.109418764638112
 20
-0.6207529492635742
 30
0.0
 11
5.88739630279387
 21
-0.6207529492635742
 31
0.0
  0
LINE
  5
309
330
1F
100
AcDbEntity
  8
0
  6
PHANTOM
 62
     8
370
     5
100
AcDbLine
 10
5.88739630279387
 20
5.481247039911846
 30
0.0
 11
5.88739630279387
 21
-0.6207529492635742
 31
0.0
  0
ARC
  5
30A
330
1F
100
AcDbEntity
  8
0
  6
PHANTOM
 62
     8
370
     5
100
AcDbCircle
 10
5.998407514079315
 20
-0.6207529406279404
 30
0.0
 40
0.1110112359550568
100
AcDbArc
 50
179.9999999999998
 51
0.0000000000002292
  0
LINE
  5
30B
330
1F
100
AcDbEntity
  8
0
  6
PHANTOM
 62
     8
370
     5
100
AcDbLine
 10
6.458407516423604
 20
4.204247060257915
 30
0.0
 11
6.458407516423604
 21
4.991247067100013
 31
0.0
  0
LINE
  5
30C
330
1F
100
AcDbEntity
  8
0
  6
PHANTOM
 62
     8
370
     5
100
AcDbLine
 10
6.458407516423604
 20
-0.6207529492635742
 30
0.0
 11
6.458407516423604
 21
4.194247057445468
 31
0.0
  0
LINE
  5
30D
330
1F
100
AcDbEntity
  8
0
  6
PHANTOM
 62
     8
370
     5
100
AcDbLine
 10
6.458407516423604
 20
-0.6207529492635742
 30
0.0
 11
6.449418750262598
 21
-0.6207529492635742
 31
0.0
  0
LINE
  5
30E
330
1F
100
AcDbEntity
  8
0
  6
PHANTOM
 62
     8
370
     5
100
AcDbLine
 10
6.458407516423604
 20
4.991247067100013
 30
0.0
 11
6.449418750262598
 21
4.991247067100013
 31
0.0
  0
ARC
  5
30F
330
1F
100
AcDbEntity
  8
0
  6
PHANTOM
 62
     8
370
     5
100
AcDbCircle
 10
6.338407514079309
 20
4.991247059372059
 30
0.0
 40
0.120000000000001
100
AcDbArc
 50
0.0000000000003711
 51
179.9999999999998
  0
LINE
  5
310
330
1F
100
AcDbEntity
  8
0
  6
PHANTOM
 62
     8
370
     5
100
AcDbLine
 10
6.21840752225735
 20
4.991247067100013
 30
0.0
 11
6.227396288418356
 21
4.991247067100013
 31
0.0
  0
ARC
  5
311
330
1F
100
AcDbEntity
  8
0
  6
PHANTOM
 62
     8
370
     5
100
AcDbCircle
 10
6.338407514079314
 20
-0.6207529406279404
 30
0.0
 40
0.120000000000001
100
AcDbArc
 50
179.9999999999998
 51
0.000000000000265
  0
LINE
  5
312
330
1F
100
AcDbEntity
  8
0
  6
PHANTOM
 62
     8
370
     5
100
AcDbLine
 10
6.21840752225735
 20
-0.6207529492635742
 30
0.0
 11
6.227396288418356
 21
-0.6207529492635742
 31
0.0
  0
LINE
  5
313
330
1F
100
AcDbEntity
  8
0
  6
PHANTOM
 62
     8
370
     5
100
AcDbLine
 10
6.21840752225735
 20
4.194247057445468
 30
0.0
 11
6.21840752225735
 21
-0.6207529492635742
 31
0.0
  0
LINE
  5
314
330
1F
100
AcDbEntity
  8
0
  6
PHANTOM
 62
     8
370
     5
100
AcDbLine
 10
6.21840752225735
 20
4.991247067100013
 30
0.0
 11
6.21840752225735
 21
4.204247060257915
 31
0.0
  0
ARC
  5
315
330
1F
100
AcDbEntity
  8
0
  6
PHANTOM
 62
     8
370
     5
100
AcDbCircle
 10
5.998407514079308
 20
5.481247059372059
 30
0.0
 40
0.120000000000001
100
AcDbArc
 50
0.000000000000212
 51
179.9999999999998
  0
LINE
  5
316
330
1F
100
AcDbEntity
  8
0
  6
PHANTOM
 62
     8
370
     5
100
AcDbLine
 10
6.118407494132875
 20
5.481247039911846
 30
0.0
 11
6.109418764638112
 21
5.481247039911846
 31
0.0
  0
LINE
  5
317
330
1F
100
AcDbEntity
  8
0
  6
PHANTOM
 62
     8
370
     5
100
AcDbLine
 10
5.878407499966621
 20
5.481247039911846
 30
0.0
 11
5.88739630279387
 21
5.481247039911846
 31
0.0
  0
LINE
  5
318
330
1F
100
AcDbEntity
  8
0
  6
PHANTOM
 62
     8
370
     5
100
AcDbLine
 10
6.118407494132875
 20
4.204247060257915
 30
0.0
 11
6.118407494132875
 21
5.481247039911846
 31
0.0
  0
LINE
  5
319
330
1F
100
AcDbEntity
  8
0
  6
PHANTOM
 62
     8
370
     5
100
AcDbLine
 10
6.118407494132875
 20
-0.6207529492635742
 30
0.0
 11
6.118407494132875
 21
4.194247057445468
 31
0.0
  0
LINE
  5
31A
330
1F
100
AcDbEntity
  8
0
  6
PHANTOM
 62
     8
370
     5
100
AcDbLine
 10
6.118407494132875
 20
-0.6207529492635742
 30
0.0
 11
6.109418764638112
 21
-0.6207529492635742
 31
0.0
  0
ARC
  5
31B
330
1F
100
AcDbEntity
  8
0
  6
PHANTOM
 62
     8
370
     5
100
AcDbCircle
 10
5.998407514079315
 20
-0.6207529406279404
 30
0.0
 40
0.1200000000000001
100
AcDbArc
 50
179.9999999999998
 51
0.000000000000159
  0
LINE
  5
31C
330
1F
100
AcDbEntity
  8
0
  6
PHANTOM
 62
     8
370
     5
100
AcDbLine
 10
5.878407499966621
 20
-0.6207529492635742
 30
0.0
 11
5.88739630279387
 21
-0.6207529492635742
 31
0.0
  0
LINE
  5
31D
330
1F
100
AcDbEntity
  8
0
  6
PHANTOM
 62
     8
370
     5
100
AcDbLine
 10
5.878407499966621
 20
4.194247057445468
 30
0.0
 11
5.878407499966621
 21
-0.6207529492635742
 31
0.0
  0
LINE
  5
31E
330
1F
100
AcDbEntity
  8
0
  6
PHANTOM
 62
     8
370
     5
100
AcDbLine
 10
5.878407499966621
 20
5.481247039911846
 30
0.0
 11
5.878407499966621
 21
4.204247060257915
 31
0.0
  0
LINE
  5
31F
330
1F
100
AcDbEntity
  8
0
  6
PHANTOM
 62
     8
370
     5
100
AcDbLine
 10
6.644323812036025
 20
-0.8207705319767237
 30
0.0
 11
6.644143560784971
 21
0.2120028440037736
 31
0.0
  0
LINE
  5
320
330
1F
100
AcDbEntity
  8
0
  6
PHANTOM
 62
     8
370
     5
100
AcDbLine
 10
6.644094739682289
 20
5.220638270486589
 30
0.0
 11
6.644094739682289
 21
6.929243619198467
 31
0.0
  0
LINE
  5
321
330
1F
100
AcDbEntity
  8
0
  6
PHANTOM
 62
     8
370
     5
100
AcDbLine
 10
6.767138369521777
 20
0.2417511936816329
 30
0.0
 11
6.694138372823968
 21
0.2417382871640634
 31
0.0
  0
LINE
  5
322
330
1F
100
AcDbEntity
  8
0
  6
PHANTOM
 62
     8
370
     5
100
AcDbLine
 10
6.772739151904395
 20
0.3402772021674419
 30
0.0
 11
6.77275852772223
 21
0.2292661912427798
 31
0.0
  0
LWPOLYLINE
  5
323
330
1F
100
AcDbEntity
  8
0
  6
PHANTOM
 62
     8
370
     5
100
AcDbPolyline
 90
        9
 70
   128
 43
0.0
 10
6.767140548871601
 20
0.2292650179230007
 10
6.767237902330299
 20
0.2292650179230007
 10
6.767528062936673
 20
0.2292653112529455
 10
6.768005381797644
 20
0.2292653112529455
 10
6.76866056631223
 20
0.2292653112529455
 10
6.769480861211113
 20
0.2292656045828902
 10
6.770450291470506
 20
0.2292656045828902
 10
6.771549983141774
 20
0.229265897912835
 10
6.77275852772223
 20
0.2292661912427798
  0
LWPOLYLINE
  5
324
330
1F
100
AcDbEntity
  8
0
  6
PHANTOM
 62
     8
370
     5
100
AcDbPolyline
 90
        9
 70
   128
 43
0.0
 10
6.767288902782804
 20
-0.6207347628069991
 10
6.767386253949862
 20
-0.6207347628069991
 10
6.767676414556235
 20
-0.6207347628069991
 10
6.768153735708847
 20
-0.6207347628069991
 10
6.768808920223433
 20
-0.6207347628069991
 10
6.769629212830676
 20
-0.6207347628069991
 10
6.770598643090068
 20
-0.6207341761471095
 10
6.771698337052977
 20
-0.6207341761471095
 10
6.772906879341793
 20
-0.6207341761471095
  0
LINE
  5
325
330
1F
100
AcDbEntity
  8
0
  6
PHANTOM
 62
     8
370
     5
100
AcDbLine
 10
6.772906879341793
 20
-0.6207341761471095
 30
0.0
 11
6.772926255159629
 21
-0.731744893741827
 31
0.0
  0
LINE
  5
326
330
1F
100
AcDbEntity
  8
0
  6
PHANTOM
 62
     8
370
     5
100
AcDbLine
 10
6.767094736692494
 20
0.7542470066196022
 30
0.0
 11
6.772712715543123
 21
0.7542470066196022
 31
0.0
  0
LINE
  5
327
330
1F
100
AcDbEntity
  8
0
  6
PHANTOM
 62
     8
370
     5
100
AcDbLine
 10
6.772712715543123
 20
0.7542470066196022
 30
0.0
 11
6.772712715543123
 21
0.6432357023649953
 31
0.0
  0
LINE
  5
328
330
1F
100
AcDbEntity
  8
0
  6
PHANTOM
 62
     8
370
     5
100
AcDbLine
 10
6.772712715543123
 20
5.965258315238958
 30
0.0
 11
6.772712715543123
 21
5.854247010984352
 31
0.0
  0
LINE
  5
329
330
1F
100
AcDbEntity
  8
0
  6
PHANTOM
 62
     8
370
     5
100
AcDbLine
 10
6.767094736692494
 20
5.854247010984352
 30
0.0
 11
6.772712715543123
 21
5.854247010984352
 31
0.0
  0
LINE
  5
32A
330
1F
100
AcDbEntity
  8
0
  6
PHANTOM
 62
     8
370
     5
100
AcDbLine
 10
6.77275852772223
 20
0.2292661912427798
 30
0.0
 11
6.772906879341793
 21
-0.6207341761471095
 31
0.0
  0
LINE
  5
32B
330
1F
100
AcDbEntity
  8
0
  6
PHANTOM
 62
     8
370
     5
100
AcDbLine
 10
6.772712715543123
 20
5.854247010984352
 30
0.0
 11
6.772712715543123
 21
0.7542470066196022
 31
0.0
  0
LINE
  5
32C
330
1F
100
AcDbEntity
  8
0
  6
PHANTOM
 62
     8
370
     5
100
AcDbLine
 10
6.772712715543123
 20
0.7542470066196022
 30
0.0
 11
6.842094734869449
 21
0.7542470066196022
 31
0.0
  0
LINE
  5
32D
330
1F
100
AcDbEntity
  8
0
  6
PHANTOM
 62
     8
370
     5
100
AcDbLine
 10
6.772712715543123
 20
5.854247010984352
 30
0.0
 11
6.842094734869449
 21
5.854247010984352
 31
0.0
  0
LWPOLYLINE
  5
32E
330
1F
100
AcDbEntity
  8
0
  6
PHANTOM
 62
     8
370
     5
100
AcDbPolyline
 90
        6
 70
   128
 43
0.0
 10
6.77275852772223
 20
0.2292661912427798
 10
6.798377371562827
 20
0.2292705911919512
 10
6.819106732928808
 20
0.2292741111512883
 10
6.833675477962756
 20
0.2292767511207912
 10
6.841190261151339
 20
0.2292779244405702
 10
6.842140549340196
 20
0.229278217770515
  0
LWPOLYLINE
  5
32F
330
1F
100
AcDbEntity
  8
0
  6
PHANTOM
 62
     8
370
     5
100
AcDbPolyline
 90
        6
 70
   128
 43
0.0
 10
6.772906879341793
 20
-0.6207341761471095
 10
6.79852572318239
 20
-0.6207294828679934
 10
6.819255084548371
 20
-0.6207259629086562
 10
6.833823838748879
 20
-0.6207230296092085
 10
6.841338612770902
 20
-0.6207218562894296
 10
6.842288900959759
 20
-0.6207218562894296
  0
LINE
  5
330
330
1F
100
AcDbEntity
  8
0
  6
PHANTOM
 62
     8
370
     5
100
AcDbLine
 10
6.767094736692494
 20
6.991743723858591
 30
0.0
 11
6.694094739994685
 21
6.991743723858591
 31
0.0
  0
ENDSEC
  0
SECTION
  2
OBJECTS
  0
DICTIONARY
  5
C
330
0
100
AcDbDictionary
281
     1
  3
ACAD_COLOR
350
333
  3
ACAD_GROUP
350
D
  3
ACAD_LAYOUT
350
1A
  3
ACAD_MATERIAL
350
332
  3
ACAD_MLINESTYLE
350
17
  3
ACAD_PLOTSETTINGS
350
19
  3
ACAD_PLOTSTYLENAME
350
E
  3
ACAD_SCALELIST
350
47
  0
DICTIONARY
  5
333
102
{ACAD_REACTORS
330
C
102
}
330
C
100
AcDbDictionary
281
     1
  0
DICTIONARY
  5
D
102
{ACAD_REACTORS
330
C
102
}
330
C
100
AcDbDictionary
281
     1
  0
DICTIONARY
  5
1A
102
{ACAD_REACTORS
330
C
102
}
330
C
100
AcDbDictionary
281
     1
  3
Layout1
350
1E
  3
Layout2
350
26
  3
Model
350
22
  0
DICTIONARY
  5
332
102
{ACAD_REACTORS
330
C
102
}
330
C
100
AcDbDictionary
281
     1
  0
DICTIONARY
  5
17
102
{ACAD_REACTORS
330
C
102
}
330
C
100
AcDbDictionary
281
     1
  3
Standard
350
18
  0
DICTIONARY
  5
19
102
{ACAD_REACTORS
330
C
102
}
330
C
100
AcDbDictionary
281
     1
  0
ACDBDICTIONARYWDFLT
  5
E
102
{ACAD_REACTORS
330
C
102
}
330
C
100
AcDbDictionary
281
     1
  3
Normal
350
F
100
AcDbDictionaryWithDefault
340
F
  0
DICTIONARY
  5
47
102
{ACAD_REACTORS
330
C
102
}
330
C
100
AcDbDictionary
281
     1
  3
A0
350
48
  3
A1
350
49
  3
A2
350
4A
  3
A3
350
4B
  3
A4
350
4C
  3
A5
350
4D
  3
A6
350
4E
  3
A7
350
4F
  3
A8
350
50
  3
A9
350
51
  3
B0
350
52
  3
B1
350
53
  3
B2
350
54
  3
B3
350
55
  3
B4
350
56
  3
B5
350
57
  3
B6
350
58
  3
B7
350
59
  3
B8
350
5A
  3
B9
350
5B
  3
C0
350
5C
  3
C1
350
5D
  3
C2
350
5E
  3
C3
350
5F
  3
C4
350
60
  3
C5
350
61
  3
C6
350
62
  3
C7
350
63
  3
C8
350
64
  3
C9
350
65
  3
D0
350
66
  3
D1
350
67
  3
D2
350
68
  0
LAYOUT
  5
1E
102
{ACAD_REACTORS
330
1A
102
}
330
1A
100
AcDbPlotSettings
  1

  2
none_device
  4

  6

 40
0.0
 41
0.0
 42
0.0
 43
0.0
 44
0.0
 45
0.0
 46
0.0
 47
0.0
 48
0.0
 49
0.0
140
0.0
141
0.0
142
1.0
143
1.0
 70
   688
 72
     0
 73
     0
 74
     5
  7
monochrome.ctb
 75
    16
147
1.0
 76
     0
 77
     2
 78
   300
148
0.0
149
0.0
100
AcDbLayout
  1
Layout1
 70
     1
 71
     1
 10
0.0
 20
0.0
 11
12.0
 21
9.0
 12
0.0
 22
0.0
 32
0.0
 14
1.000000000000000E+20
 24
1.000000000000000E+20
 34
1.000000000000000E+20
 15
-1.000000000000000E+20
 25
-1.000000000000000E+20
 35
-1.000000000000000E+20
146
0.0
 13
0.0
 23
0.0
 33
0.0
 16
1.0
 26
0.0
 36
0.0
 17
0.0
 27
1.0
 37
0.0
 76
     0
330
1B
  0
LAYOUT
  5
26
102
{ACAD_REACTORS
330
1A
102
}
330
1A
100
AcDbPlotSettings
  1

  2
none_device
  4

  6

 40
0.0
 41
0.0
 42
0.0
 43
0.0
 44
0.0
 45
0.0
 46
0.0
 47
0.0
 48
0.0
 49
0.0
140
0.0
141
0.0
142
1.0
143
1.0
 70
   688
 72
     0
 73
     0
 74
     5
  7
monochrome.ctb
 75
    16
147
1.0
 76
     0
 77
     2
 78
   300
148
0.0
149
0.0
100
AcDbLayout
  1
Layout2
 70
     1
 71
     2
 10
0.0
 20
0.0
 11
0.0
 21
0.0
 12
0.0
 22
0.0
 32
0.0
 14
0.0
 24
0.0
 34
0.0
 15
0.0
 25
0.0
 35
0.0
146
0.0
 13
0.0
 23
0.0
 33
0.0
 16
1.0
 26
0.0
 36
0.0
 17
0.0
 27
1.0
 37
0.0
 76
     0
330
23
  0
LAYOUT
  5
22
102
{ACAD_REACTORS
330
1A
102
}
330
1A
100
AcDbPlotSettings
  1

  2
Nitro PDF Creator (Pro 9)
  4
User256
  6

 40
3.174999952316284
 41
3.174999952316284
 42
3.175003051757812
 43
3.17498779296875
 44
215.8999938964844
 45
279.3999938964844
 46
37.084
 47
0.0
 48
0.3334221756367839
 49
-1.966911991328906
140
7.975801540120293
141
13.4354972221754
142
1.0
143
1.43278222014166
 70
  1716
 72
     0
 73
     0
 74
     4
  7
monochrome.ctb
 75
     0
147
0.6979427759098861
 76
     0
 77
     2
 78
   300
148
-8.46892326117431
149
49.95956457975422
100
AcDbLayout
  1
Model
 70
     1
 71
     0
 10
0.0
 20
0.0
 11
8.5
 21
11.0
 12
0.0
 22
0.0
 32
0.0
 14
0.0
 24
0.0
 34
0.0
 15
8.5
 25
11.0
 35
0.0
146
0.0
 13
0.0
 23
0.0
 33
0.0
 16
1.0
 26
0.0
 36
0.0
 17
0.0
 27
1.0
 37
0.0
 76
     0
330
1F
  0
MLINESTYLE
  5
18
102
{ACAD_REACTORS
330
17
102
}
330
17
100
AcDbMlineStyle
  2
STANDARD
 70
     0
  3

 62
   256
 51
90.0
 52
90.0
 71
     2
 49
0.5
 62
   256
  6
BYLAYER
 49
-0.5
 62
   256
  6
BYLAYER
  0
ACDBPLACEHOLDER
  5
F
102
{ACAD_REACTORS
330
E
102
}
330
E
  0
ACAD_PROXY_OBJECT
  5
48
102
{ACAD_REACTORS
330
47
102
}
330
47
100
AcDbProxyObject
 90
      499
 91
      503
 95
   393239
 70
     0
 93
       41
310
903313A31580
 94
        0
  0
ACAD_PROXY_OBJECT
  5
49
102
{ACAD_REACTORS
330
47
102
}
330
47
100
AcDbProxyObject
 90
      499
 91
      503
 95
   393239
 70
     0
 93
      105
310
903313A324000000000000004000
 94
        0
  0
ACAD_PROXY_OBJECT
  5
4A
102
{ACAD_REACTORS
330
47
102
}
330
47
100
AcDbProxyObject
 90
      499
 91
      503
 95
   393239
 70
     0
 93
      105
310
903313A344000000000000104000
 94
        0
  0
ACAD_PROXY_OBJECT
  5
4B
102
{ACAD_REACTORS
330
47
102
}
330
47
100
AcDbProxyObject
 90
      499
 91
      503
 95
   393239
 70
     0
 93
      105
310
903313A354000000000000144000
 94
        0
  0
ACAD_PROXY_OBJECT
  5
4C
102
{ACAD_REACTORS
330
47
102
}
330
47
100
AcDbProxyObject
 90
      499
 91
      503
 95
   393239
 70
     0
 93
      105
310
903313A384000000000000204000
 94
        0
  0
ACAD_PROXY_OBJECT
  5
4D
102
{ACAD_REACTORS
330
47
102
}
330
47
100
AcDbProxyObject
 90
      499
 91
      503
 95
   393239
 70
     0
 93
      113
310
904313A31304000000000000244000
 94
        0
  0
ACAD_PROXY_OBJECT
  5
4E
102
{ACAD_REACTORS
330
47
102
}
330
47
100
AcDbProxyObject
 90
      499
 91
      503
 95
   393239
 70
     0
 93
      113
310
904313A31364000000000000304000
 94
        0
  0
ACAD_PROXY_OBJECT
  5
4F
102
{ACAD_REACTORS
330
47
102
}
330
47
100
AcDbProxyObject
 90
      499
 91
      503
 95
   393239
 70
     0
 93
      113
310
904313A32304000000000000344000
 94
        0
  0
ACAD_PROXY_OBJECT
  5
50
102
{ACAD_REACTORS
330
47
102
}
330
47
100
AcDbProxyObject
 90
      499
 91
      503
 95
   393239
 70
     0
 93
      113
310
904313A333040000000000003E4000
 94
        0
  0
ACAD_PROXY_OBJECT
  5
51
102
{ACAD_REACTORS
330
47
102
}
330
47
100
AcDbProxyObject
 90
      499
 91
      503
 95
   393239
 70
     0
 93
      113
310
904313A34304000000000000444000
 94
        0
  0
ACAD_PROXY_OBJECT
  5
52
102
{ACAD_REACTORS
330
47
102
}
330
47
100
AcDbProxyObject
 90
      499
 91
      503
 95
   393239
 70
     0
 93
      113
310
904313A35304000000000000494000
 94
        0
  0
ACAD_PROXY_OBJECT
  5
53
102
{ACAD_REACTORS
330
47
102
}
330
47
100
AcDbProxyObject
 90
      499
 91
      503
 95
   393239
 70
     0
 93
      121
310
905313A3130304000000000000594000
 94
        0
  0
ACAD_PROXY_OBJECT
  5
54
102
{ACAD_REACTORS
330
47
102
}
330
47
100
AcDbProxyObject
 90
      499
 91
      503
 95
   393239
 70
     0
 93
      105
310
903323A310000000000000010140
 94
        0
  0
ACAD_PROXY_OBJECT
  5
55
102
{ACAD_REACTORS
330
47
102
}
330
47
100
AcDbProxyObject
 90
      499
 91
      503
 95
   393239
 70
     0
 93
      105
310
903343A310000000000000410159
 94
        0
  0
ACAD_PROXY_OBJECT
  5
56
102
{ACAD_REACTORS
330
47
102
}
330
47
100
AcDbProxyObject
 90
      499
 91
      503
 95
   393239
 70
     0
 93
      105
310
903383A310000000000000810140
 94
        0
  0
ACAD_PROXY_OBJECT
  5
57
102
{ACAD_REACTORS
330
47
102
}
330
47
100
AcDbProxyObject
 90
      499
 91
      503
 95
   393239
 70
     0
 93
      113
310
90431303A310000000000000910140
 94
        0
  0
ACAD_PROXY_OBJECT
  5
58
102
{ACAD_REACTORS
330
47
102
}
330
47
100
AcDbProxyObject
 90
      499
 91
      503
 95
   393239
 70
     0
 93
      121
310
9053130303A310000000000001650100
 94
        0
  0
ACAD_PROXY_OBJECT
  5
59
102
{ACAD_REACTORS
330
47
102
}
330
47
100
AcDbProxyObject
 90
      499
 91
      503
 95
   393239
 70
     0
 93
      257
310
90E312F31323822203D2031272D3022000000000000200FC000000000000284000
 94
        0
  0
ACAD_PROXY_OBJECT
  5
5A
102
{ACAD_REACTORS
330
47
102
}
330
47
100
AcDbProxyObject
 90
      499
 91
      503
 95
   393239
 70
     0
 93
      249
310
90D312F363422203D2031272D3022000000000000240FC000000000000284000
 94
        0
  0
ACAD_PROXY_OBJECT
  5
5B
102
{ACAD_REACTORS
330
47
102
}
330
47
100
AcDbProxyObject
 90
      499
 91
      503
 95
   393239
 70
     0
 93
      249
310
90D312F333222203D2031272D3022000000000000280FC000000000000284040
 94
        0
  0
ACAD_PROXY_OBJECT
  5
5C
102
{ACAD_REACTORS
330
47
102
}
330
47
100
AcDbProxyObject
 90
      499
 91
      503
 95
   393239
 70
     0
 93
      249
310
90D312F313622203D2031272D30220000000000002C0FC000000000000284000
 94
        0
  0
ACAD_PROXY_OBJECT
  5
5D
102
{ACAD_REACTORS
330
47
102
}
330
47
100
AcDbProxyObject
 90
      499
 91
      503
 95
   393239
 70
     0
 93
      249
310
90D332F333222203D2031272D30220000000000002E0FC000000000000284040
 94
        0
  0
ACAD_PROXY_OBJECT
  5
5E
102
{ACAD_REACTORS
330
47
102
}
330
47
100
AcDbProxyObject
 90
      499
 91
      503
 95
   393239
 70
     0
 93
      241
310
90C312F3822203D2031272D3022000000000000300FC000000000000284040
 94
        0
  0
ACAD_PROXY_OBJECT
  5
5F
102
{ACAD_REACTORS
330
47
102
}
330
47
100
AcDbProxyObject
 90
      499
 91
      503
 95
   393239
 70
     0
 93
      249
310
90D332F313622203D2031272D3022000000000000320FC000000000000284040
 94
        0
  0
ACAD_PROXY_OBJECT
  5
60
102
{ACAD_REACTORS
330
47
102
}
330
47
100
AcDbProxyObject
 90
      499
 91
      503
 95
   393239
 70
     0
 93
      241
310
90C312F3422203D2031272D3022000000000000340FC000000000000284040
 94
        0
  0
ACAD_PROXY_OBJECT
  5
61
102
{ACAD_REACTORS
330
47
102
}
330
47
100
AcDbProxyObject
 90
      499
 91
      503
 95
   393239
 70
     0
 93
      241
310
90C332F3822203D2031272D3022000000000000360FC000000000000284040
 94
        0
  0
ACAD_PROXY_OBJECT
  5
62
102
{ACAD_REACTORS
330
47
102
}
330
47
100
AcDbProxyObject
 90
      499
 91
      503
 95
   393239
 70
     0
 93
      241
310
90C312F3222203D2031272D3022000000000000380FC000000000000284040
 94
        0
  0
ACAD_PROXY_OBJECT
  5
63
102
{ACAD_REACTORS
330
47
102
}
330
47
100
AcDbProxyObject
 90
      499
 91
      503
 95
   393239
 70
     0
 93
      241
310
90C332F3422203D2031272D30220000000000003A0FC000000000000284040
 94
        0
  0
ACAD_PROXY_OBJECT
  5
64
102
{ACAD_REACTORS
330
47
102
}
330
47
100
AcDbProxyObject
 90
      499
 91
      503
 95
   393239
 70
     0
 93
      161
310
90A3122203D2031272D30224000000000000284020
 94
        0
  0
ACAD_PROXY_OBJECT
  5
65
102
{ACAD_REACTORS
330
47
102
}
330
47
100
AcDbProxyObject
 90
      499
 91
      503
 95
   393239
 70
     0
 93
      257
310
90E312D312F3222203D2031272D30220000000000003E0FC000000000000284000
 94
        0
  0
ACAD_PROXY_OBJECT
  5
66
102
{ACAD_REACTORS
330
47
102
}
330
47
100
AcDbProxyObject
 90
      499
 91
      503
 95
   393239
 70
     0
 93
      225
310
90A3322203D2031272D302200000000000002100000000000000284028
 94
        0
  0
ACAD_PROXY_OBJECT
  5
67
102
{ACAD_REACTORS
330
47
102
}
330
47
100
AcDbProxyObject
 90
      499
 91
      503
 95
   393239
 70
     0
 93
      225
310
90A3622203D2031272D302200000000000006100000000000000284000
 94
        0
  0
ACAD_PROXY_OBJECT
  5
68
102
{ACAD_REACTORS
330
47
102
}
330
47
100
AcDbProxyObject
 90
      499
 91
      503
 95
   393239
 70
     0
 93
      249
310
90D31272D3022203D2031272D30220000000000000A100000000000000284040
 94
        0
  0
ENDSEC
  0
EOF
