  0
SECTION
  2
HEADER
  9
$ACADVER
  1
AC1015
  9
$ACADMAINTVER
 70
    20
  9
$DWGCODEPAGE
  3
ANSI_1252
  9
$INSBASE
 10
0.0
 20
0.0
 30
0.0
  9
$EXTMIN
 10
0.4876860078851877
 20
0.2525852453336501
 30
-0.0000000000000084
  9
$EXTMAX
 10
3.818335798789039
 20
3.74014179040931
 30
0.0000000000000069
  9
$LIMMIN
 10
0.0
 20
0.0
  9
$LIMMAX
 10
0.0
 20
0.0
  9
$ORTHOMODE
 70
     1
  9
$REGENMODE
 70
     1
  9
$FILLMODE
 70
     1
  9
$QTEXTMODE
 70
     0
  9
$MIRRTEXT
 70
     1
  9
$LTSCALE
 40
1.0
  9
$ATTMODE
 70
     1
  9
$TEXTSIZE
 40
0.2
  9
$TRACEWID
 40
0.05
  9
$TEXTSTYLE
  7
STANDARD
  9
$CLAYER
  8
0
  9
$CELTYPE
  6
CONTINUOUS
  9
$CECOLOR
 62
   256
  9
$CELTSCALE
 40
1.0
  9
$DISPSILH
 70
     0
  9
$DIMSCALE
 40
1.0
  9
$DIMASZ
 40
0.0
  9
$DIMEXO
 40
39.37007874015748
  9
$DIMDLI
 40
0.38
  9
$DIMRND
 40
0.0
  9
$DIMDLE
 40
0.0
  9
$DIMEXE
 40
0.18
  9
$DIMTP
 40
0.0
  9
$DIMTM
 40
0.0
  9
$DIMTXT
 40
0.125
  9
$DIMCEN
 40
0.09
  9
$DIMTSZ
 40
0.0
  9
$DIMTOL
 70
     0
  9
$DIMLIM
 70
     0
  9
$DIMTIH
 70
     1
  9
$DIMTOH
 70
     1
  9
$DIMSE1
 70
     0
  9
$DIMSE2
 70
     0
  9
$DIMTAD
 70
     1
  9
$DIMZIN
 70
     0
  9
$DIMBLK
  1

  9
$DIMASO
 70
     1
  9
$DIMSHO
 70
     1
  9
$DIMPOST
  1

  9
$DIMAPOST
  1

  9
$DIMALT
 70
     0
  9
$DIMALTD
 70
     2
  9
$DIMALTF
 40
25.4
  9
$DIMLFAC
 40
1.0
  9
$DIMTOFL
 70
     0
  9
$DIMTVP
 40
0.0
  9
$DIMTIX
 70
     0
  9
$DIMSOXD
 70
     0
  9
$DIMSAH
 70
     0
  9
$DIMBLK1
  1

  9
$DIMBLK2
  1

  9
$DIMSTYLE
  2
STANDARD
  9
$DIMCLRD
 70
     0
  9
$DIMCLRE
 70
     0
  9
$DIMCLRT
 70
     0
  9
$DIMTFAC
 40
1.0
  9
$DIMGAP
 40
39.37007874015748
  9
$DIMJUST
 70
     0
  9
$DIMSD1
 70
     0
  9
$DIMSD2
 70
     0
  9
$DIMTOLJ
 70
     1
  9
$DIMTZIN
 70
     0
  9
$DIMALTZ
 70
     0
  9
$DIMALTTZ
 70
     0
  9
$DIMUPT
 70
     0
  9
$DIMDEC
 70
     4
  9
$DIMTDEC
 70
     4
  9
$DIMALTU
 70
     2
  9
$DIMALTTD
 70
     2
  9
$DIMTXSTY
  7
STANDARD
  9
$DIMAUNIT
 70
     0
  9
$DIMADEC
 70
     0
  9
$DIMALTRND
 40
0.0
  9
$DIMAZIN
 70
     0
  9
$DIMDSEP
 70
    46
  9
$DIMATFIT
 70
     3
  9
$DIMFRAC
 70
     0
  9
$DIMLDRBLK
  1

  9
$DIMLUNIT
 70
     2
  9
$DIMLWD
 70
    -2
  9
$DIMLWE
 70
    -2
  9
$DIMTMOVE
 70
     0
  9
$LUNITS
 70
     2
  9
$LUPREC
 70
     4
  9
$SKETCHINC
 40
0.1
  9
$FILLETRAD
 40
0.0
  9
$AUNITS
 70
     0
  9
$AUPREC
 70
     2
  9
$MENU
  1
acad
  9
$ELEVATION
 40
0.0
  9
$PELEVATION
 40
0.0
  9
$THICKNESS
 40
0.0
  9
$LIMCHECK
 70
     0
  9
$CHAMFERA
 40
0.0
  9
$CHAMFERB
 40
0.0
  9
$CHAMFERC
 40
0.0
  9
$CHAMFERD
 40
0.0
  9
$SKPOLY
 70
     0
  9
$TDCREATE
 40
2444971.791666667
  9
$TDUCREATE
 40
2444972.000000000
  9
$TDUPDATE
 40
2454763.447155845
  9
$TDUUPDATE
 40
2454763.655489178
  9
$TDINDWG
 40
0.0420857523
  9
$TDUSRTIMER
 40
0.0420857523
  9
$USRTIMER
 70
     1
  9
$ANGBASE
 50
0.0
  9
$ANGDIR
 70
     0
  9
$PDMODE
 70
     0
  9
$PDSIZE
 40
-1.0
  9
$PLINEWID
 40
0.0
  9
$SPLFRAME
 70
     0
  9
$SPLINETYPE
 70
     6
  9
$SPLINESEGS
 70
     8
  9
$HANDSEED
  5
4BD
  9
$SURFTAB1
 70
     6
  9
$SURFTAB2
 70
     6
  9
$SURFTYPE
 70
     6
  9
$SURFU
 70
     6
  9
$SURFV
 70
     6
  9
$UCSBASE
  2

  9
$UCSNAME
  2

  9
$UCSORG
 10
0.0
 20
0.0
 30
0.0
  9
$UCSXDIR
 10
1.0
 20
0.0
 30
0.0
  9
$UCSYDIR
 10
0.0
 20
1.0
 30
0.0
  9
$UCSORTHOREF
  2

  9
$UCSORTHOVIEW
 70
     1
  9
$UCSORGTOP
 10
0.0
 20
0.0
 30
0.0
  9
$UCSORGBOTTOM
 10
0.0
 20
0.0
 30
0.0
  9
$UCSORGLEFT
 10
0.0
 20
0.0
 30
0.0
  9
$UCSORGRIGHT
 10
0.0
 20
0.0
 30
0.0
  9
$UCSORGFRONT
 10
0.0
 20
0.0
 30
0.0
  9
$UCSORGBACK
 10
0.0
 20
0.0
 30
0.0
  9
$PUCSBASE
  2

  9
$PUCSNAME
  2

  9
$PUCSORG
 10
0.0
 20
0.0
 30
0.0
  9
$PUCSXDIR
 10
1.0
 20
0.0
 30
0.0
  9
$PUCSYDIR
 10
0.0
 20
1.0
 30
0.0
  9
$PUCSORTHOREF
  2

  9
$PUCSORTHOVIEW
 70
     0
  9
$PUCSORGTOP
 10
0.0
 20
0.0
 30
0.0
  9
$PUCSORGBOTTOM
 10
0.0
 20
0.0
 30
0.0
  9
$PUCSORGLEFT
 10
0.0
 20
0.0
 30
0.0
  9
$PUCSORGRIGHT
 10
0.0
 20
0.0
 30
0.0
  9
$PUCSORGFRONT
 10
0.0
 20
0.0
 30
0.0
  9
$PUCSORGBACK
 10
0.0
 20
0.0
 30
0.0
  9
$USERI1
 70
     0
  9
$USERI2
 70
     0
  9
$USERI3
 70
     0
  9
$USERI4
 70
     0
  9
$USERI5
 70
     0
  9
$USERR1
 40
0.0
  9
$USERR2
 40
0.0
  9
$USERR3
 40
0.0
  9
$USERR4
 40
0.0
  9
$USERR5
 40
0.0
  9
$WORLDVIEW
 70
     1
  9
$SHADEDGE
 70
     3
  9
$SHADEDIF
 70
    70
  9
$TILEMODE
 70
     1
  9
$MAXACTVP
 70
    16
  9
$PINSBASE
 10
0.0
 20
0.0
 30
0.0
  9
$PLIMCHECK
 70
     0
  9
$PEXTMIN
 10
1.000000000000000E+20
 20
1.000000000000000E+20
 30
1.000000000000000E+20
  9
$PEXTMAX
 10
-1.000000000000000E+20
 20
-1.000000000000000E+20
 30
-1.000000000000000E+20
  9
$PLIMMIN
 10
0.0
 20
0.0
  9
$PLIMMAX
 10
12.0
 20
9.0
  9
$UNITMODE
 70
     0
  9
$VISRETAIN
 70
     0
  9
$PLINEGEN
 70
     1
  9
$PSLTSCALE
 70
     1
  9
$TREEDEPTH
 70
  3020
  9
$CMLSTYLE
  2
STANDARD
  9
$CMLJUST
 70
     0
  9
$CMLSCALE
 40
1.0
  9
$PROXYGRAPHICS
 70
     1
  9
$MEASUREMENT
 70
     0
  9
$CELWEIGHT
370
    -1
  9
$ENDCAPS
280
     0
  9
$JOINSTYLE
280
     0
  9
$LWDISPLAY
290
     0
  9
$INSUNITS
 70
     0
  9
$HYPERLINKBASE
  1

  9
$STYLESHEET
  1
MONOCHROME.CTB
  9
$XEDIT
290
     1
  9
$CEPSNTYPE
380
     0
  9
$PSTYLEMODE
290
     1
  9
$FINGERPRINTGUID
  2
{1955123A-577B-447C-A240-B90BB08B9AE2}
  9
$VERSIONGUID
  2
{6E0077D8-0279-4577-8323-94F687105494}
  9
$EXTNAMES
290
     1
  9
$PSVPSCALE
 40
0.0
  9
$OLESTARTUP
290
     0
  0
ENDSEC
  0
SECTION
  2
CLASSES
  0
CLASS
  1
IMAGE
  2
AcDbRasterImage
  3
ISM
 90
    32895
280
     0
281
     1
  0
CLASS
  1
DICTIONARYVAR
  2
AcDbDictionaryVar
  3
ObjectDBX Classes
 90
        0
280
     0
281
     0
  0
CLASS
  1
RASTERVARIABLES
  2
AcDbRasterVariables
  3
ISM
 90
    32768
280
     0
281
     0
  0
CLASS
  1
IMAGEDEF
  2
AcDbRasterImageDef
  3
ISM
 90
    32768
280
     0
281
     0
  0
CLASS
  1
IMAGEDEF_REACTOR
  2
AcDbRasterImageDefReactor
  3
ISM
 90
    32769
280
     0
281
     0
  0
CLASS
  1
IDBUFFER
  2
AcDbIdBuffer
  3
ObjectDBX Classes
 90
    32768
280
     0
281
     0
  0
CLASS
  1
SPATIAL_FILTER
  2
AcDbSpatialFilter
  3
ObjectDBX Classes
 90
    32768
280
     0
281
     0
  0
CLASS
  1
SORTENTSTABLE
  2
AcDbSortentsTable
  3
ObjectDBX Classes
 90
    32768
280
     0
281
     0
  0
CLASS
  1
LAYER_INDEX
  2
AcDbLayerIndex
  3
ObjectDBX Classes
 90
    32768
280
     0
281
     0
  0
CLASS
  1
SPATIAL_INDEX
  2
AcDbSpatialIndex
  3
ObjectDBX Classes
 90
    32768
280
     0
281
     0
  0
CLASS
  1
OBJECT_PTR
  2
CAseDLPNTableRecord
  3
ASE-LPNTableRecord
 90
    32769
280
     0
281
     0
  0
CLASS
  1
PLOTSETTINGS
  2
AcDbPlotSettings
  3
ObjectDBX Classes
 90
    32768
280
     0
281
     0
  0
CLASS
  1
ACDBDICTIONARYWDFLT
  2
AcDbDictionaryWithDefault
  3
ObjectDBX Classes
 90
        0
280
     0
281
     0
  0
CLASS
  1
WIPEOUT
  2
AcDbWipeout
  3
"WipeOut|Product Desc: Object Enabler for WipeOut entity^I^I^I^I^I^I|Company: Autodesk, Inc.^I^I^I^I^I^I|WEB Address: www.autodesk.com"
 90
    32895
280
     0
281
     1
  0
CLASS
  1
WIPEOUTVARIABLES
  2
AcDbWipeoutVariables
  3
"WipeOut|Product Desc:     WipeOut Dbx Application|Company:          Autodesk, Inc.|WEB Address:      www.autodesk.com"
 90
    32768
280
     0
281
     0
  0
CLASS
  1
RTEXT
  2
RText
  3
RText|AutoCAD Express Tool|expresstools@autodesk.com
 90
    32768
280
     0
281
     1
  0
CLASS
  1
ARCALIGNEDTEXT
  2
AcDbArcAlignedText
  3
ATEXT|AutoCAD Express Tool|expresstools@autodesk.com
 90
    32768
280
     0
281
     1
  0
CLASS
  1
ACDBPLACEHOLDER
  2
AcDbPlaceHolder
  3
ObjectDBX Classes
 90
        0
280
     0
281
     0
  0
CLASS
  1
LAYOUT
  2
AcDbLayout
  3
ObjectDBX Classes
 90
        0
280
     0
281
     0
  0
ENDSEC
  0
SECTION
  2
TABLES
  0
TABLE
  2
VPORT
  5
7
330
0
100
AcDbSymbolTable
 70
     3
  0
VPORT
  5
4B0
330
7
100
AcDbSymbolTableRecord
100
AcDbViewportTableRecord
  2
*Active
 70
     0
 10
0.0
 20
0.0
 11
1.0
 21
1.0
 12
2.153010903337113
 22
1.99636351787148
 13
0.0
 23
0.0
 14
1.0
 24
1.0
 15
0.0
 25
0.0
 16
0.0
 26
0.0
 36
1.0
 17
0.0
 27
0.0
 37
0.0
 40
3.51411154414984
 41
1.257941550190597
 42
50.0
 43
0.0
 44
0.0
 50
0.0
 51
0.0
 71
     0
 72
  2000
 73
     1
 74
     1
 75
     0
 76
     0
 77
     0
 78
     0
281
     0
 65
     1
110
0.0
120
0.0
130
0.0
111
1.0
121
0.0
131
0.0
112
0.0
122
1.0
132
0.0
 79
     1
146
0.0
  0
ENDTAB
  0
TABLE
  2
LTYPE
  5
4
330
0
100
AcDbSymbolTable
 70
     6
  0
LTYPE
  5
11
330
4
100
AcDbSymbolTableRecord
100
AcDbLinetypeTableRecord
  2
BYBLOCK
 70
     0
  3

 72
    65
 73
     0
 40
0.0
  0
LTYPE
  5
12
330
4
100
AcDbSymbolTableRecord
100
AcDbLinetypeTableRecord
  2
BYLAYER
 70
     0
  3

 72
    65
 73
     0
 40
0.0
  0
LTYPE
  5
13
330
4
100
AcDbSymbolTableRecord
100
AcDbLinetypeTableRecord
  2
CONTINUOUS
 70
     0
  3
Solid line
 72
    65
 73
     0
 40
0.0
  0
LTYPE
  5
1D
330
4
100
AcDbSymbolTableRecord
100
AcDbLinetypeTableRecord
  2
HIDDEN
 70
     0
  3
Hidden __ __ __ __ __ __ __ __ __ __ __ __ __ __
 72
    65
 73
     2
 40
0.075
 49
0.05
 74
     0
 49
-0.025
 74
     0
  0
LTYPE
  5
1E
330
4
100
AcDbSymbolTableRecord
100
AcDbLinetypeTableRecord
  2
PHANTOM
 70
     0
  3
Phantom ______  __  __  ______  __  __  ______
 72
    65
 73
     6
 40
0.5
 49
0.25
 74
     0
 49
-0.05
 74
     0
 49
0.05
 74
     0
 49
-0.05
 74
     0
 49
0.05
 74
     0
 49
-0.05
 74
     0
  0
LTYPE
  5
1F
330
4
100
AcDbSymbolTableRecord
100
AcDbLinetypeTableRecord
  2
CENTER
 70
     0
  3
Center ____ _ ____ _ ____ _ ____ _ ____ _ ____
 72
    65
 73
     4
 40
0.4
 49
0.25
 74
     0
 49
-0.05
 74
     0
 49
0.05
 74
     0
 49
-0.05
 74
     0
  0
LTYPE
  5
20
330
4
100
AcDbSymbolTableRecord
100
AcDbLinetypeTableRecord
  2
CENTERX2
 70
     0
  3
Center (2x) ________  __  ________  __  _____
 72
    65
 73
     4
 40
0.8
 49
0.5
 74
     0
 49
-0.1
 74
     0
 49
0.1
 74
     0
 49
-0.1
 74
     0
  0
LTYPE
  5
21
330
4
100
AcDbSymbolTableRecord
100
AcDbLinetypeTableRecord
  2
DOT2
 70
     0
  3
Dot (.5x) ........................................
 72
    65
 73
     2
 40
0.025
 49
0.0
 74
     0
 49
-0.025
 74
     0
  0
ENDTAB
  0
TABLE
  2
LAYER
  5
2
330
0
100
AcDbSymbolTable
 70
     5
  0
LAYER
  5
14
330
2
100
AcDbSymbolTableRecord
100
AcDbLayerTableRecord
  2
0
 70
     0
 62
     7
  6
CONTINUOUS
370
    -3
390
432
  0
LAYER
  5
23
330
2
100
AcDbSymbolTableRecord
100
AcDbLayerTableRecord
  2
DEFPOINTS
 70
     0
 62
     7
  6
CONTINUOUS
290
     0
370
    -3
390
432
  0
LAYER
  5
25
330
2
100
AcDbSymbolTableRecord
100
AcDbLayerTableRecord
  2
DIM
 70
     0
 62
     3
  6
CONTINUOUS
370
    -3
390
432
  0
LAYER
  5
26
330
2
100
AcDbSymbolTableRecord
100
AcDbLayerTableRecord
  2
BORDER
 70
     0
 62
   179
  6
CONTINUOUS
370
    -3
390
432
  0
LAYER
  5
28
330
2
100
AcDbSymbolTableRecord
100
AcDbLayerTableRecord
  2
OBJ
 70
     0
 62
   179
  6
CONTINUOUS
370
    -3
390
432
  0
ENDTAB
  0
TABLE
  2
STYLE
  5
3
330
0
100
AcDbSymbolTable
 70
     2
  0
STYLE
  5
17
330
3
100
AcDbSymbolTableRecord
100
AcDbTextStyleTableRecord
  2
STANDARD
 70
     0
 40
0.0
 41
1.0
 50
0.0
 71
     0
 42
0.2
  3
txt
  4

  0
STYLE
  5
2C
330
3
100
AcDbSymbolTableRecord
100
AcDbTextStyleTableRecord
  2
SLDTEXTSTYLE0
 70
     0
 40
0.0
 41
0.75
 50
0.0
 71
     0
 42
0.0
  3
TXT
  4

  0
ENDTAB
  0
TABLE
  2
VIEW
  5
5
330
0
100
AcDbSymbolTable
 70
     0
  0
ENDTAB
  0
TABLE
  2
UCS
  5
6
330
0
100
AcDbSymbolTable
 70
     0
  0
ENDTAB
  0
TABLE
  2
APPID
  5
8
330
0
100
AcDbSymbolTable
 70
     2
  0
APPID
  5
16
330
8
100
AcDbSymbolTableRecord
100
AcDbRegAppTableRecord
  2
ACAD
 70
     0
  0
APPID
  5
43D
330
8
100
AcDbSymbolTableRecord
100
AcDbRegAppTableRecord
  2
DCO15
 70
     0
  0
ENDTAB
  0
TABLE
  2
DIMSTYLE
  5
9
330
0
100
AcDbSymbolTable
 70
     3
100
AcDbDimStyleTable
 71
     0
  0
DIMSTYLE
105
18
330
9
100
AcDbSymbolTableRecord
100
AcDbDimStyleTableRecord
  2
STANDARD
 70
     0
340
17
  0
DIMSTYLE
105
F8
330
9
100
AcDbSymbolTableRecord
100
AcDbDimStyleTableRecord
  2
SLDDIMSTYLE0
 70
     0
 41
0.156
 44
0.125
 78
    12
140
0.125
144
4.0
147
0.03125
173
     1
176
   179
177
   179
178
   179
284
    12
340
2C
341
EF
343
EF
344
EF
  0
DIMSTYLE
105
FE
330
9
100
AcDbSymbolTableRecord
100
AcDbDimStyleTableRecord
  2
SLDDIMSTYLE1
 70
     0
 41
0.156
 44
0.0
140
0.156
147
0.039
173
     1
271
     0
272
     0
340
17
341
EF
343
EF
344
EF
  0
ENDTAB
  0
TABLE
  2
BLOCK_RECORD
  5
1
330
0
100
AcDbSymbolTable
 70
    13
  0
BLOCK_RECORD
  5
A
330
1
100
AcDbSymbolTableRecord
100
AcDbBlockTableRecord
  2
*MODEL_SPACE
340
437
  0
BLOCK_RECORD
  5
B
330
1
100
AcDbSymbolTableRecord
100
AcDbBlockTableRecord
  2
*PAPER_SPACE
340
438
  0
BLOCK_RECORD
  5
29
330
1
100
AcDbSymbolTableRecord
100
AcDbBlockTableRecord
  2
REVISION
340
0
  0
BLOCK_RECORD
  5
59
330
1
100
AcDbSymbolTableRecord
100
AcDbBlockTableRecord
  2
NOTE0
340
0
  0
BLOCK_RECORD
  5
61
330
1
100
AcDbSymbolTableRecord
100
AcDbBlockTableRecord
  2
NOTE1
340
0
102
{BLKREFS
331
64
102
}
  0
BLOCK_RECORD
  5
E7
330
1
100
AcDbSymbolTableRecord
100
AcDbBlockTableRecord
  2
*D3
340
0
  0
BLOCK_RECORD
  5
EF
330
1
100
AcDbSymbolTableRecord
100
AcDbBlockTableRecord
  2
_CLOSED
340
0
102
{BLKREFS
331
F6
331
F7
331
177
331
178
331
1A4
331
1A5
331
1BE
331
1BF
331
487
331
488
102
}
  0
BLOCK_RECORD
  5
FF
330
1
100
AcDbSymbolTableRecord
100
AcDbBlockTableRecord
  2
NOTE40
340
0
  0
BLOCK_RECORD
  5
106
330
1
100
AcDbSymbolTableRecord
100
AcDbBlockTableRecord
  2
NOTE41
340
0
  0
BLOCK_RECORD
  5
10E
330
1
100
AcDbSymbolTableRecord
100
AcDbBlockTableRecord
  2
WELD43
340
0
  0
BLOCK_RECORD
  5
16E
330
1
100
AcDbSymbolTableRecord
100
AcDbBlockTableRecord
  2
*D8
340
0
  0
BLOCK_RECORD
  5
19D
330
1
100
AcDbSymbolTableRecord
100
AcDbBlockTableRecord
  2
*D9
340
0
  0
BLOCK_RECORD
  5
1AA
330
1
100
AcDbSymbolTableRecord
100
AcDbBlockTableRecord
  2
*D10
340
0
  0
BLOCK_RECORD
  5
1B7
330
1
100
AcDbSymbolTableRecord
100
AcDbBlockTableRecord
  2
*D11
340
0
  0
BLOCK_RECORD
  5
420
330
1
100
AcDbSymbolTableRecord
100
AcDbBlockTableRecord
  2
NOTE45
340
0
  0
ENDTAB
  0
ENDSEC
  0
SECTION
  2
BLOCKS
  0
BLOCK
  5
D
330
A
100
AcDbEntity
  8
0
100
AcDbBlockBegin
  2
*MODEL_SPACE
 70
     0
 10
0.0
 20
0.0
 30
0.0
  3
*MODEL_SPACE
  1

  0
ENDBLK
  5
E
330
A
100
AcDbEntity
  8
0
100
AcDbBlockEnd
  0
BLOCK
  5
F
330
B
100
AcDbEntity
 67
     1
  8
0
100
AcDbBlockBegin
  2
*PAPER_SPACE
 70
     0
 10
0.0
 20
0.0
 30
0.0
  3
*PAPER_SPACE
  1

  0
ENDBLK
  5
10
330
B
100
AcDbEntity
 67
     1
  8
0
100
AcDbBlockEnd
  0
BLOCK
  5
2A
330
29
100
AcDbEntity
  8
0
 62
     0
100
AcDbBlockBegin
  2
REVISION
 70
     2
 10
0.0
 20
0.0
 30
0.0
  3
REVISION
  1

  0
LINE
  5
2B
330
29
100
AcDbEntity
  8
OBJ
100
AcDbLine
 10
-0.0026429057869019
 20
1.506276760818833
 30
0.0
 11
3.949357094209151
 21
1.50620905075892
 31
0.0
  0
ATTDEF
  5
2D
330
29
100
AcDbEntity
  8
OBJ
100
AcDbText
 10
3.667445363349513
 20
1.323373504749465
 30
0.0
 40
0.09375
  1
*
 41
0.75
  7
SLDTEXTSTYLE0
 11
3.667445363349513
 21
1.417123504749465
 31
0.0
100
AcDbAttributeDefinition
  3

  2
*
 70
     0
 74
     3
  0
ATTDEF
  5
2E
330
29
100
AcDbEntity
  8
OBJ
100
AcDbText
 10
2.386150186553203
 20
1.324179007505939
 30
0.0
 40
0.09375
  1
*
 41
0.75
  7
SLDTEXTSTYLE0
 11
2.386150186553203
 21
1.417929007505939
 31
0.0
100
AcDbAttributeDefinition
  3

  2
*
 70
     0
 74
     3
  0
ATTDEF
  5
2F
330
29
100
AcDbEntity
  8
OBJ
100
AcDbText
 10
1.095143035753204
 20
1.321299994066579
 30
0.0
 40
0.09375
  1
*
 41
0.75
  7
SLDTEXTSTYLE0
 11
1.095143035753204
 21
1.415049994066579
 31
0.0
100
AcDbAttributeDefinition
  3

  2
*
 70
     0
 74
     3
  0
ATTDEF
  5
30
330
29
100
AcDbEntity
  8
OBJ
100
AcDbText
 10
0.5027994871136051
 20
1.322838509042105
 30
0.0
 40
0.09375
  1
*
 41
0.75
  7
SLDTEXTSTYLE0
 11
0.5027994871136051
 21
1.416588509042106
 31
0.0
100
AcDbAttributeDefinition
  3

  2
*
 70
     0
 74
     3
  0
ATTDEF
  5
31
330
29
100
AcDbEntity
  8
OBJ
100
AcDbText
 10
0.0992254533403247
 20
1.326300272972534
 30
0.0
 40
0.09375
  1
*
 41
0.75
  7
SLDTEXTSTYLE0
 11
0.0992254533403247
 21
1.420050272972534
 31
0.0
100
AcDbAttributeDefinition
  3

  2
*
 70
     0
 74
     3
  0
ENDBLK
  5
32
330
29
100
AcDbEntity
  8
0
100
AcDbBlockEnd
  0
BLOCK
  5
5A
330
59
100
AcDbEntity
  8
0
 62
     0
100
AcDbBlockBegin
  2
NOTE0
 70
     0
 10
0.0
 20
0.0
 30
0.0
  3
NOTE0
  1

  0
MTEXT
  5
5B
330
59
100
AcDbEntity
  8
OBJ
100
AcDbMText
 10
0.0
 20
0.1435367454068242
 30
0.0
 40
0.1041666666666667
 41
0.0
 71
     1
 72
     5
  1
ALL DIMENSIONS ARE 
  7
SLDTEXTSTYLE0
 73
     1
 44
1.0
1001
ACAD
1000
MTEXTBEGIN
1070
    73
1070
     1
1070
    44
1040
1.0
1070
    74
1070
     0
1000
MTEXTEND
  0
MTEXT
  5
5C
102
{ACAD_XDICTIONARY
360
4B5
102
}
330
59
100
AcDbEntity
  8
OBJ
100
AcDbMText
 10
1.778742225151361
 20
0.1435367454068242
 30
0.0
 40
0.1041666666666667
 41
0.0
 71
     1
 72
     5
  1
\U+00B1
  7
SLDTEXTSTYLE0
 73
     1
 44
1.0
1001
ACAD
1000
MTEXTBEGIN
1070
    73
1070
     1
1070
    44
1040
1.0
1070
    74
1070
     0
1000
MTEXTEND
  0
MTEXT
  5
5D
330
59
100
AcDbEntity
  8
OBJ
100
AcDbMText
 10
1.882214509830699
 20
0.1435367454068242
 30
0.0
 40
0.1041666666666667
 41
0.0
 71
     1
 72
     5
  1
1/32
  7
SLDTEXTSTYLE0
 73
     1
 44
1.0
1001
ACAD
1000
MTEXTBEGIN
1070
    73
1070
     1
1070
    44
1040
1.0
1070
    74
1070
     0
1000
MTEXTEND
  0
MTEXT
  5
5E
330
59
100
AcDbEntity
  8
OBJ
100
AcDbMText
 10
0.2285662862494236
 20
0.0046478581964344
 30
0.0
 40
0.1041666666666667
 41
0.0
 71
     1
 72
     5
  1
EXCEPT WHERE NOTED
  7
SLDTEXTSTYLE0
 73
     1
 44
1.0
1001
ACAD
1000
MTEXTBEGIN
1070
    73
1070
     1
1070
    44
1040
1.0
1070
    74
1070
     0
1000
MTEXTEND
  0
ENDBLK
  5
5F
330
59
100
AcDbEntity
  8
0
100
AcDbBlockEnd
  0
BLOCK
  5
62
330
61
100
AcDbEntity
  8
0
 62
     0
100
AcDbBlockBegin
  2
NOTE1
 70
     0
 10
0.0
 20
0.0
 30
0.0
  3
NOTE1
  1

  0
ENDBLK
  5
63
330
61
100
AcDbEntity
  8
0
100
AcDbBlockEnd
  0
BLOCK
  5
E8
330
E7
100
AcDbEntity
  8
0
 62
   179
100
AcDbBlockBegin
  2
*D3
 70
     1
 10
0.0
 20
0.0
 30
0.0
  3
*D3
  1

  0
MTEXT
  5
E9
330
E7
100
AcDbEntity
  8
OBJ
100
AcDbMText
 10
5.222590860922525
 20
4.377787667914343
 30
0.0
 40
0.09375
 41
0.0
 71
     1
 72
     5
  1
1/4"
  7
SLDTEXTSTYLE0
 73
     1
 44
1.0
1001
ACAD
1000
MTEXTBEGIN
1070
    73
1070
     1
1070
    44
1040
1.0
1070
    74
1070
     0
1000
MTEXTEND
  0
LINE
  5
EA
330
E7
100
AcDbEntity
  8
OBJ
100
AcDbLine
 10
4.714882238044583
 20
3.959634431566425
 30
0.0
 11
5.160090860922522
 21
3.959634431566425
 31
0.0
  0
LINE
  5
EB
330
E7
100
AcDbEntity
  8
OBJ
100
AcDbLine
 10
4.681257238044583
 20
4.022134431566423
 30
0.0
 11
5.160090860922522
 21
4.022134431566423
 31
0.0
  0
LINE
  5
EC
330
E7
100
AcDbEntity
  8
OBJ
100
AcDbLine
 10
5.160090860922522
 20
4.322252695557168
 30
0.0
 11
5.035090860922522
 21
4.322252695557168
 31
0.0
  0
LINE
  5
ED
330
E7
100
AcDbEntity
  8
OBJ
100
AcDbLine
 10
5.035090860922522
 20
4.322252695557168
 30
0.0
 11
5.035090860922522
 21
4.022134431566423
 31
0.0
  0
LINE
  5
EE
330
E7
100
AcDbEntity
  8
OBJ
100
AcDbLine
 10
5.035090860922522
 20
3.959634431566425
 30
0.0
 11
5.035090860922522
 21
3.709634431566425
 31
0.0
  0
INSERT
  5
F6
330
E7
100
AcDbEntity
  8
0
100
AcDbBlockReference
  2
_CLOSED
 10
5.035090860922522
 20
3.959634431566425
 30
0.0
 41
0.156
 42
0.156
 50
90.0000000000004
  0
INSERT
  5
F7
330
E7
100
AcDbEntity
  8
0
100
AcDbBlockReference
  2
_CLOSED
 10
5.035090860922522
 20
4.022134431566423
 30
0.0
 41
0.156
 42
0.156
 50
270.0000000000004
  0
POINT
  5
F9
330
E7
100
AcDbEntity
  8
DEFPOINTS
100
AcDbPoint
 10
4.664882238044583
 20
3.959634431566425
 30
0.0
  0
POINT
  5
FA
330
E7
100
AcDbEntity
  8
DEFPOINTS
100
AcDbPoint
 10
4.631257238044582
 20
4.022134431566423
 30
0.0
  0
ENDBLK
  5
FB
330
E7
100
AcDbEntity
  8
0
 62
   179
100
AcDbBlockEnd
  0
BLOCK
  5
F0
330
EF
100
AcDbEntity
  8
0
100
AcDbBlockBegin
  2
_CLOSED
 70
     0
 10
0.0
 20
0.0
 30
0.0
  3
_CLOSED
  1

  0
LINE
  5
F1
330
EF
100
AcDbEntity
  8
0
  6
ByBlock
 62
     0
100
AcDbLine
 10
-1.0
 20
0.166667
 30
0.0
 11
0.0
 21
0.0
 31
0.0
  0
LINE
  5
F2
330
EF
100
AcDbEntity
  8
0
  6
ByBlock
 62
     0
100
AcDbLine
 10
0.0
 20
0.0
 30
0.0
 11
-1.0
 21
-0.166667
 31
0.0
  0
LINE
  5
F3
330
EF
100
AcDbEntity
  8
0
  6
ByBlock
 62
     0
100
AcDbLine
 10
-1.0
 20
0.166667
 30
0.0
 11
-1.0
 21
-0.166667
 31
0.0
  0
LINE
  5
F4
330
EF
100
AcDbEntity
  8
0
  6
ByBlock
 62
     0
100
AcDbLine
 10
0.0
 20
0.0
 30
0.0
 11
-1.0
 21
0.0
 31
0.0
  0
ENDBLK
  5
F5
330
EF
100
AcDbEntity
  8
0
100
AcDbBlockEnd
  0
BLOCK
  5
100
330
FF
100
AcDbEntity
  8
0
 62
     0
100
AcDbBlockBegin
  2
NOTE40
 70
     0
 10
0.0
 20
0.0
 30
0.0
  3
NOTE40
  1

  0
MTEXT
  5
101
330
FF
100
AcDbEntity
  8
OBJ
100
AcDbMText
 10
0.0198123034146876
 20
0.0706297350310424
 30
0.0
 40
0.09375
 41
0.0
 71
     1
 72
     5
  1
ITEM NO. 155408
  7
SLDTEXTSTYLE0
 73
     1
 44
1.0
1001
ACAD
1000
MTEXTBEGIN
1070
    73
1070
     1
1070
    44
1040
1.0
1070
    74
1070
     0
1000
MTEXTEND
  0
MTEXT
  5
102
330
FF
100
AcDbEntity
  8
OBJ
100
AcDbMText
 10
0.2180761763868418
 20
-0.0543702634583084
 30
0.0
 40
0.09375
 41
0.0
 71
     1
 72
     5
  1
UPHD8-LTP
  7
SLDTEXTSTYLE0
 73
     1
 44
1.0
1001
ACAD
1000
MTEXTBEGIN
1070
    73
1070
     1
1070
    44
1040
1.0
1070
    74
1070
     0
1000
MTEXTEND
  0
ENDBLK
  5
103
330
FF
100
AcDbEntity
  8
0
100
AcDbBlockEnd
  0
BLOCK
  5
107
330
106
100
AcDbEntity
  8
0
 62
     0
100
AcDbBlockBegin
  2
NOTE41
 70
     0
 10
0.0
 20
0.0
 30
0.0
  3
NOTE41
  1

  0
MTEXT
  5
108
330
106
100
AcDbEntity
  8
OBJ
100
AcDbMText
 10
-1.197708401906492
 20
0.1956969560019229
 30
0.0
 40
0.09375
 41
0.0
 71
     1
 72
     5
  1
ITEM NO. 155390
  7
SLDTEXTSTYLE0
 73
     1
 44
1.0
1001
ACAD
1000
MTEXTBEGIN
1070
    73
1070
     1
1070
    44
1040
1.0
1070
    74
1070
     0
1000
MTEXTEND
  0
MTEXT
  5
109
330
106
100
AcDbEntity
  8
OBJ
100
AcDbMText
 10
-1.042977516037556
 20
0.0706969575125721
 30
0.0
 40
0.09375
 41
0.0
 71
     1
 72
     5
  1
UPHD8-BODY
  7
SLDTEXTSTYLE0
 73
     1
 44
1.0
1001
ACAD
1000
MTEXTBEGIN
1070
    73
1070
     1
1070
    44
1040
1.0
1070
    74
1070
     0
1000
MTEXTEND
  0
ENDBLK
  5
10A
330
106
100
AcDbEntity
  8
0
100
AcDbBlockEnd
  0
BLOCK
  5
10F
330
10E
100
AcDbEntity
  8
0
 62
     0
100
AcDbBlockBegin
  2
WELD43
 70
     0
 10
0.0
 20
0.0
 30
0.0
  3
WELD43
  1

  0
LINE
  5
110
330
10E
100
AcDbEntity
  8
OBJ
100
AcDbLine
 10
-0.6207675177304969
 20
-0.000101281991042
 30
0.0
 11
-0.6207675177304969
 21
-0.2095871650350989
 31
-0.0000000000000015
  0
LINE
  5
111
330
10E
100
AcDbEntity
  8
OBJ
100
AcDbLine
 10
-0.6207675177304969
 20
-0.2095871650350989
 30
-0.0000000000000015
 11
-0.41128163468644
 21
-0.000101281991042
 31
0.0
  0
LINE
  5
112
330
10E
100
AcDbEntity
  8
OBJ
100
AcDbLine
 10
-0.41128163468644
 20
-0.000101281991042
 30
0.0
 11
-0.6207675177304969
 21
-0.000101281991042
 31
0.0
  0
MTEXT
  5
113
330
10E
100
AcDbEntity
  8
OBJ
100
AcDbMText
 10
-1.090575177304964
 20
-0.0572887403732651
 30
0.0
 40
0.125
 41
0.0
 71
     1
 72
     5
  1
3/16
  7
SLDTEXTSTYLE0
 73
     1
 44
1.0
1001
ACAD
1000
MTEXTBEGIN
1070
    73
1070
     1
1070
    44
1040
1.0
1070
    74
1070
     0
1000
MTEXTEND
  0
MTEXT
  5
114
330
10E
100
AcDbEntity
  8
OBJ
100
AcDbMText
 10
-1.572200749520071
 20
0.0641164859218326
 30
0.0
 40
0.125
 41
0.0
 71
     1
 72
     5
  1
(3)
  7
SLDTEXTSTYLE0
 73
     1
 44
1.0
1001
ACAD
1000
MTEXTBEGIN
1070
    73
1070
     1
1070
    44
1040
1.0
1070
    74
1070
     0
1000
MTEXTEND
  0
LINE
  5
115
330
10E
100
AcDbEntity
  8
OBJ
100
AcDbLine
 10
0.0
 20
0.0
 30
0.0
 11
-1.0
 21
0.0
 31
0.0
  0
LINE
  5
116
330
10E
100
AcDbEntity
  8
OBJ
100
AcDbLine
 10
-1.19999429590725
 20
0.1999942959072502
 30
0.0
 11
-1.0
 21
0.0
 31
0.0
  0
LINE
  5
117
330
10E
100
AcDbEntity
  8
OBJ
100
AcDbLine
 10
-1.19999429590725
 20
-0.1999942959072502
 30
0.0
 11
-1.0
 21
0.0
 31
0.0
  0
ENDBLK
  5
118
330
10E
100
AcDbEntity
  8
0
100
AcDbBlockEnd
  0
BLOCK
  5
16F
330
16E
100
AcDbEntity
  8
0
 62
   179
100
AcDbBlockBegin
  2
*D8
 70
     1
 10
0.0
 20
0.0
 30
0.0
  3
*D8
  1

  0
MTEXT
  5
170
330
16E
100
AcDbEntity
  8
OBJ
100
AcDbMText
 10
7.217045363136213
 20
6.150150557234174
 30
0.0
 40
0.09375
 41
0.0
 71
     1
 72
     5
  1
17 1/2"
  7
SLDTEXTSTYLE0
 73
     1
 44
1.0
1001
ACAD
1000
MTEXTBEGIN
1070
    73
1070
     1
1070
    44
1040
1.0
1070
    74
1070
     0
1000
MTEXTEND
  0
MTEXT
  5
171
102
{ACAD_XDICTIONARY
360
4B7
102
}
330
16E
100
AcDbEntity
  8
OBJ
100
AcDbMText
 10
7.75881486668231
 20
6.150150557234174
 30
0.0
 40
0.09375
 41
0.0
 71
     1
 72
     5
  1
\U+00B1
  7
SLDTEXTSTYLE0
 73
     1
 44
1.0
1001
ACAD
1000
MTEXTBEGIN
1070
    73
1070
     1
1070
    44
1040
1.0
1070
    74
1070
     0
1000
MTEXTEND
  0
MTEXT
  5
172
330
16E
100
AcDbEntity
  8
OBJ
100
AcDbMText
 10
7.851939864227726
 20
6.150150557234174
 30
0.0
 40
0.09375
 41
0.0
 71
     1
 72
     5
  1
1/8"
  7
SLDTEXTSTYLE0
 73
     1
 44
1.0
1001
ACAD
1000
MTEXTBEGIN
1070
    73
1070
     1
1070
    44
1040
1.0
1070
    74
1070
     0
1000
MTEXTEND
  0
LINE
  5
173
330
16E
100
AcDbEntity
  8
OBJ
100
AcDbLine
 10
7.052934574004337
 20
3.897134431566423
 30
0.0
 11
7.810009547533375
 21
3.897134431566423
 31
0.0
  0
LINE
  5
174
330
16E
100
AcDbEntity
  8
OBJ
100
AcDbLine
 10
7.086559574004337
 20
8.272134431566424
 30
0.0
 11
7.810009547533375
 21
8.272134431566424
 31
0.0
  0
LINE
  5
175
330
16E
100
AcDbEntity
  8
OBJ
100
AcDbLine
 10
7.685009547533375
 20
3.897134431566423
 30
0.0
 11
7.685009547533375
 21
6.017030478494015
 31
0.0
  0
LINE
  5
176
330
16E
100
AcDbEntity
  8
OBJ
100
AcDbLine
 10
7.685009547533375
 20
8.272134431566424
 30
0.0
 11
7.685009547533375
 21
6.172200691259972
 31
0.0
  0
INSERT
  5
177
330
16E
100
AcDbEntity
  8
0
100
AcDbBlockReference
  2
_CLOSED
 10
7.685009547533375
 20
3.897134431566423
 30
0.0
 41
0.156
 42
0.156
 50
270.0000000000004
  0
INSERT
  5
178
330
16E
100
AcDbEntity
  8
0
100
AcDbBlockReference
  2
_CLOSED
 10
7.685009547533375
 20
8.272134431566424
 30
0.0
 41
0.156
 42
0.156
 50
90.0000000000004
  0
POINT
  5
179
330
16E
100
AcDbEntity
  8
DEFPOINTS
100
AcDbPoint
 10
7.002934574004338
 20
3.897134431566423
 30
0.0
  0
POINT
  5
17A
330
16E
100
AcDbEntity
  8
DEFPOINTS
100
AcDbPoint
 10
7.036559574004337
 20
8.272134431566424
 30
0.0
  0
ENDBLK
  5
17B
330
16E
100
AcDbEntity
  8
0
 62
   179
100
AcDbBlockEnd
  0
BLOCK
  5
19E
330
19D
100
AcDbEntity
  8
0
 62
   179
100
AcDbBlockBegin
  2
*D9
 70
     1
 10
0.0
 20
0.0
 30
0.0
  3
*D9
  1

  0
MTEXT
  5
19F
330
19D
100
AcDbEntity
  8
OBJ
100
AcDbMText
 10
3.427016851191461
 20
9.824666494142556
 30
0.0
 40
0.09375
 41
0.0
 71
     1
 72
     5
  1
3/4"
  7
SLDTEXTSTYLE0
 73
     1
 44
1.0
1001
ACAD
1000
MTEXTBEGIN
1070
    73
1070
     1
1070
    44
1040
1.0
1070
    74
1070
     0
1000
MTEXTEND
  0
LINE
  5
1A0
330
19D
100
AcDbEntity
  8
OBJ
100
AcDbLine
 10
4.206257238044583
 20
9.688704369494907
 30
0.0
 11
3.467531744808483
 21
9.688704369494907
 31
0.0
  0
LINE
  5
1A1
330
19D
100
AcDbEntity
  8
OBJ
100
AcDbLine
 10
3.862507238044583
 20
9.876204369555047
 30
0.0
 11
3.467531744808483
 21
9.876204369555047
 31
0.0
  0
LINE
  5
1A2
330
19D
100
AcDbEntity
  8
OBJ
100
AcDbLine
 10
3.592531744808483
 20
9.688704369494907
 30
0.0
 11
3.592531744808483
 21
9.438704369494907
 31
0.0
  0
LINE
  5
1A3
330
19D
100
AcDbEntity
  8
OBJ
100
AcDbLine
 10
3.592531744808483
 20
9.876204369555047
 30
0.0
 11
3.592531744808483
 21
10.12620436955504
 31
0.0
  0
INSERT
  5
1A4
330
19D
100
AcDbEntity
  8
0
100
AcDbBlockReference
  2
_CLOSED
 10
3.592531744808483
 20
9.688704369494907
 30
0.0
 41
0.156
 42
0.156
 50
90.0000000000004
  0
INSERT
  5
1A5
330
19D
100
AcDbEntity
  8
0
100
AcDbBlockReference
  2
_CLOSED
 10
3.592531744808483
 20
9.876204369555047
 30
0.0
 41
0.156
 42
0.156
 50
270.0000000000004
  0
POINT
  5
1A6
330
19D
100
AcDbEntity
  8
DEFPOINTS
100
AcDbPoint
 10
4.256257238044582
 20
9.688704369494907
 30
0.0
  0
POINT
  5
1A7
330
19D
100
AcDbEntity
  8
DEFPOINTS
100
AcDbPoint
 10
3.912507238044583
 20
9.876204369555047
 30
0.0
  0
ENDBLK
  5
1A8
330
19D
100
AcDbEntity
  8
0
 62
   179
100
AcDbBlockEnd
  0
BLOCK
  5
1AB
330
1AA
100
AcDbEntity
  8
0
 62
   179
100
AcDbBlockBegin
  2
*D10
 70
     1
 10
0.0
 20
0.0
 30
0.0
  3
*D10
  1

  0
LINE
  5
483
330
1AA
100
AcDbEntity
  8
OBJ
 62
   179
370
    -2
100
AcDbLine
 10
12.30300462712344
 20
9.883351949527364
 30
0.0
 11
12.87531291108726
 21
9.883351949527364
 31
0.0
  0
LINE
  5
484
330
1AA
100
AcDbEntity
  8
OBJ
 62
   179
370
    -2
100
AcDbLine
 10
12.36787962712344
 20
9.099726949527376
 30
0.0
 11
12.87531291108726
 21
9.099726949527376
 31
0.0
  0
LINE
  5
485
330
1AA
100
AcDbEntity
  8
OBJ
 62
   179
370
    -2
100
AcDbLine
 10
12.75031291108726
 20
9.727351949527363
 30
0.0
 11
12.75031291108726
 21
9.558235783837613
 31
0.0
  0
LINE
  5
486
330
1AA
100
AcDbEntity
  8
OBJ
 62
   179
370
    -2
100
AcDbLine
 10
12.75031291108726
 20
9.255726949527376
 30
0.0
 11
12.75031291108726
 21
9.370735783837613
 31
0.0
  0
INSERT
  5
487
330
1AA
100
AcDbEntity
  8
OBJ
 62
   179
370
    -2
100
AcDbBlockReference
  2
_CLOSED
 10
12.75031291108726
 20
9.883351949527364
 30
0.0
 41
0.156
 42
0.156
 43
0.156
 50
90.0
  0
INSERT
  5
488
330
1AA
100
AcDbEntity
  8
OBJ
 62
   179
370
    -2
100
AcDbBlockReference
  2
_CLOSED
 10
12.75031291108726
 20
9.099726949527376
 30
0.0
 41
0.156
 42
0.156
 43
0.156
 50
270.0
  0
MTEXT
  5
489
330
1AA
100
AcDbEntity
  8
OBJ
 62
   179
100
AcDbMText
 10
12.75031291108726
 20
9.464485783837616
 30
0.0
 40
0.125
 41
0.0
 71
     5
 72
     1
  1
\A1;3.1345
  7
SLDTEXTSTYLE0
 73
     1
 44
1.0
1001
ACAD
1000
MTEXTBEGIN
1070
    73
1070
     1
1070
    44
1040
1.0
1070
    74
1070
     0
1000
MTEXTEND
  0
POINT
  5
48A
330
1AA
100
AcDbEntity
  8
DEFPOINTS
 62
     0
100
AcDbPoint
 10
12.24050462712344
 20
9.883351949527364
 30
0.0
  0
POINT
  5
48B
330
1AA
100
AcDbEntity
  8
DEFPOINTS
 62
     0
100
AcDbPoint
 10
12.30537962712344
 20
9.099726949527376
 30
0.0
  0
POINT
  5
48C
330
1AA
100
AcDbEntity
  8
DEFPOINTS
 62
     0
100
AcDbPoint
 10
12.75031291108726
 20
9.099726949527376
 30
0.0
  0
ENDBLK
  5
1B5
330
1AA
100
AcDbEntity
  8
0
 62
   179
100
AcDbBlockEnd
  0
BLOCK
  5
1B8
330
1B7
100
AcDbEntity
  8
0
 62
   179
100
AcDbBlockBegin
  2
*D11
 70
     1
 10
0.0
 20
0.0
 30
0.0
  3
*D11
  1

  0
MTEXT
  5
1B9
330
1B7
100
AcDbEntity
  8
OBJ
100
AcDbMText
 10
4.00683532598206
 20
10.23545327507448
 30
0.0
 40
0.09375
 41
0.0
 71
     1
 72
     5
  1
3 1/4"
  7
SLDTEXTSTYLE0
 73
     1
 44
1.0
1001
ACAD
1000
MTEXTBEGIN
1070
    73
1070
     1
1070
    44
1040
1.0
1070
    74
1070
     0
1000
MTEXTEND
  0
LINE
  5
1BA
330
1B7
100
AcDbEntity
  8
OBJ
100
AcDbLine
 10
3.847632238044583
 20
9.894954369434735
 30
0.0
 11
3.847632238044583
 21
10.30491830271731
 31
0.0
  0
LINE
  5
1BB
330
1B7
100
AcDbEntity
  8
OBJ
100
AcDbLine
 10
4.664882238044583
 20
9.894954369434731
 30
0.0
 11
4.664882238044583
 21
10.30491830271731
 31
0.0
  0
LINE
  5
1BC
330
1B7
100
AcDbEntity
  8
OBJ
100
AcDbLine
 10
3.847632238044583
 20
10.17991830271731
 30
0.0
 11
3.597632238044583
 21
10.17991830271731
 31
0.0
  0
LINE
  5
1BD
330
1B7
100
AcDbEntity
  8
OBJ
100
AcDbLine
 10
4.664882238044583
 20
10.17991830271731
 30
0.0
 11
4.914882238044583
 21
10.17991830271731
 31
0.0
  0
INSERT
  5
1BE
330
1B7
100
AcDbEntity
  8
0
100
AcDbBlockReference
  2
_CLOSED
 10
3.847632238044583
 20
10.17991830271731
 30
0.0
 41
0.156
 42
0.156
 50
360.0000000000004
  0
INSERT
  5
1BF
330
1B7
100
AcDbEntity
  8
0
100
AcDbBlockReference
  2
_CLOSED
 10
4.664882238044583
 20
10.17991830271731
 30
0.0
 41
0.156
 42
0.156
 50
180.0000000000004
  0
POINT
  5
1C0
330
1B7
100
AcDbEntity
  8
DEFPOINTS
100
AcDbPoint
 10
3.847632238044583
 20
9.844954369434736
 30
0.0
  0
POINT
  5
1C1
330
1B7
100
AcDbEntity
  8
DEFPOINTS
100
AcDbPoint
 10
4.664882238044583
 20
9.844954369434734
 30
0.0
  0
ENDBLK
  5
1C2
330
1B7
100
AcDbEntity
  8
0
 62
   179
100
AcDbBlockEnd
  0
BLOCK
  5
421
330
420
100
AcDbEntity
  8
0
 62
     0
100
AcDbBlockBegin
  2
NOTE45
 70
     0
 10
0.0
 20
0.0
 30
0.0
  3
NOTE45
  1

  0
MTEXT
  5
422
330
420
100
AcDbEntity
  8
OBJ
100
AcDbMText
 10
0.0
 20
0.1331200787401576
 30
0.0
 40
0.09375
 41
0.0
 71
     1
 72
     5
  1
NOTE:
  7
SLDTEXTSTYLE0
 73
     1
 44
1.0
1001
ACAD
1000
MTEXTBEGIN
1070
    73
1070
     1
1070
    44
1040
1.0
1070
    74
1070
     0
1000
MTEXTEND
  0
MTEXT
  5
423
330
420
100
AcDbEntity
  8
OBJ
100
AcDbMText
 10
0.0
 20
0.0081200802508068
 30
0.0
 40
0.09375
 41
0.0
 71
     1
 72
     5
  1
PAINT WITH CORROSION RESISTANT
  7
SLDTEXTSTYLE0
 73
     1
 44
1.0
1001
ACAD
1000
MTEXTBEGIN
1070
    73
1070
     1
1070
    44
1040
1.0
1070
    74
1070
     0
1000
MTEXTEND
  0
MTEXT
  5
424
330
420
100
AcDbEntity
  8
OBJ
100
AcDbMText
 10
0.0
 20
-0.116879918238544
 30
0.0
 40
0.09375
 41
0.0
 71
     1
 72
     5
  1
PRIMER AFTER FABRICATION.
  7
SLDTEXTSTYLE0
 73
     1
 44
1.0
1001
ACAD
1000
MTEXTBEGIN
1070
    73
1070
     1
1070
    44
1040
1.0
1070
    74
1070
     0
1000
MTEXTEND
  0
ENDBLK
  5
425
330
420
100
AcDbEntity
  8
0
100
AcDbBlockEnd
  0
ENDSEC
  0
SECTION
  2
ENTITIES
  0
INSERT
  5
64
330
A
100
AcDbEntity
  8
OBJ
100
AcDbBlockReference
  2
NOTE1
 10
0.0
 20
0.0
 30
0.0
  0
LINE
  5
92
330
A
100
AcDbEntity
  8
0
  6
Continuous
 62
     7
100
AcDbLine
 10
2.486339473355068
 20
0.4911733082166704
 30
0.0
 11
2.890662037700412
 21
0.4911733082166704
 31
0.0
  0
LINE
  5
93
330
A
100
AcDbEntity
  8
0
  6
Continuous
 62
     7
100
AcDbLine
 10
2.486339473355068
 20
0.558560356152039
 30
0.0
 11
2.890662037700412
 21
0.558560356152039
 31
0.0
  0
LINE
  5
94
330
A
100
AcDbEntity
  8
0
  6
Continuous
 62
     7
100
AcDbLine
 10
2.890662037700412
 20
0.4911733082166704
 30
0.0
 11
2.890662037700412
 21
0.558560356152039
 31
0.0
  0
LINE
  5
95
330
A
100
AcDbEntity
  8
0
  6
Continuous
 62
     7
100
AcDbLine
 10
2.486339473355068
 20
0.4911733082166704
 30
0.0
 11
2.486339473355068
 21
0.558560356152039
 31
0.0
  0
LINE
  5
96
330
A
100
AcDbEntity
  8
0
  6
Continuous
 62
     7
100
AcDbLine
 10
2.908789164822485
 20
0.5248669112509643
 30
0.0
 11
2.908789164822485
 21
0.72167761760352
 31
0.0
  0
LINE
  5
97
330
A
100
AcDbEntity
  8
0
  6
Continuous
 62
     7
100
AcDbLine
 10
2.908789164822485
 20
0.5248669112509643
 30
0.0
 11
2.890662037700412
 21
0.5248669112509643
 31
0.0
  0
LINE
  5
98
330
A
100
AcDbEntity
  8
0
  6
Continuous
 62
     7
100
AcDbLine
 10
2.890662037700412
 20
0.5248669112509643
 30
0.0
 11
2.890662037700412
 21
0.72167761760352
 31
0.0
  0
LINE
  5
99
330
A
100
AcDbEntity
  8
0
  6
Continuous
 62
     7
100
AcDbLine
 10
2.890662037700412
 20
0.72167761760352
 30
0.0
 11
2.908789164822485
 21
0.72167761760352
 31
0.0
  0
LINE
  5
9A
330
A
100
AcDbEntity
  8
0
  6
Continuous
 62
     7
100
AcDbLine
 10
2.890662037700412
 20
0.72167761760352
 30
0.0
 11
2.890662035201906
 21
2.821237879260671
 31
0.0
  0
LINE
  5
9B
330
A
100
AcDbEntity
  8
0
  6
Continuous
 62
     7
100
AcDbLine
 10
2.908789164822485
 20
0.72167761760352
 30
0.0
 11
2.908789163279358
 21
2.821237879260671
 31
0.0
  0
LINE
  5
9C
330
A
100
AcDbEntity
  8
0
  6
Continuous
 62
     7
100
AcDbLine
 10
2.486339473355068
 20
0.5248669112509643
 30
0.0
 11
2.486339473355068
 21
0.72167761760352
 31
0.0
  0
LINE
  5
9D
330
A
100
AcDbEntity
  8
0
  6
Continuous
 62
     7
100
AcDbLine
 10
2.486339473355068
 20
0.5248669112509643
 30
0.0
 11
2.468212346232997
 21
0.5248669112509643
 31
0.0
  0
LINE
  5
9E
330
A
100
AcDbEntity
  8
0
  6
Continuous
 62
     7
100
AcDbLine
 10
2.468212346232997
 20
0.5248669112509643
 30
0.0
 11
2.468212346232997
 21
0.72167761760352
 31
0.0
  0
LINE
  5
9F
330
A
100
AcDbEntity
  8
0
  6
Continuous
 62
     7
100
AcDbLine
 10
2.486339473355068
 20
0.72167761760352
 30
0.0
 11
2.468212346232997
 21
0.72167761760352
 31
0.0
  0
LINE
  5
A0
330
A
100
AcDbEntity
  8
0
  6
Continuous
 62
     7
100
AcDbLine
 10
2.468212347776122
 20
2.821237879260671
 30
0.0
 11
2.468212346232997
 21
0.72167761760352
 31
0.0
  0
LINE
  5
A1
330
A
100
AcDbEntity
  8
0
  6
Continuous
 62
     7
100
AcDbLine
 10
2.486339475853571
 20
2.821237879260671
 30
0.0
 11
2.486339473355068
 21
0.72167761760352
 31
0.0
  0
LINE
  5
A2
330
A
100
AcDbEntity
  8
0
  6
Continuous
 62
     7
100
AcDbLine
 10
2.890662035331626
 20
2.849721567286756
 30
0.0
 11
2.908789163279358
 21
2.849721567286756
 31
0.0
  0
LINE
  5
A3
330
A
100
AcDbEntity
  8
0
  6
Continuous
 62
     7
100
AcDbLine
 10
2.890662035201906
 20
2.821237879260671
 30
0.0
 11
2.890662035331626
 21
2.849721567286756
 31
0.0
  0
LINE
  5
A4
330
A
100
AcDbEntity
  8
0
  6
Continuous
 62
     7
100
AcDbLine
 10
2.908789163279358
 20
2.849721567286756
 30
0.0
 11
2.908789163279358
 21
2.821237879260671
 31
0.0
  0
LINE
  5
A5
330
A
100
AcDbEntity
  8
0
  6
Continuous
 62
     7
100
AcDbLine
 10
2.468212347776122
 20
2.849721567286756
 30
0.0
 11
2.486339475658995
 21
2.849721567286756
 31
0.0
  0
LINE
  5
A6
330
A
100
AcDbEntity
  8
0
  6
Continuous
 62
     7
100
AcDbLine
 10
2.468212347776122
 20
2.821237879260671
 30
0.0
 11
2.468212347776122
 21
2.849721567286756
 31
0.0
  0
LINE
  5
A7
330
A
100
AcDbEntity
  8
0
  6
Continuous
 62
     7
100
AcDbLine
 10
2.486339475658995
 20
2.849721567286756
 30
0.0
 11
2.486339475853571
 21
2.821237879260671
 31
0.0
  0
ARC
  5
A8
330
A
100
AcDbEntity
  8
0
  6
Continuous
 62
     7
100
AcDbCircle
 10
2.892168387903009
 20
0.5883363635532933
 30
0.0
 40
0.0192655065182566
100
AcDbArc
 50
99.03870577425561
 51
162.2963417190166
  0
LWPOLYLINE
  5
A9
330
A
100
AcDbEntity
  8
0
  6
Continuous
 62
     7
100
AcDbPolyline
 90
       13
 70
   128
 43
0.0
 10
2.873815255949919
 20
0.5941948863122342
 10
2.875290085413803
 20
0.6000553033959802
 10
2.877916717709141
 20
0.6045823411799387
 10
2.88001892095143
 20
0.6067365900178197
 10
2.882185761146848
 20
0.6081997966901321
 10
2.884336372920698
 20
0.6089719611968767
 10
2.886368246413986
 20
0.609052925404833
 10
2.887989823504792
 20
0.6085019892710021
 10
2.889141448436376
 20
0.6073634300966102
 10
2.889901614585154
 20
0.6056369316152193
 10
2.890354567423369
 20
0.6033228100932671
 10
2.890634087654013
 20
0.5983911094027437
 10
2.890662037700412
 20
0.5922539591863325
  0
LINE
  5
B8
330
A
100
AcDbEntity
  8
0
  6
Continuous
 62
     7
100
AcDbLine
 10
2.890662035331626
 20
2.849721567286756
 30
0.0
 11
2.873815261895726
 21
2.849721567286756
 31
0.0
  0
ARC
  5
B9
330
A
100
AcDbEntity
  8
0
  6
Continuous
 62
     7
100
AcDbCircle
 10
2.484228942559102
 20
0.5876051845598515
 30
0.0
 40
0.020069974294199
100
AcDbArc
 50
19.1678287153597
 51
79.45291645514389
  0
LWPOLYLINE
  5
BA
330
A
100
AcDbEntity
  8
0
  6
Continuous
 62
     7
100
AcDbPolyline
 90
       13
 70
   128
 43
0.0
 10
2.486339473355068
 20
0.5922539591863325
 10
2.486363924704003
 20
0.5981981868759716
 10
2.486618183152966
 20
0.6030210919120531
 10
2.487073725422638
 20
0.6054571341455968
 10
2.487842885398228
 20
0.6072744010945012
 10
2.489004729689066
 20
0.6084727346255489
 10
2.49063128797626
 20
0.6090522928719584
 10
2.492644798249529
 20
0.6089792353249353
 10
2.494786969662835
 20
0.6082105497490016
 10
2.496959957287129
 20
0.6067463942773772
 10
2.49908522821269
 20
0.6045866107768423
 10
2.501556534153996
 20
0.6002643555110563
 10
2.503186255105564
 20
0.5941948863122342
  0
LINE
  5
C9
330
A
100
AcDbEntity
  8
0
  6
Continuous
 62
     7
100
AcDbLine
 10
2.503186249159753
 20
2.849721567286756
 30
0.0
 11
2.486339475658995
 21
2.849721567286756
 31
0.0
  0
CIRCLE
  5
CA
330
A
100
AcDbEntity
  8
0
  6
Continuous
 62
     7
100
AcDbCircle
 10
2.570573342384474
 20
1.117918317544704
 30
0.0
 40
0.0189357731961469
  0
CIRCLE
  5
CB
330
A
100
AcDbEntity
  8
0
  6
Continuous
 62
     7
100
AcDbCircle
 10
2.772734622058641
 20
1.117918317544704
 30
0.0
 40
0.0189357731961469
  0
CIRCLE
  5
CC
330
A
100
AcDbEntity
  8
0
  6
Continuous
 62
     7
100
AcDbCircle
 10
2.604266888996837
 20
0.9494505844828982
 30
0.0
 40
0.0189357731961469
  0
CIRCLE
  5
CD
330
A
100
AcDbEntity
  8
0
  6
Continuous
 62
     7
100
AcDbCircle
 10
2.806428168671004
 20
0.9494505844828982
 30
0.0
 40
0.0189357731961469
  0
CIRCLE
  5
CE
330
A
100
AcDbEntity
  8
0
  6
Continuous
 62
     7
100
AcDbCircle
 10
2.570573342384474
 20
1.450801548848169
 30
0.0
 40
0.0189357731961469
  0
CIRCLE
  5
CF
330
A
100
AcDbEntity
  8
0
  6
Continuous
 62
     7
100
AcDbCircle
 10
2.772734622058641
 20
1.450801548848169
 30
0.0
 40
0.0189357731961469
  0
CIRCLE
  5
D0
330
A
100
AcDbEntity
  8
0
  6
Continuous
 62
     7
100
AcDbCircle
 10
2.604266888996837
 20
1.282333815786364
 30
0.0
 40
0.0189357731961469
  0
CIRCLE
  5
D1
330
A
100
AcDbEntity
  8
0
  6
Continuous
 62
     7
100
AcDbCircle
 10
2.806428168671004
 20
1.282333815786364
 30
0.0
 40
0.0189357731961469
  0
CIRCLE
  5
D2
330
A
100
AcDbEntity
  8
0
  6
Continuous
 62
     7
100
AcDbCircle
 10
2.570573342384474
 20
1.783684780151635
 30
0.0
 40
0.0189357731961469
  0
CIRCLE
  5
D3
330
A
100
AcDbEntity
  8
0
  6
Continuous
 62
     7
100
AcDbCircle
 10
2.772734622058641
 20
1.783684780151635
 30
0.0
 40
0.0189357731961469
  0
CIRCLE
  5
D4
330
A
100
AcDbEntity
  8
0
  6
Continuous
 62
     7
100
AcDbCircle
 10
2.604266888996837
 20
1.615217047089829
 30
0.0
 40
0.0189357731961469
  0
CIRCLE
  5
D5
330
A
100
AcDbEntity
  8
0
  6
Continuous
 62
     7
100
AcDbCircle
 10
2.806428168671004
 20
1.615217047089829
 30
0.0
 40
0.0189357731961469
  0
CIRCLE
  5
D6
330
A
100
AcDbEntity
  8
0
  6
Continuous
 62
     7
100
AcDbCircle
 10
2.570573342384474
 20
2.116568011455101
 30
0.0
 40
0.0189357731961469
  0
CIRCLE
  5
D7
330
A
100
AcDbEntity
  8
0
  6
Continuous
 62
     7
100
AcDbCircle
 10
2.772734622058641
 20
2.116568011455101
 30
0.0
 40
0.0189357731961469
  0
CIRCLE
  5
D8
330
A
100
AcDbEntity
  8
0
  6
Continuous
 62
     7
100
AcDbCircle
 10
2.604266888996837
 20
1.948100278393295
 30
0.0
 40
0.0189357731961469
  0
CIRCLE
  5
D9
330
A
100
AcDbEntity
  8
0
  6
Continuous
 62
     7
100
AcDbCircle
 10
2.806428168671004
 20
1.948100278393295
 30
0.0
 40
0.0189357731961469
  0
CIRCLE
  5
DA
330
A
100
AcDbEntity
  8
0
  6
Continuous
 62
     7
100
AcDbCircle
 10
2.570573342384474
 20
2.449451242758568
 30
0.0
 40
0.0189357731961469
  0
CIRCLE
  5
DB
330
A
100
AcDbEntity
  8
0
  6
Continuous
 62
     7
100
AcDbCircle
 10
2.772734622058641
 20
2.449451242758568
 30
0.0
 40
0.0189357731961469
  0
CIRCLE
  5
DC
330
A
100
AcDbEntity
  8
0
  6
Continuous
 62
     7
100
AcDbCircle
 10
2.604266888996837
 20
2.280983509696761
 30
0.0
 40
0.0189357731961469
  0
CIRCLE
  5
DD
330
A
100
AcDbEntity
  8
0
  6
Continuous
 62
     7
100
AcDbCircle
 10
2.806428168671004
 20
2.280983509696761
 30
0.0
 40
0.0189357731961469
  0
LINE
  5
DE
330
A
100
AcDbEntity
  8
0
  6
Continuous
 62
     7
100
AcDbLine
 10
2.503298430857554
 20
0.558560356152039
 30
0.0
 11
2.50329843959457
 21
0.5922539442585566
 31
0.0
  0
LINE
  5
DF
330
A
100
AcDbEntity
  8
0
  6
Continuous
 62
     7
100
AcDbLine
 10
2.873815261895726
 20
2.849721567286756
 30
0.0
 11
2.503186249159753
 21
2.849721567286756
 31
0.0
  0
ARC
  5
E0
330
A
100
AcDbEntity
  8
0
  6
Continuous
 62
     7
100
AcDbCircle
 10
2.890549844767091
 20
0.5922539442585566
 30
0.0
 40
0.0168467733061809
100
AcDbArc
 50
173.3839544189044
 51
180.0000000000004
  0
LINE
  5
E1
330
A
100
AcDbEntity
  8
0
  6
Continuous
 62
     7
100
AcDbLine
 10
2.873703071460912
 20
0.5922539442585566
 30
0.0
 11
2.873703080197926
 21
0.558560356152039
 31
0.0
  0
CIRCLE
  5
E2
330
A
100
AcDbEntity
  8
0
  6
Continuous
 62
     7
100
AcDbCircle
 10
2.570573342384474
 20
2.782334474062035
 30
0.0
 40
0.0189357731961474
  0
CIRCLE
  5
E3
330
A
100
AcDbEntity
  8
0
  6
Continuous
 62
     7
100
AcDbCircle
 10
2.772734622058641
 20
2.782334474062035
 30
0.0
 40
0.0189357731961469
  0
CIRCLE
  5
E4
330
A
100
AcDbEntity
  8
0
  6
Continuous
 62
     7
100
AcDbCircle
 10
2.604266888996837
 20
2.613866741000228
 30
0.0
 40
0.0189357731961469
  0
CIRCLE
  5
E5
330
A
100
AcDbEntity
  8
0
  6
Continuous
 62
     7
100
AcDbCircle
 10
2.806428168671004
 20
2.613866741000228
 30
0.0
 40
0.0189357731961474
  0
ARC
  5
E6
330
A
100
AcDbEntity
  8
0
  6
Continuous
 62
     7
100
AcDbCircle
 10
2.486451666288389
 20
0.5922539442585566
 30
0.0
 40
0.0168467733061806
100
AcDbArc
 50
0.0
 51
6.616045581095659
  0
LINE
  5
121
330
A
100
AcDbEntity
  8
0
  6
Continuous
 62
     7
100
AcDbLine
 10
0.9577080810507467
 20
0.4911733082166704
 30
0.0
 11
0.9577080810507467
 21
0.558560356152039
 31
0.0
  0
LINE
  5
122
330
A
100
AcDbEntity
  8
0
  6
Continuous
 62
     7
100
AcDbLine
 10
1.362030645396089
 20
0.4911733082166704
 30
0.0
 11
1.362030645396089
 21
0.5248669112509643
 31
0.0
  0
LINE
  5
123
330
A
100
AcDbEntity
  8
0
  6
Continuous
 62
     7
100
AcDbLine
 10
0.9745548430345891
 20
0.558560356152039
 30
0.0
 11
0.9577080810507467
 21
0.558560356152039
 31
0.0
  0
LINE
  5
124
330
A
100
AcDbEntity
  8
0
  6
Continuous
 62
     7
100
AcDbLine
 10
1.362030645396089
 20
0.4911733082166704
 30
0.0
 11
0.9577080810507467
 21
0.4911733082166704
 31
0.0
  0
ARC
  5
125
330
A
100
AcDbEntity
  8
0
  6
Continuous
 62
     7
100
AcDbCircle
 10
0.9772015334207113
 20
0.5984497233252224
 30
0.0
 40
0.019952401442144
100
AcDbArc
 50
153.2793221584427
 51
192.3128418573626
  0
LWPOLYLINE
  5
126
330
A
100
AcDbEntity
  8
0
  6
Continuous
 62
     7
100
AcDbPolyline
 90
       12
 70
   128
 43
0.0
 10
0.9395809539286739
 20
0.5941948863122342
 10
0.9396023809798029
 20
0.5972917672665809
 10
0.9397152485646261
 20
0.6000553033959802
 10
0.9406332514322848
 20
0.6045823411799387
 10
0.9442034646434027
 20
0.6081997966901321
 10
0.9472398991749138
 20
0.6089719611968767
 10
0.9512299560815884
 20
0.609052925404833
 10
0.9600344183638416
 20
0.6073634300966102
 10
0.9679034040577736
 20
0.6033228100932671
 10
0.9709190836043344
 20
0.6006588978916266
 10
0.9725412536947112
 20
0.5983911094027437
 10
0.9745548430345891
 20
0.5922539591863325
  0
LINE
  5
134
330
A
100
AcDbEntity
  8
0
  6
Continuous
 62
     7
100
AcDbLine
 10
0.9577080860477558
 20
0.5941949509435749
 30
0.0
 11
0.9395809579703067
 21
0.5941949509435749
 31
0.0
  0
LINE
  5
135
330
A
100
AcDbEntity
  8
0
  6
Continuous
 62
     7
100
AcDbLine
 10
0.9395809579703067
 20
0.5941949509435749
 30
0.0
 11
0.9395809579703067
 21
2.849721567286756
 31
0.0
  0
LINE
  5
136
330
A
100
AcDbEntity
  8
0
  6
Continuous
 62
     7
100
AcDbLine
 10
0.9745548593539368
 20
2.849721567286756
 30
0.0
 11
0.9395809579703067
 21
2.849721567286756
 31
0.0
  0
LINE
  5
137
330
A
100
AcDbEntity
  8
0
  6
Continuous
 62
     7
100
AcDbLine
 10
1.36203064539609
 20
0.5248669112509643
 30
0.0
 11
0.9745548430345891
 21
0.5248669112509643
 31
0.0
  0
LINE
  5
138
330
A
100
AcDbEntity
  8
0
  6
Continuous
 62
     7
100
AcDbLine
 10
1.36203064539609
 20
0.5248669112509643
 30
0.0
 11
1.36203064539609
 21
0.72167761760352
 31
0.0
  0
LINE
  5
139
330
A
100
AcDbEntity
  8
0
  6
Continuous
 62
     7
100
AcDbLine
 10
1.36203064539609
 20
0.72167761760352
 30
0.0
 11
1.033434574969505
 21
2.821237879260671
 31
0.0
  0
ARC
  5
13A
330
A
100
AcDbEntity
  8
0
  6
Continuous
 62
     7
100
AcDbCircle
 10
1.000146251839159
 20
2.816028020674394
 30
0.0
 40
0.0336935466123613
100
AcDbArc
 50
8.895037709270289
 51
90.0
  0
LINE
  5
13B
330
A
100
AcDbEntity
  8
0
  6
Continuous
 62
     7
100
AcDbLine
 10
1.000146251839159
 20
2.849721567286756
 30
0.0
 11
0.9745548593539368
 21
2.849721567286756
 31
0.0
  0
LINE
  5
13C
330
A
100
AcDbEntity
  8
0
  6
Continuous
 62
     7
100
AcDbLine
 10
0.9745548430345891
 20
0.5248669112509643
 30
0.0
 11
0.9745548430345891
 21
0.5922539591863325
 31
0.0
  0
LINE
  5
13D
330
A
100
AcDbEntity
  8
0
  6
Continuous
 62
     7
100
AcDbLine
 10
0.9577080860477558
 20
0.5941949509435749
 30
0.0
 11
0.9577080860477558
 21
0.5922539442585566
 31
0.0
  0
LINE
  5
13E
330
A
100
AcDbEntity
  8
0
  6
Continuous
 62
     7
100
AcDbLine
 10
0.9395809579703067
 20
0.5941949509435749
 30
0.0
 11
0.9395809579703067
 21
0.5922539442585566
 31
0.0
  0
LINE
  5
13F
330
A
100
AcDbEntity
  8
0
  6
Continuous
 62
     7
100
AcDbLine
 10
0.9395809539286739
 20
0.5248669112509643
 30
0.0
 11
0.9577080810507467
 21
0.5248669112509643
 31
0.0
  0
LINE
  5
140
330
A
100
AcDbEntity
  8
0
  6
Continuous
 62
     7
100
AcDbLine
 10
0.9577080860477558
 20
0.5922539442585566
 30
0.0
 11
0.9577080810507467
 21
0.558560356152039
 31
0.0
  0
LINE
  5
141
330
A
100
AcDbEntity
  8
0
  6
Continuous
 62
     7
100
AcDbLine
 10
0.9395809579703067
 20
0.5922539442585566
 30
0.0
 11
0.9395809539286739
 21
0.5248669112509643
 31
0.0
  0
LINE
  5
142
330
A
100
AcDbEntity
  8
0
  6
Continuous
 62
     7
100
AcDbLine
 10
0.9745548430345872
 20
0.5922539591863325
 30
0.0
 11
0.9745548430345872
 21
0.5922539591863325
 31
0.0
  0
LINE
  5
143
330
A
100
AcDbEntity
  8
0
  6
HIDDEN
 62
     7
100
AcDbLine
 10
1.362030645396089
 20
0.558560356152039
 30
0.0
 11
0.9745548430345891
 21
0.558560356152039
 31
0.0
  0
LWPOLYLINE
  5
144
330
A
100
AcDbEntity
  8
0
  6
HIDDEN
 62
     7
100
AcDbPolyline
 90
       10
 70
   128
 43
0.0
 10
0.95937986543848
 20
0.6074211487214228
 10
0.9599347153694726
 20
0.6081997966901321
 10
0.9613973685755199
 20
0.6089719611968767
 10
0.9633193592484854
 20
0.609052925404833
 10
0.9654501648366997
 20
0.6085019892710021
 10
0.9675604526397911
 20
0.6073634300966102
 10
0.9695505196633932
 20
0.6056369316152193
 10
0.9713509058912046
 20
0.6033228100932671
 10
0.9735849329379036
 20
0.5983911094027437
 10
0.9745548430345891
 20
0.5922539591863325
  0
LINE
  5
150
330
A
100
AcDbEntity
  8
0
  6
HIDDEN
 62
     7
100
AcDbLine
 10
0.9745548430345891
 20
0.5922539591863325
 30
0.0
 11
0.9745548430345891
 21
0.5922539591863325
 31
0.0
  0
LINE
  5
151
330
A
100
AcDbEntity
  8
0
  6
HIDDEN
 62
     7
100
AcDbLine
 10
0.9577080860477558
 20
0.5941949509435749
 30
0.0
 11
0.9577080810507467
 21
2.849721567286756
 31
0.0
  0
LINE
  5
152
330
A
100
AcDbEntity
  8
0
  6
HIDDEN
 62
     7
100
AcDbLine
 10
1.058788732020407
 20
0.4911733082166704
 30
0.0
 11
1.058788732020407
 21
0.558560356152039
 31
0.0
  0
LINE
  5
153
330
A
100
AcDbEntity
  8
0
  6
HIDDEN
 62
     7
100
AcDbLine
 10
1.227256460575417
 20
0.558560356152039
 30
0.0
 11
1.227256460575417
 21
0.4911733082166704
 31
0.0
  0
LINE
  5
154
330
A
100
AcDbEntity
  8
0
  6
HIDDEN
 62
     7
100
AcDbLine
 10
0.9495862798734735
 20
0.609103528034806
 30
0.0
 11
0.9625282978221108
 21
0.609103528034806
 31
0.0
  0
LINE
  5
155
330
A
100
AcDbEntity
  8
0
  6
HIDDEN
 62
     7
100
AcDbLine
 10
0.9577080810507467
 20
2.594930960510724
 30
0.0
 11
0.9395809539286739
 21
2.594930960510724
 31
0.0
  0
LINE
  5
156
330
A
100
AcDbEntity
  8
0
  6
HIDDEN
 62
     7
100
AcDbLine
 10
0.9395809539286739
 20
2.632802522248772
 30
0.0
 11
0.9577080810507467
 21
2.632802522248772
 31
0.0
  0
LINE
  5
157
330
A
100
AcDbEntity
  8
0
  6
HIDDEN
 62
     7
100
AcDbLine
 10
0.9577080810507467
 20
1.929164531880516
 30
0.0
 11
0.9395809539286739
 21
1.929164531880516
 31
0.0
  0
LINE
  5
158
330
A
100
AcDbEntity
  8
0
  6
HIDDEN
 62
     7
100
AcDbLine
 10
0.9395809539286739
 20
1.967036014551955
 30
0.0
 11
0.9577080810507467
 21
1.967036014551955
 31
0.0
  0
LINE
  5
159
330
A
100
AcDbEntity
  8
0
  6
HIDDEN
 62
     7
100
AcDbLine
 10
0.9577080810507467
 20
2.262047726428968
 30
0.0
 11
0.9395809539286739
 21
2.262047726428968
 31
0.0
  0
LINE
  5
15A
330
A
100
AcDbEntity
  8
0
  6
HIDDEN
 62
     7
100
AcDbLine
 10
0.9395809539286739
 20
2.299919288167016
 30
0.0
 11
0.9577080810507467
 21
2.299919288167016
 31
0.0
  0
LINE
  5
15B
330
A
100
AcDbEntity
  8
0
  6
HIDDEN
 62
     7
100
AcDbLine
 10
0.9577080810507467
 20
1.596281297798761
 30
0.0
 11
0.9395809539286739
 21
1.596281297798761
 31
0.0
  0
LINE
  5
15C
330
A
100
AcDbEntity
  8
0
  6
HIDDEN
 62
     7
100
AcDbLine
 10
0.9395809539286739
 20
1.634152859536809
 30
0.0
 11
0.9577080810507467
 21
1.634152859536809
 31
0.0
  0
LINE
  5
15D
330
A
100
AcDbEntity
  8
0
  6
HIDDEN
 62
     7
100
AcDbLine
 10
0.9577080810507467
 20
0.9305148296352491
 30
0.0
 11
0.9395809539286739
 21
0.9305148296352491
 31
0.0
  0
LINE
  5
15E
330
A
100
AcDbEntity
  8
0
  6
HIDDEN
 62
     7
100
AcDbLine
 10
0.9395809539286739
 20
0.9683863123066867
 30
0.0
 11
0.9577080810507467
 21
0.9683863123066867
 31
0.0
  0
LINE
  5
15F
330
A
100
AcDbEntity
  8
0
  6
HIDDEN
 62
     7
100
AcDbLine
 10
0.9577080810507467
 20
1.263398063717005
 30
0.0
 11
0.9395809539286739
 21
1.263398063717005
 31
0.0
  0
LINE
  5
160
330
A
100
AcDbEntity
  8
0
  6
HIDDEN
 62
     7
100
AcDbLine
 10
0.9395809539286739
 20
1.301269546388442
 30
0.0
 11
0.9577080810507467
 21
1.301269546388442
 31
0.0
  0
LINE
  5
161
330
A
100
AcDbEntity
  8
0
  6
HIDDEN
 62
     7
100
AcDbLine
 10
0.9577080810507467
 20
2.763398698949059
 30
0.0
 11
0.9395809539286739
 21
2.763398698949059
 31
0.0
  0
LINE
  5
162
330
A
100
AcDbEntity
  8
0
  6
HIDDEN
 62
     7
100
AcDbLine
 10
0.9395809539286739
 20
2.801270245862117
 30
0.0
 11
0.9577080810507467
 21
2.801270245862117
 31
0.0
  0
LINE
  5
163
330
A
100
AcDbEntity
  8
0
  6
HIDDEN
 62
     7
100
AcDbLine
 10
0.9577080810507467
 20
2.430515464867304
 30
0.0
 11
0.9395809539286739
 21
2.430515464867304
 31
0.0
  0
LINE
  5
164
330
A
100
AcDbEntity
  8
0
  6
HIDDEN
 62
     7
100
AcDbLine
 10
0.9395809539286739
 20
2.468387026605352
 30
0.0
 11
0.9577080810507467
 21
2.468387026605352
 31
0.0
  0
LINE
  5
165
330
A
100
AcDbEntity
  8
0
  6
HIDDEN
 62
     7
100
AcDbLine
 10
0.9577080810507467
 20
2.097632230785547
 30
0.0
 11
0.9395809539286739
 21
2.097632230785547
 31
0.0
  0
LINE
  5
166
330
A
100
AcDbEntity
  8
0
  6
HIDDEN
 62
     7
100
AcDbLine
 10
0.9395809539286739
 20
2.135503792523596
 30
0.0
 11
0.9577080810507467
 21
2.135503792523596
 31
0.0
  0
LINE
  5
167
330
A
100
AcDbEntity
  8
0
  6
HIDDEN
 62
     7
100
AcDbLine
 10
0.9577080810507467
 20
1.764748996703791
 30
0.0
 11
0.9395809539286739
 21
1.764748996703791
 31
0.0
  0
LINE
  5
168
330
A
100
AcDbEntity
  8
0
  6
HIDDEN
 62
     7
100
AcDbLine
 10
0.9395809539286739
 20
1.802620558441839
 30
0.0
 11
0.9577080810507467
 21
1.802620558441839
 31
0.0
  0
LINE
  5
169
330
A
100
AcDbEntity
  8
0
  6
HIDDEN
 62
     7
100
AcDbLine
 10
0.9577080810507467
 20
1.098982528540279
 30
0.0
 11
0.9395809539286739
 21
1.098982528540279
 31
0.0
  0
LINE
  5
16A
330
A
100
AcDbEntity
  8
0
  6
HIDDEN
 62
     7
100
AcDbLine
 10
0.9395809539286739
 20
1.136854169344936
 30
0.0
 11
0.9577080810507467
 21
1.136854169344936
 31
0.0
  0
LINE
  5
16B
330
A
100
AcDbEntity
  8
0
  6
HIDDEN
 62
     7
100
AcDbLine
 10
0.9577080810507467
 20
1.431865762622034
 30
0.0
 11
0.9395809539286739
 21
1.431865762622034
 31
0.0
  0
LINE
  5
16C
330
A
100
AcDbEntity
  8
0
  6
HIDDEN
 62
     7
100
AcDbLine
 10
0.9395809539286739
 20
1.469737245293472
 30
0.0
 11
0.9577080810507467
 21
1.469737245293472
 31
0.0
  0
LINE
  5
16D
330
A
100
AcDbEntity
  8
0
  6
HIDDEN
 62
     7
100
AcDbLine
 10
0.9495567484948848
 20
0.6091065325659604
 30
0.0
 11
0.9625143030322576
 21
0.6091065325659604
 31
0.0
  0
LINE
  5
17F
330
A
100
AcDbEntity
  8
0
  6
Continuous
 62
     7
100
AcDbLine
 10
2.751676155425916
 20
3.550214411088356
 30
0.0
 11
2.751676155425916
 21
3.508097477822904
 31
0.0
  0
LINE
  5
180
330
A
100
AcDbEntity
  8
0
  6
Continuous
 62
     7
100
AcDbLine
 10
2.625325355629562
 20
3.508097477822904
 30
0.0
 11
2.625325355629562
 21
3.550214411088356
 31
0.0
  0
ARC
  5
181
330
A
100
AcDbEntity
  8
0
  6
Continuous
 62
     7
100
AcDbCircle
 10
2.68850075552774
 20
3.508097477822904
 30
0.0
 40
0.0631753998981773
100
AcDbArc
 50
180.0000000000004
 51
0.0
  0
ARC
  5
182
330
A
100
AcDbEntity
  8
0
  6
Continuous
 62
     7
100
AcDbCircle
 10
2.68850075552774
 20
3.550214411088356
 30
0.0
 40
0.0631753998981773
100
AcDbArc
 50
0.0
 51
180.0000000000004
  0
POINT
  5
183
330
A
100
AcDbEntity
  8
OBJ
100
AcDbPoint
 10
2.68850075552774
 20
3.613389811018962
 30
0.0
  0
LINE
  5
184
330
A
100
AcDbEntity
  8
0
  6
Continuous
 62
     7
100
AcDbLine
 10
2.486339473355068
 20
3.310147891475283
 30
0.0
 11
2.890662037700412
 21
3.310147891475283
 31
0.0
  0
LINE
  5
185
330
A
100
AcDbEntity
  8
0
  6
Continuous
 62
     7
100
AcDbLine
 10
2.625325355629562
 20
3.508097477822904
 30
0.0
 11
2.625325355629562
 21
3.550214411088356
 31
0.0
  0
ARC
  5
186
330
A
100
AcDbEntity
  8
0
  6
Continuous
 62
     7
100
AcDbCircle
 10
2.68850075552774
 20
3.508097477822904
 30
0.0
 40
0.0631753998981773
100
AcDbArc
 50
180.0000000000004
 51
0.0
  0
LINE
  5
187
330
A
100
AcDbEntity
  8
0
  6
Continuous
 62
     7
100
AcDbLine
 10
2.751676155425916
 20
3.550214411088356
 30
0.0
 11
2.751676155425916
 21
3.508097477822904
 31
0.0
  0
ARC
  5
188
330
A
100
AcDbEntity
  8
0
  6
Continuous
 62
     7
100
AcDbCircle
 10
2.68850075552774
 20
3.550214411088356
 30
0.0
 40
0.0631753998981773
100
AcDbArc
 50
0.0
 51
180.0000000000004
  0
ARC
  5
189
330
A
100
AcDbEntity
  8
0
  6
Continuous
 62
     7
100
AcDbCircle
 10
2.873815261895726
 20
3.69762367738771
 30
0.0
 40
0.0168467735007592
100
AcDbArc
 50
0.0
 51
90.0
  0
ARC
  5
18A
330
A
100
AcDbEntity
  8
0
  6
Continuous
 62
     7
100
AcDbCircle
 10
2.873815261895726
 20
3.697623677517428
 30
0.0
 40
0.0349739013836308
100
AcDbArc
 50
0.0
 51
90.0
  0
ARC
  5
18B
330
A
100
AcDbEntity
  8
0
  6
Continuous
 62
     7
100
AcDbCircle
 10
2.503186249159753
 20
3.69762367738771
 30
0.0
 40
0.0168467735007587
100
AcDbArc
 50
90.0
 51
180.0000000000004
  0
ARC
  5
18C
330
A
100
AcDbEntity
  8
0
  6
Continuous
 62
     7
100
AcDbCircle
 10
2.503186249159753
 20
3.697623677517428
 30
0.0
 40
0.0349739013836311
100
AcDbArc
 50
90.0
 51
180.0000000000004
  0
LINE
  5
18D
330
A
100
AcDbEntity
  8
0
  6
Continuous
 62
     7
100
AcDbLine
 10
2.873815261895726
 20
3.714470450888468
 30
0.0
 11
2.503186249159753
 21
3.714470450823608
 31
0.0
  0
LINE
  5
18E
330
A
100
AcDbEntity
  8
0
  6
Continuous
 62
     7
100
AcDbLine
 10
2.873815261895726
 20
3.732597578901057
 30
0.0
 11
2.503186249159753
 21
3.732597578901057
 31
0.0
  0
LINE
  5
18F
330
A
100
AcDbEntity
  8
0
  6
Continuous
 62
     7
100
AcDbLine
 10
2.486339475658995
 20
3.697623677517428
 30
0.0
 11
2.486339475853571
 21
3.672032285032206
 31
0.0
  0
LINE
  5
190
330
A
100
AcDbEntity
  8
0
  6
Continuous
 62
     7
100
AcDbLine
 10
2.468212347776122
 20
3.697623677517428
 30
0.0
 11
2.468212347776122
 21
3.672032285032206
 31
0.0
  0
LINE
  5
191
330
A
100
AcDbEntity
  8
0
  6
Continuous
 62
     7
100
AcDbLine
 10
2.890662035201906
 20
3.672032285032206
 30
0.0
 11
2.890662035331626
 21
3.697623677517428
 31
0.0
  0
LINE
  5
192
330
A
100
AcDbEntity
  8
0
  6
Continuous
 62
     7
100
AcDbLine
 10
2.908789163279358
 20
3.672032285032206
 30
0.0
 11
2.908789163279358
 21
3.697623677517428
 31
0.0
  0
LINE
  5
193
330
A
100
AcDbEntity
  8
0
  6
Continuous
 62
     7
100
AcDbLine
 10
2.890662035201906
 20
3.638743961901858
 30
0.0
 11
2.890662035201906
 21
3.672032285032206
 31
0.0
  0
LINE
  5
194
330
A
100
AcDbEntity
  8
0
  6
Continuous
 62
     7
100
AcDbLine
 10
2.908789163279358
 20
3.672032285032206
 30
0.0
 11
2.908789163279358
 21
3.638743961901858
 31
0.0
  0
LINE
  5
195
330
A
100
AcDbEntity
  8
0
  6
Continuous
 62
     7
100
AcDbLine
 10
2.486339475853571
 20
3.672032285032206
 30
0.0
 11
2.486339475853571
 21
3.638743961901858
 31
0.0
  0
LINE
  5
196
330
A
100
AcDbEntity
  8
0
  6
Continuous
 62
     7
100
AcDbLine
 10
2.468212347776122
 20
3.638743961901858
 30
0.0
 11
2.468212347776122
 21
3.672032285032206
 31
0.0
  0
LINE
  5
197
330
A
100
AcDbEntity
  8
0
  6
Continuous
 62
     7
100
AcDbLine
 10
2.890662037700412
 20
3.310147891475281
 30
0.0
 11
2.908789164822485
 21
3.310147891475281
 31
0.0
  0
LINE
  5
198
330
A
100
AcDbEntity
  8
0
  6
Continuous
 62
     7
100
AcDbLine
 10
2.890662037700412
 20
3.310147891475281
 30
0.0
 11
2.890662035201906
 21
3.638743961901858
 31
0.0
  0
LINE
  5
199
330
A
100
AcDbEntity
  8
0
  6
Continuous
 62
     7
100
AcDbLine
 10
2.908789164822485
 20
3.310147891475281
 30
0.0
 11
2.908789163279358
 21
3.638743961901858
 31
0.0
  0
LINE
  5
19A
330
A
100
AcDbEntity
  8
0
  6
Continuous
 62
     7
100
AcDbLine
 10
2.486339473355068
 20
3.310147891475281
 30
0.0
 11
2.468212346232997
 21
3.310147891475281
 31
0.0
  0
LINE
  5
19B
330
A
100
AcDbEntity
  8
0
  6
Continuous
 62
     7
100
AcDbLine
 10
2.486339475853571
 20
3.638743961901858
 30
0.0
 11
2.486339473355068
 21
3.310147891475281
 31
0.0
  0
LINE
  5
19C
330
A
100
AcDbEntity
  8
0
  6
Continuous
 62
     7
100
AcDbLine
 10
2.468212347776122
 20
3.638743961901858
 30
0.0
 11
2.468212346232997
 21
3.310147891475281
 31
0.0
  0
MTEXT
  5
48E
330
A
100
AcDbEntity
  8
0
  6
Continuous
100
AcDbMText
 10
2.087937865396091
 20
3.189073650797755
 30
0.0
 40
0.1
 41
2.135016003694218
 71
     1
 72
     5
  1
UPHD8-TOP-VIEW
 73
     1
 44
1.0
1001
ACAD
1000
MTEXTBEGIN
1070
    73
1070
     1
1070
    44
1040
1.0
1070
    74
1070
     0
1000
MTEXTEND
  0
MTEXT
  5
496
330
A
100
AcDbEntity
  8
0
  6
Continuous
100
AcDbMText
 10
0.4878237525935063
 20
0.3526807069717179
 30
0.0
 40
0.1
 41
2.135016003694218
 71
     1
 72
     5
  1
UPHD8-SIDE-VIEW
 73
     1
 44
1.0
1001
ACAD
1000
MTEXTBEGIN
1070
    73
1070
     1
1070
    44
1040
1.0
1070
    74
1070
     0
1000
MTEXTEND
  0
MTEXT
  5
49C
330
A
100
AcDbEntity
  8
0
  6
Continuous
100
AcDbMText
 10
2.218234493361933
 20
0.3722191452574108
 30
0.0
 40
0.1
 41
2.135016003694218
 71
     1
 72
     5
  1
UPHD8-FRONT-VIEW
 73
     1
 44
1.0
1001
ACAD
1000
MTEXTBEGIN
1070
    73
1070
     1
1070
    44
1040
1.0
1070
    74
1070
     0
1000
MTEXTEND
  0
ENDSEC
  0
SECTION
  2
OBJECTS
  0
DICTIONARY
  5
19
330
0
100
AcDbDictionary
281
     1
  3
ACAD_COLOR
350
434
  3
ACAD_GROUP
350
1A
  3
ACAD_LAYOUT
350
435
  3
ACAD_MATERIAL
350
433
  3
ACAD_MLINESTYLE
350
1B
  3
ACAD_PLOTSETTINGS
350
436
  3
ACAD_PLOTSTYLENAME
350
431
  3
ACDBHEADERROUNDTRIPXREC
350
4B2
  3
AcDbVariableDictionary
350
455
  3
ASE_INDEX_DICTIONARY
350
472
  3
DWGPROPS
350
4B1
  0
DICTIONARY
  5
4B5
330
5C
100
AcDbDictionary
280
     1
281
     1
  3
ACAD_MTEXT_RT
360
4B6
  0
DICTIONARY
  5
4B7
330
171
100
AcDbDictionary
280
     1
281
     1
  3
ACAD_MTEXT_RT
360
4B8
  0
DICTIONARY
  5
434
102
{ACAD_REACTORS
330
19
102
}
330
19
100
AcDbDictionary
281
     1
  0
DICTIONARY
  5
1A
102
{ACAD_REACTORS
330
19
102
}
330
19
100
AcDbDictionary
281
     1
  0
DICTIONARY
  5
435
102
{ACAD_REACTORS
330
19
102
}
330
19
100
AcDbDictionary
281
     1
  3
Layout1
350
438
  3
Model
350
437
  0
DICTIONARY
  5
433
102
{ACAD_REACTORS
330
19
102
}
330
19
100
AcDbDictionary
281
     1
  0
DICTIONARY
  5
1B
102
{ACAD_REACTORS
330
19
102
}
330
19
100
AcDbDictionary
281
     1
  3
STANDARD
350
1C
  0
DICTIONARY
  5
436
102
{ACAD_REACTORS
330
19
102
}
330
19
100
AcDbDictionary
281
     1
  0
ACDBDICTIONARYWDFLT
  5
431
102
{ACAD_REACTORS
330
19
102
}
330
19
100
AcDbDictionary
281
     1
  3
Normal
350
432
100
AcDbDictionaryWithDefault
340
432
  0
DICTIONARY
  5
4B2
102
{ACAD_REACTORS
330
19
102
}
330
19
100
AcDbDictionary
281
     1
  3
COLORDICT
350
4B4
  3
MATERIALDICT
350
4B3
  0
DICTIONARY
  5
455
102
{ACAD_REACTORS
330
19
102
}
330
19
100
AcDbDictionary
281
     1
  3
DIMASSOC
350
456
  3
PROJECTNAME
350
457
  0
DICTIONARY
  5
472
102
{ACAD_REACTORS
330
19
102
}
330
19
100
AcDbDictionary
281
     1
  3
ASEBlockHierarchyIndexRecord
350
473
1001
DCO15
1040
1621673030.169
  0
XRECORD
  5
4B1
102
{ACAD_REACTORS
330
19
102
}
330
19
100
AcDbXrecord
280
     1
  1
DWGPROPS COOKIE
  2

  3

  4

  6

  7

  8

  9

300
=
301
=
302
=
303
=
304
=
305
=
306
=
307
=
308
=
309
=
 40
0.0420855671296296
 41
2444971.791666667
 42
2454763.447155845
  1

 90
        0
  0
XRECORD
  5
4B6
102
{ACAD_REACTORS
330
4B5
102
}
330
4B5
100
AcDbXrecord
280
     1
 40
1562.0
  1
%%p
  0
XRECORD
  5
4B8
102
{ACAD_REACTORS
330
4B7
102
}
330
4B7
100
AcDbXrecord
280
     1
 40
1562.0
  1
%%p
  0
LAYOUT
  5
438
102
{ACAD_XDICTIONARY
360
4BB
102
}
102
{ACAD_REACTORS
330
435
102
}
330
435
100
AcDbPlotSettings
  1

  2
None
  4

  6

 40
0.0
 41
0.0
 42
0.0
 43
0.0
 44
0.0
 45
0.0
 46
0.0
 47
0.0
 48
0.0
 49
0.0
140
0.0
141
0.0
142
1.0
143
1.0
 70
   688
 72
     0
 73
     0
 74
     5
  7
USP1.ctb
 75
    16
147
1.0
148
0.0
149
0.0
100
AcDbLayout
  1
Layout1
 70
     1
 71
     1
 10
0.0
 20
0.0
 11
12.0
 21
9.0
 12
0.0
 22
0.0
 32
0.0
 14
1.000000000000000E+20
 24
1.000000000000000E+20
 34
1.000000000000000E+20
 15
-1.000000000000000E+20
 25
-1.000000000000000E+20
 35
-1.000000000000000E+20
146
0.0
 13
0.0
 23
0.0
 33
0.0
 16
1.0
 26
0.0
 36
0.0
 17
0.0
 27
1.0
 37
0.0
 76
     0
330
B
  0
LAYOUT
  5
437
102
{ACAD_XDICTIONARY
360
4B9
102
}
102
{ACAD_REACTORS
330
435
102
}
330
435
100
AcDbPlotSettings
  1

  2
Acrobat Distiller
  4
Letter
  6

 40
3.174999999999998
 41
3.174999999999998
 42
3.175002999999998
 43
3.174987999999998
 44
215.899994
 45
279.399994
 46
0.0
 47
0.0
 48
0.2500000000039868
 49
0.256367763909904
140
8.249999999995978
141
10.75636776389939
142
1.0
143
0.9767441645825602
 70
 11952
 72
     0
 73
     0
 74
     4
  7
monochrome.ctb
 75
     0
147
1.023809546307735
148
-6.350000000101262
149
-6.51174120331156
100
AcDbLayout
  1
Model
 70
     1
 71
     0
 10
0.0
 20
0.0
 11
12.0
 21
9.0
 12
0.0
 22
0.0
 32
0.0
 14
0.0
 24
0.0
 34
0.0
 15
0.0
 25
0.0
 35
0.0
146
0.0
 13
0.0
 23
0.0
 33
0.0
 16
1.0
 26
0.0
 36
0.0
 17
0.0
 27
1.0
 37
0.0
 76
     0
330
A
  0
MLINESTYLE
  5
1C
102
{ACAD_REACTORS
330
1B
102
}
330
1B
100
AcDbMlineStyle
  2
STANDARD
 70
     0
  3

 62
     0
 51
90.0
 52
90.0
 71
     2
 49
0.5
 62
   256
  6
BYLAYER
 49
-0.5
 62
   256
  6
BYLAYER
  0
ACDBPLACEHOLDER
  5
432
102
{ACAD_REACTORS
330
431
102
}
330
431
  0
XRECORD
  5
4B4
102
{ACAD_REACTORS
330
4B2
102
}
330
4B2
100
AcDbXrecord
280
     1
340
434
  0
XRECORD
  5
4B3
102
{ACAD_REACTORS
330
4B2
102
}
330
4B2
100
AcDbXrecord
280
     1
340
433
  0
DICTIONARYVAR
  5
456
102
{ACAD_REACTORS
330
455
102
}
330
455
100
DictionaryVariables
280
     0
  1
1
  0
DICTIONARYVAR
  5
457
102
{ACAD_REACTORS
330
455
102
}
330
455
100
DictionaryVariables
280
     0
  1

  0
XRECORD
  5
473
102
{ACAD_REACTORS
330
472
102
}
330
472
100
AcDbXrecord
280
     1
330
60
330
64
330
426
330
427
330
8B
330
104
330
10B
330
119
330
11A
330
F6
330
F7
330
177
330
178
330
1A4
330
1A5
330
1B1
330
1B2
330
1BE
330
1BF
  0
DICTIONARY
  5
4BB
330
438
100
AcDbDictionary
280
     1
281
     1
  3
ACAD_XREC_ROUNDTRIP
360
4BC
  0
DICTIONARY
  5
4B9
330
437
100
AcDbDictionary
280
     1
281
     1
  3
ACAD_XREC_ROUNDTRIP
360
4BA
  0
XRECORD
  5
4BC
102
{ACAD_REACTORS
330
4BB
102
}
330
4BB
100
AcDbXrecord
280
     1
102
SHADEPLOT
 70
     0
102
SHADEPLOTRESLEVEL
 70
     2
102
SHADEPLOTCUSTOMDPI
 70
   300
  0
XRECORD
  5
4BA
102
{ACAD_REACTORS
330
4B9
102
}
330
4B9
100
AcDbXrecord
280
     1
102
SHADEPLOT
 70
     1
102
SHADEPLOTRESLEVEL
 70
     2
102
SHADEPLOTCUSTOMDPI
 70
   300
  0
ENDSEC
  0
EOF
