  0
SECTION
  2
HEADER
  9
$ACADVER
  1
AC1015
  9
$ACADMAINTVER
 70
    20
  9
$DWGCODEPAGE
  3
ANSI_1252
  9
$INSBASE
 10
0.0
 20
0.0
 30
0.0
  9
$EXTMIN
 10
0.3796505077039569
 20
0.3368338321082209
 30
-0.0000000000000119
  9
$EXTMAX
 10
3.686930770965309
 20
3.788731170480376
 30
0.0000000000000034
  9
$LIMMIN
 10
0.0
 20
0.0
  9
$LIMMAX
 10
0.0
 20
0.0
  9
$ORTHOMODE
 70
     0
  9
$REGENMODE
 70
     1
  9
$FILLMODE
 70
     1
  9
$QTEXTMODE
 70
     0
  9
$MIRRTEXT
 70
     1
  9
$LTSCALE
 40
1.0
  9
$ATTMODE
 70
     1
  9
$TEXTSIZE
 40
0.2
  9
$TRACEWID
 40
0.05
  9
$TEXTSTYLE
  7
Standard
  9
$CLAYER
  8
OBJ
  9
$CELTYPE
  6
ByLayer
  9
$CECOLOR
 62
   256
  9
$CELTSCALE
 40
1.0
  9
$DISPSILH
 70
     0
  9
$DIMSCALE
 40
1.0
  9
$DIMASZ
 40
0.18
  9
$DIMEXO
 40
0.0625
  9
$DIMDLI
 40
0.38
  9
$DIMRND
 40
0.0
  9
$DIMDLE
 40
0.0
  9
$DIMEXE
 40
0.18
  9
$DIMTP
 40
0.0
  9
$DIMTM
 40
0.0
  9
$DIMTXT
 40
0.09
  9
$DIMCEN
 40
0.09
  9
$DIMTSZ
 40
0.0
  9
$DIMTOL
 70
     0
  9
$DIMLIM
 70
     0
  9
$DIMTIH
 70
     1
  9
$DIMTOH
 70
     1
  9
$DIMSE1
 70
     0
  9
$DIMSE2
 70
     0
  9
$DIMTAD
 70
     0
  9
$DIMZIN
 70
     0
  9
$DIMBLK
  1

  9
$DIMASO
 70
     1
  9
$DIMSHO
 70
     1
  9
$DIMPOST
  1

  9
$DIMAPOST
  1

  9
$DIMALT
 70
     0
  9
$DIMALTD
 70
     2
  9
$DIMALTF
 40
25.4
  9
$DIMLFAC
 40
6.0
  9
$DIMTOFL
 70
     0
  9
$DIMTVP
 40
0.0
  9
$DIMTIX
 70
     0
  9
$DIMSOXD
 70
     0
  9
$DIMSAH
 70
     0
  9
$DIMBLK1
  1

  9
$DIMBLK2
  1

  9
$DIMSTYLE
  2
Standard
  9
$DIMCLRD
 70
     0
  9
$DIMCLRE
 70
     0
  9
$DIMCLRT
 70
     0
  9
$DIMTFAC
 40
1.0
  9
$DIMGAP
 40
0.09
  9
$DIMJUST
 70
     0
  9
$DIMSD1
 70
     0
  9
$DIMSD2
 70
     0
  9
$DIMTOLJ
 70
     1
  9
$DIMTZIN
 70
     0
  9
$DIMALTZ
 70
     0
  9
$DIMALTTZ
 70
     0
  9
$DIMUPT
 70
     0
  9
$DIMDEC
 70
     4
  9
$DIMTDEC
 70
     4
  9
$DIMALTU
 70
     2
  9
$DIMALTTD
 70
     2
  9
$DIMTXSTY
  7
Standard
  9
$DIMAUNIT
 70
     0
  9
$DIMADEC
 70
     0
  9
$DIMALTRND
 40
0.0
  9
$DIMAZIN
 70
     0
  9
$DIMDSEP
 70
    46
  9
$DIMATFIT
 70
     3
  9
$DIMFRAC
 70
     2
  9
$DIMLDRBLK
  1

  9
$DIMLUNIT
 70
     5
  9
$DIMLWD
 70
    -2
  9
$DIMLWE
 70
    -2
  9
$DIMTMOVE
 70
     0
  9
$LUNITS
 70
     2
  9
$LUPREC
 70
     3
  9
$SKETCHINC
 40
0.1
  9
$FILLETRAD
 40
0.5
  9
$AUNITS
 70
     0
  9
$AUPREC
 70
     0
  9
$MENU
  1
.
  9
$ELEVATION
 40
0.0
  9
$PELEVATION
 40
0.0
  9
$THICKNESS
 40
0.0
  9
$LIMCHECK
 70
     0
  9
$CHAMFERA
 40
0.5
  9
$CHAMFERB
 40
0.5
  9
$CHAMFERC
 40
1.0
  9
$CHAMFERD
 40
0.0
  9
$SKPOLY
 70
     0
  9
$TDCREATE
 40
2454112.638393553
  9
$TDUCREATE
 40
2454112.846726887
  9
$TDUPDATE
 40
2454763.446594688
  9
$TDUUPDATE
 40
2454763.654928021
  9
$TDINDWG
 40
0.1708145486
  9
$TDUSRTIMER
 40
0.1708145486
  9
$USRTIMER
 70
     1
  9
$ANGBASE
 50
0.0
  9
$ANGDIR
 70
     0
  9
$PDMODE
 70
     0
  9
$PDSIZE
 40
-1.0
  9
$PLINEWID
 40
0.0
  9
$SPLFRAME
 70
     0
  9
$SPLINETYPE
 70
     6
  9
$SPLINESEGS
 70
     8
  9
$HANDSEED
  5
BD5
  9
$SURFTAB1
 70
     6
  9
$SURFTAB2
 70
     6
  9
$SURFTYPE
 70
     6
  9
$SURFU
 70
     6
  9
$SURFV
 70
     6
  9
$UCSBASE
  2

  9
$UCSNAME
  2

  9
$UCSORG
 10
0.0
 20
0.0
 30
0.0
  9
$UCSXDIR
 10
1.0
 20
0.0
 30
0.0
  9
$UCSYDIR
 10
0.0
 20
1.0
 30
0.0
  9
$UCSORTHOREF
  2

  9
$UCSORTHOVIEW
 70
     0
  9
$UCSORGTOP
 10
0.0
 20
0.0
 30
0.0
  9
$UCSORGBOTTOM
 10
0.0
 20
0.0
 30
0.0
  9
$UCSORGLEFT
 10
0.0
 20
0.0
 30
0.0
  9
$UCSORGRIGHT
 10
0.0
 20
0.0
 30
0.0
  9
$UCSORGFRONT
 10
0.0
 20
0.0
 30
0.0
  9
$UCSORGBACK
 10
0.0
 20
0.0
 30
0.0
  9
$PUCSBASE
  2

  9
$PUCSNAME
  2

  9
$PUCSORG
 10
0.0
 20
0.0
 30
0.0
  9
$PUCSXDIR
 10
1.0
 20
0.0
 30
0.0
  9
$PUCSYDIR
 10
0.0
 20
1.0
 30
0.0
  9
$PUCSORTHOREF
  2

  9
$PUCSORTHOVIEW
 70
     0
  9
$PUCSORGTOP
 10
0.0
 20
0.0
 30
0.0
  9
$PUCSORGBOTTOM
 10
0.0
 20
0.0
 30
0.0
  9
$PUCSORGLEFT
 10
0.0
 20
0.0
 30
0.0
  9
$PUCSORGRIGHT
 10
0.0
 20
0.0
 30
0.0
  9
$PUCSORGFRONT
 10
0.0
 20
0.0
 30
0.0
  9
$PUCSORGBACK
 10
0.0
 20
0.0
 30
0.0
  9
$USERI1
 70
     0
  9
$USERI2
 70
     0
  9
$USERI3
 70
     0
  9
$USERI4
 70
     0
  9
$USERI5
 70
     0
  9
$USERR1
 40
0.0
  9
$USERR2
 40
0.0
  9
$USERR3
 40
0.0
  9
$USERR4
 40
0.0
  9
$USERR5
 40
0.0
  9
$WORLDVIEW
 70
     1
  9
$SHADEDGE
 70
     3
  9
$SHADEDIF
 70
    70
  9
$TILEMODE
 70
     1
  9
$MAXACTVP
 70
    64
  9
$PINSBASE
 10
0.0
 20
0.0
 30
0.0
  9
$PLIMCHECK
 70
     0
  9
$PEXTMIN
 10
1.049999952316283
 20
0.7999999523162842
 30
0.0
  9
$PEXTMAX
 10
9.449999570846555
 20
7.199999570846556
 30
0.0
  9
$PLIMMIN
 10
-0.2500002402958907
 20
-0.2499999962453767
  9
$PLIMMAX
 10
10.74999951940821
 20
8.249999763458731
  9
$UNITMODE
 70
     0
  9
$VISRETAIN
 70
     1
  9
$PLINEGEN
 70
     0
  9
$PSLTSCALE
 70
     1
  9
$TREEDEPTH
 70
  3020
  9
$CMLSTYLE
  2
Standard
  9
$CMLJUST
 70
     0
  9
$CMLSCALE
 40
1.0
  9
$PROXYGRAPHICS
 70
     1
  9
$MEASUREMENT
 70
     0
  9
$CELWEIGHT
370
    -1
  9
$ENDCAPS
280
     0
  9
$JOINSTYLE
280
     0
  9
$LWDISPLAY
290
     0
  9
$INSUNITS
 70
     1
  9
$HYPERLINKBASE
  1

  9
$STYLESHEET
  1
MONOCHROME.CTB
  9
$XEDIT
290
     1
  9
$CEPSNTYPE
380
     0
  9
$PSTYLEMODE
290
     1
  9
$FINGERPRINTGUID
  2
{2D6846FF-EC42-4DD3-99CF-99ACF81E2562}
  9
$VERSIONGUID
  2
{426046A4-FBF3-490D-A41D-251F388D9DCC}
  9
$EXTNAMES
290
     1
  9
$PSVPSCALE
 40
0.0
  9
$OLESTARTUP
290
     0
  0
ENDSEC
  0
SECTION
  2
CLASSES
  0
CLASS
  1
ACDBDICTIONARYWDFLT
  2
AcDbDictionaryWithDefault
  3
ObjectDBX Classes
 90
        0
280
     0
281
     0
  0
CLASS
  1
DICTIONARYVAR
  2
AcDbDictionaryVar
  3
ObjectDBX Classes
 90
        0
280
     0
281
     0
  0
CLASS
  1
ACDBPLACEHOLDER
  2
AcDbPlaceHolder
  3
ObjectDBX Classes
 90
        0
280
     0
281
     0
  0
CLASS
  1
LAYOUT
  2
AcDbLayout
  3
ObjectDBX Classes
 90
        0
280
     0
281
     0
  0
ENDSEC
  0
SECTION
  2
TABLES
  0
TABLE
  2
VPORT
  5
8
330
0
100
AcDbSymbolTable
 70
     2
  0
VPORT
  5
BC2
330
8
100
AcDbSymbolTableRecord
100
AcDbViewportTableRecord
  2
*Active
 70
     0
 10
0.0
 20
0.0
 11
1.0
 21
1.0
 12
2.033290639334633
 22
2.062782501294298
 13
0.0
 23
0.0
 14
0.5
 24
0.5
 15
0.5
 25
0.5
 16
0.0
 26
0.0
 36
1.0
 17
0.0
 27
0.0
 37
0.0
 40
3.478180820644024
 41
1.257941550190597
 42
50.0
 43
0.0
 44
0.0
 50
0.0
 51
0.0
 71
     0
 72
  2000
 73
     1
 74
     3
 75
     0
 76
     0
 77
     0
 78
     0
281
     0
 65
     1
110
0.0
120
0.0
130
0.0
111
1.0
121
0.0
131
0.0
112
0.0
122
1.0
132
0.0
 79
     0
146
0.0
  0
ENDTAB
  0
TABLE
  2
LTYPE
  5
5
330
0
100
AcDbSymbolTable
 70
     6
  0
LTYPE
  5
14
330
5
100
AcDbSymbolTableRecord
100
AcDbLinetypeTableRecord
  2
ByBlock
 70
     0
  3

 72
    65
 73
     0
 40
0.0
  0
LTYPE
  5
15
330
5
100
AcDbSymbolTableRecord
100
AcDbLinetypeTableRecord
  2
ByLayer
 70
     0
  3

 72
    65
 73
     0
 40
0.0
  0
LTYPE
  5
16
330
5
100
AcDbSymbolTableRecord
100
AcDbLinetypeTableRecord
  2
Continuous
 70
     0
  3
Solid line
 72
    65
 73
     0
 40
0.0
  0
LTYPE
  5
2A
330
5
100
AcDbSymbolTableRecord
100
AcDbLinetypeTableRecord
  2
HIDDEN
 70
     0
  3
Hidden __ __ __ __ __ __ __ __ __ __ __ __ __ __
 72
    65
 73
     2
 40
0.075
 49
0.05
 74
     0
 49
-0.025
 74
     0
  0
LTYPE
  5
2B
330
5
100
AcDbSymbolTableRecord
100
AcDbLinetypeTableRecord
  2
PHANTOM
 70
     0
  3
Phantom ______  __  __  ______  __  __  ______
 72
    65
 73
     6
 40
0.5
 49
0.25
 74
     0
 49
-0.05
 74
     0
 49
0.05
 74
     0
 49
-0.05
 74
     0
 49
0.05
 74
     0
 49
-0.05
 74
     0
  0
LTYPE
  5
2C
330
5
100
AcDbSymbolTableRecord
100
AcDbLinetypeTableRecord
  2
CENTER
 70
     0
  3
Center ____ _ ____ _ ____ _ ____ _ ____ _ ____
 72
    65
 73
     4
 40
0.4
 49
0.25
 74
     0
 49
-0.05
 74
     0
 49
0.05
 74
     0
 49
-0.05
 74
     0
  0
LTYPE
  5
2D
330
5
100
AcDbSymbolTableRecord
100
AcDbLinetypeTableRecord
  2
CENTERX2
 70
     0
  3
Center (2x) ________  __  ________  __  _____
 72
    65
 73
     4
 40
0.8
 49
0.5
 74
     0
 49
-0.1
 74
     0
 49
0.1
 74
     0
 49
-0.1
 74
     0
  0
LTYPE
  5
2E
330
5
100
AcDbSymbolTableRecord
100
AcDbLinetypeTableRecord
  2
DOT2
 70
     0
  3
Dot (.5x) ........................................
 72
    65
 73
     2
 40
0.025
 49
0.0
 74
     0
 49
-0.025
 74
     0
  0
ENDTAB
  0
TABLE
  2
LAYER
  5
2
330
0
100
AcDbSymbolTable
 70
    18
  0
LAYER
  5
10
330
2
100
AcDbSymbolTableRecord
100
AcDbLayerTableRecord
  2
0
 70
     0
 62
     7
  6
Continuous
370
    -3
390
F
  0
LAYER
  5
2F
330
2
100
AcDbSymbolTableRecord
100
AcDbLayerTableRecord
  2
SLD-0
 70
     0
 62
   179
  6
Continuous
370
    -3
390
F
  0
LAYER
  5
30
330
2
100
AcDbSymbolTableRecord
100
AcDbLayerTableRecord
  2
SLD-DEFPOINTS
 70
     0
 62
   179
  6
Continuous
370
    -3
390
F
  0
LAYER
  5
31
330
2
100
AcDbSymbolTableRecord
100
AcDbLayerTableRecord
  2
OBJ
 70
     0
 62
   255
  6
Continuous
370
    -3
390
F
  0
LAYER
  5
32
330
2
100
AcDbSymbolTableRecord
100
AcDbLayerTableRecord
  2
FORMAT
 70
     0
 62
     7
  6
Continuous
370
    -3
390
F
  0
LAYER
  5
33
330
2
100
AcDbSymbolTableRecord
100
AcDbLayerTableRecord
  2
REV-1
 70
     0
 62
     7
  6
Continuous
370
    -3
390
F
  0
LAYER
  5
34
330
2
100
AcDbSymbolTableRecord
100
AcDbLayerTableRecord
  2
REV-2
 70
     0
 62
     7
  6
Continuous
370
    -3
390
F
  0
LAYER
  5
35
330
2
100
AcDbSymbolTableRecord
100
AcDbLayerTableRecord
  2
REV-3
 70
     0
 62
     7
  6
Continuous
370
    -3
390
F
  0
LAYER
  5
36
330
2
100
AcDbSymbolTableRecord
100
AcDbLayerTableRecord
  2
PAINT
 70
     0
 62
     7
  6
Continuous
370
    -3
390
F
  0
LAYER
  5
37
330
2
100
AcDbSymbolTableRecord
100
AcDbLayerTableRecord
  2
BLANK-SIZE-1
 70
     0
 62
     7
  6
Continuous
370
    -3
390
F
  0
LAYER
  5
38
330
2
100
AcDbSymbolTableRecord
100
AcDbLayerTableRecord
  2
BLANK-SIZE-2
 70
     0
 62
     7
  6
Continuous
370
    -3
390
F
  0
LAYER
  5
39
330
2
100
AcDbSymbolTableRecord
100
AcDbLayerTableRecord
  2
BLANK-SIZE-3
 70
     0
 62
     7
  6
Continuous
370
    -3
390
F
  0
LAYER
  5
3A
330
2
100
AcDbSymbolTableRecord
100
AcDbLayerTableRecord
  2
BLANK-SIZE-4
 70
     0
 62
     7
  6
Continuous
370
    -3
390
F
  0
LAYER
  5
3B
330
2
100
AcDbSymbolTableRecord
100
AcDbLayerTableRecord
  2
BLANK-SIZE-5
 70
     0
 62
     7
  6
Continuous
370
    -3
390
F
  0
LAYER
  5
3C
330
2
100
AcDbSymbolTableRecord
100
AcDbLayerTableRecord
  2
HDG
 70
     0
 62
     7
  6
Continuous
370
    -3
390
F
  0
LAYER
  5
276
330
2
100
AcDbSymbolTableRecord
100
AcDbLayerTableRecord
  2
DIM
 70
     0
 62
     3
  6
Continuous
370
    -3
390
F
  0
LAYER
  5
277
330
2
100
AcDbSymbolTableRecord
100
AcDbLayerTableRecord
  2
BORDER
 70
     0
 62
     7
  6
Continuous
370
    -3
390
F
  0
LAYER
  5
28C
330
2
100
AcDbSymbolTableRecord
100
AcDbLayerTableRecord
  2
Defpoints
 70
     0
 62
     7
  6
Continuous
290
     0
370
    -3
390
F
  0
ENDTAB
  0
TABLE
  2
STYLE
  5
3
330
0
100
AcDbSymbolTable
 70
    16
  0
STYLE
  5
11
330
3
100
AcDbSymbolTableRecord
100
AcDbTextStyleTableRecord
  2
Standard
 70
     0
 40
0.0
 41
1.0
 50
0.0
 71
     0
 42
0.2
  3
txt
  4

  0
STYLE
  5
6F
330
3
100
AcDbSymbolTableRecord
100
AcDbTextStyleTableRecord
  2
SLDTEXTSTYLE0
 70
     0
 40
0.0
 41
0.55
 50
0.0
 71
     0
 42
0.2
  3
TXT
  4

  0
STYLE
  5
74
330
3
100
AcDbSymbolTableRecord
100
AcDbTextStyleTableRecord
  2
SLDTEXTSTYLE1
 70
     0
 40
0.0
 41
0.6382352941176471
 50
0.0
 71
     0
 42
0.2
  3
TXT
  4

  0
STYLE
  5
76
330
3
100
AcDbSymbolTableRecord
100
AcDbTextStyleTableRecord
  2
SLDTEXTSTYLE2
 70
     0
 40
0.0
 41
0.7
 50
0.0
 71
     0
 42
0.2
  3
TXT
  4

  0
STYLE
  5
79
330
3
100
AcDbSymbolTableRecord
100
AcDbTextStyleTableRecord
  2
SLDTEXTSTYLE3
 70
     0
 40
0.0
 41
0.65625
 50
0.0
 71
     0
 42
0.2
  3
TXT
  4

  0
STYLE
  5
7C
330
3
100
AcDbSymbolTableRecord
100
AcDbTextStyleTableRecord
  2
SLDTEXTSTYLE4
 70
     0
 40
0.0
 41
0.6125
 50
0.0
 71
     0
 42
0.2
  3
TXT
  4

  0
STYLE
  5
7E
330
3
100
AcDbSymbolTableRecord
100
AcDbTextStyleTableRecord
  2
SLDTEXTSTYLE5
 70
     0
 40
0.0
 41
0.6453125
 50
0.0
 71
     0
 42
0.2
  3
TXT
  4

  0
STYLE
  5
80
330
3
100
AcDbSymbolTableRecord
100
AcDbTextStyleTableRecord
  2
SLDTEXTSTYLE6
 70
     0
 40
0.0
 41
0.632089552238806
 50
0.0
 71
     0
 42
0.2
  3
TXT
  4

  0
STYLE
  5
82
330
3
100
AcDbSymbolTableRecord
100
AcDbTextStyleTableRecord
  2
SLDTEXTSTYLE7
 70
     0
 40
0.0
 41
0.6433823529411767
 50
0.0
 71
     0
 42
0.2
  3
TXT
  4

  0
STYLE
  5
85
330
3
100
AcDbSymbolTableRecord
100
AcDbTextStyleTableRecord
  2
SLDTEXTSTYLE8
 70
     0
 40
0.0
 41
0.661111111111111
 50
0.0
 71
     0
 42
0.2
  3
TXT
  4

  0
STYLE
  5
98
330
3
100
AcDbSymbolTableRecord
100
AcDbTextStyleTableRecord
  2
SLDTEXTSTYLE9
 70
     0
 40
0.0
 41
0.5641216216216218
 50
0.0
 71
     0
 42
0.2
  3
TXT
  4

  0
STYLE
  5
9A
330
3
100
AcDbSymbolTableRecord
100
AcDbTextStyleTableRecord
  2
SLDTEXTSTYLE10
 70
     0
 40
0.0
 41
0.5731578947368421
 50
0.0
 71
     0
 42
0.2
  3
TXT
  4

  0
STYLE
  5
B9
330
3
100
AcDbSymbolTableRecord
100
AcDbTextStyleTableRecord
  2
SLDTEXTSTYLE11
 70
     0
 40
0.0
 41
0.605
 50
0.0
 71
     0
 42
0.2
  3
TXT
  4

  0
STYLE
  5
BB
330
3
100
AcDbSymbolTableRecord
100
AcDbTextStyleTableRecord
  2
SLDTEXTSTYLE12
 70
     0
 40
0.0
 41
0.5694117647058823
 50
0.0
 71
     0
 42
0.2
  3
TXT
  4

  0
STYLE
  5
C3
330
3
100
AcDbSymbolTableRecord
100
AcDbTextStyleTableRecord
  2
SLDTEXTSTYLE13
 70
     0
 40
0.0
 41
0.5761904761904761
 50
0.0
 71
     0
 42
0.2
  3
TXT
  4

  0
STYLE
  5
243
330
3
100
AcDbSymbolTableRecord
100
AcDbTextStyleTableRecord
  2
SLDTEXTSTYLE14
 70
     0
 40
0.0
 41
0.5596250000000001
 50
0.0
 71
     0
 42
0.2
  3
TXT
  4

  0
ENDTAB
  0
TABLE
  2
VIEW
  5
6
330
0
100
AcDbSymbolTable
 70
     0
  0
ENDTAB
  0
TABLE
  2
UCS
  5
7
330
0
100
AcDbSymbolTable
 70
     0
  0
ENDTAB
  0
TABLE
  2
APPID
  5
9
330
0
100
AcDbSymbolTable
 70
     3
  0
APPID
  5
12
330
9
100
AcDbSymbolTableRecord
100
AcDbRegAppTableRecord
  2
ACAD
 70
     0
  0
APPID
  5
278
330
9
100
AcDbSymbolTableRecord
100
AcDbRegAppTableRecord
  2
RT_RJH
 70
     0
  0
APPID
  5
5BA
330
9
100
AcDbSymbolTableRecord
100
AcDbRegAppTableRecord
  2
DCO15
 70
     0
  0
ENDTAB
  0
TABLE
  2
DIMSTYLE
  5
A
330
0
100
AcDbSymbolTable
 70
     4
100
AcDbDimStyleTable
 71
     4
340
27
340
10F
340
233
340
1DB
  0
DIMSTYLE
105
27
330
A
100
AcDbSymbolTableRecord
100
AcDbDimStyleTableRecord
  2
Standard
 70
     0
140
0.09
144
6.0
276
     2
277
     4
340
11
  0
DIMSTYLE
105
10F
330
A
100
AcDbSymbolTableRecord
100
AcDbDimStyleTableRecord
  2
SLDDIMSTYLE0
 70
     0
 41
0.156
 44
0.0
 78
    12
140
0.09100341796875
144
6.0
147
0.0227508544921875
173
     1
271
     3
272
     3
284
    12
340
B9
341
110
343
110
344
110
  0
DIMSTYLE
105
1DB
330
A
100
AcDbSymbolTableRecord
100
AcDbDimStyleTableRecord
  2
SLDDIMSTYLE1
 70
     0
 41
0.156
 44
0.0
 78
    12
140
0.09100341796875
144
6.0
147
0.0227508544921875
173
     1
179
     3
272
     3
284
    12
340
B9
341
110
343
110
344
110
  0
DIMSTYLE
105
233
330
A
100
AcDbSymbolTableRecord
100
AcDbDimStyleTableRecord
  2
SLDDIMSTYLE2
 70
     0
 41
0.156
 42
0.125
 44
0.0
 47
0.001
 48
0.001
 78
    12
140
0.09100341796875
144
2.0
147
0.0227508544921875
172
     1
173
     1
276
     2
277
     4
284
     8
340
B9
341
110
343
110
344
110
  0
ENDTAB
  0
TABLE
  2
BLOCK_RECORD
  5
1
330
0
100
AcDbSymbolTable
 70
    33
  0
BLOCK_RECORD
  5
1F
330
1
100
AcDbSymbolTableRecord
100
AcDbBlockTableRecord
  2
*Model_Space
340
22
  0
BLOCK_RECORD
  5
23
330
1
100
AcDbSymbolTableRecord
100
AcDbBlockTableRecord
  2
*Paper_Space
340
26
  0
BLOCK_RECORD
  5
1B
330
1
100
AcDbSymbolTableRecord
100
AcDbBlockTableRecord
  2
*Paper_Space0
340
1E
  0
BLOCK_RECORD
  5
71
330
1
100
AcDbSymbolTableRecord
100
AcDbBlockTableRecord
  2
SW_NOTE_0
340
0
1001
ACAD
1000
DesignCenter Data
1002
{
1070
     1
1070
     0
1002
}
  0
BLOCK_RECORD
  5
95
330
1
100
AcDbSymbolTableRecord
100
AcDbBlockTableRecord
  2
SW_NOTE_1
340
0
1001
ACAD
1000
DesignCenter Data
1002
{
1070
     1
1070
     0
1002
}
  0
BLOCK_RECORD
  5
B6
330
1
100
AcDbSymbolTableRecord
100
AcDbBlockTableRecord
  2
SW_NOTE_2
340
0
1001
ACAD
1000
DesignCenter Data
1002
{
1070
     1
1070
     0
1002
}
  0
BLOCK_RECORD
  5
110
330
1
100
AcDbSymbolTableRecord
100
AcDbBlockTableRecord
  2
_Closed
340
0
102
{BLKREFS
331
AE1
102
}
1001
ACAD
1000
DesignCenter Data
1002
{
1070
     1
1070
     0
1002
}
  0
BLOCK_RECORD
  5
23F
330
1
100
AcDbSymbolTableRecord
100
AcDbBlockTableRecord
  2
SW_NOTE_3
340
0
1001
ACAD
1000
DesignCenter Data
1002
{
1070
     1
1070
     0
1002
}
  0
BLOCK_RECORD
  5
25D
330
1
100
AcDbSymbolTableRecord
100
AcDbBlockTableRecord
  2
RT_DEFS$$
340
0
102
{BLKREFS
331
271
102
}
  0
BLOCK_RECORD
  5
260
330
1
100
AcDbSymbolTableRecord
100
AcDbBlockTableRecord
  2
RT_ANIM$$
340
0
102
{BLKREFS
331
272
102
}
  0
BLOCK_RECORD
  5
263
330
1
100
AcDbSymbolTableRecord
100
AcDbBlockTableRecord
  2
RT_BATCH$$
340
0
102
{BLKREFS
331
273
102
}
  0
BLOCK_RECORD
  5
266
330
1
100
AcDbSymbolTableRecord
100
AcDbBlockTableRecord
  2
RT_ACI$$
340
0
102
{BLKREFS
331
274
102
}
  0
BLOCK_RECORD
  5
269
330
1
100
AcDbSymbolTableRecord
100
AcDbBlockTableRecord
  2
REV
340
0
  0
BLOCK_RECORD
  5
4E1
330
1
100
AcDbSymbolTableRecord
100
AcDbBlockTableRecord
  2
SW_CENTERMARK0
340
0
  0
BLOCK_RECORD
  5
4E8
330
1
100
AcDbSymbolTableRecord
100
AcDbBlockTableRecord
  2
SW_CENTERMARK1
340
0
  0
BLOCK_RECORD
  5
5E5
330
1
100
AcDbSymbolTableRecord
100
AcDbBlockTableRecord
  2
*D13
340
0
  0
BLOCK_RECORD
  5
868
330
1
100
AcDbSymbolTableRecord
100
AcDbBlockTableRecord
  2
*D14
340
0
  0
BLOCK_RECORD
  5
876
330
1
100
AcDbSymbolTableRecord
100
AcDbBlockTableRecord
  2
*D15
340
0
  0
BLOCK_RECORD
  5
884
330
1
100
AcDbSymbolTableRecord
100
AcDbBlockTableRecord
  2
*D16
340
0
  0
BLOCK_RECORD
  5
8AA
330
1
100
AcDbSymbolTableRecord
100
AcDbBlockTableRecord
  2
*D17
340
0
  0
BLOCK_RECORD
  5
8B8
330
1
100
AcDbSymbolTableRecord
100
AcDbBlockTableRecord
  2
*D18
340
0
  0
BLOCK_RECORD
  5
8D2
330
1
100
AcDbSymbolTableRecord
100
AcDbBlockTableRecord
  2
*D19
340
0
  0
BLOCK_RECORD
  5
8E1
330
1
100
AcDbSymbolTableRecord
100
AcDbBlockTableRecord
  2
*D20
340
0
  0
BLOCK_RECORD
  5
923
330
1
100
AcDbSymbolTableRecord
100
AcDbBlockTableRecord
  2
*D21
340
0
  0
BLOCK_RECORD
  5
931
330
1
100
AcDbSymbolTableRecord
100
AcDbBlockTableRecord
  2
*D22
340
0
  0
BLOCK_RECORD
  5
94F
330
1
100
AcDbSymbolTableRecord
100
AcDbBlockTableRecord
  2
*D23
340
0
  0
BLOCK_RECORD
  5
95D
330
1
100
AcDbSymbolTableRecord
100
AcDbBlockTableRecord
  2
*D24
340
0
  0
BLOCK_RECORD
  5
96B
330
1
100
AcDbSymbolTableRecord
100
AcDbBlockTableRecord
  2
*D25
340
0
  0
BLOCK_RECORD
  5
979
330
1
100
AcDbSymbolTableRecord
100
AcDbBlockTableRecord
  2
*D26
340
0
  0
BLOCK_RECORD
  5
998
330
1
100
AcDbSymbolTableRecord
100
AcDbBlockTableRecord
  2
*D27
340
0
  0
BLOCK_RECORD
  5
9B7
330
1
100
AcDbSymbolTableRecord
100
AcDbBlockTableRecord
  2
*D28
340
0
  0
BLOCK_RECORD
  5
9EF
330
1
100
AcDbSymbolTableRecord
100
AcDbBlockTableRecord
  2
*D29
340
0
  0
BLOCK_RECORD
  5
A03
330
1
100
AcDbSymbolTableRecord
100
AcDbBlockTableRecord
  2
*D30
340
0
  0
BLOCK_RECORD
  5
A20
330
1
100
AcDbSymbolTableRecord
100
AcDbBlockTableRecord
  2
WELD43
340
0
  0
BLOCK_RECORD
  5
A85
330
1
100
AcDbSymbolTableRecord
100
AcDbBlockTableRecord
  2
*D32
340
0
  0
ENDTAB
  0
ENDSEC
  0
SECTION
  2
BLOCKS
  0
BLOCK
  5
20
330
1F
100
AcDbEntity
  8
0
100
AcDbBlockBegin
  2
*Model_Space
 70
     0
 10
0.0
 20
0.0
 30
0.0
  3
*Model_Space
  1

  0
ENDBLK
  5
21
330
1F
100
AcDbEntity
  8
0
100
AcDbBlockEnd
  0
BLOCK
  5
24
330
23
100
AcDbEntity
 67
     1
  8
0
100
AcDbBlockBegin
  2
*Paper_Space
 70
     0
 10
0.0
 20
0.0
 30
0.0
  3
*Paper_Space
  1

  0
ENDBLK
  5
25
330
23
100
AcDbEntity
 67
     1
  8
0
100
AcDbBlockEnd
  0
BLOCK
  5
1C
330
1B
100
AcDbEntity
  8
0
100
AcDbBlockBegin
  2
*Paper_Space0
 70
     0
 10
0.0
 20
0.0
 30
0.0
  3
*Paper_Space0
  1

  0
ENDBLK
  5
1D
330
1B
100
AcDbEntity
  8
0
100
AcDbBlockEnd
  0
BLOCK
  5
72
330
71
100
AcDbEntity
  8
0
100
AcDbBlockBegin
  2
SW_NOTE_0
 70
     0
 10
0.0
 20
0.0
 30
0.0
  3
SW_NOTE_0
  1

  0
MTEXT
  5
75
330
71
100
AcDbEntity
  8
OBJ
 62
     0
100
AcDbMText
 10
0.0
 20
0.1342778895595794
 30
0.0
 40
0.1041666666666667
 41
0.0
 71
     1
 72
     1
  1
ALL DIMENSIONS ARE 
  7
SLDTEXTSTYLE1
 73
     1
 44
1.0
1001
ACAD
1000
MTEXTBEGIN
1070
    73
1070
     1
1070
    44
1040
1.0
1070
    74
1070
     0
1000
MTEXTEND
  0
MTEXT
  5
77
102
{ACAD_XDICTIONARY
360
BCD
102
}
330
71
100
AcDbEntity
  8
OBJ
 62
     0
100
AcDbMText
 10
1.496045490888159
 20
0.1342778895595794
 30
0.0
 40
0.1041666666666667
 41
0.0
 71
     1
 72
     1
  1
\U+00B1
  7
SLDTEXTSTYLE2
 73
     1
 44
1.0
1001
ACAD
1000
MTEXTBEGIN
1070
    73
1070
     1
1070
    44
1040
1.0
1070
    74
1070
     0
1000
MTEXTEND
  0
MTEXT
  5
78
330
71
100
AcDbEntity
  8
OBJ
 62
     0
100
AcDbMText
 10
1.58921676123236
 20
0.1342778895595794
 30
0.0
 40
0.1041666666666667
 41
0.0
 71
     1
 72
     1
  1
1/32
  7
SLDTEXTSTYLE2
 73
     1
 44
1.0
1001
ACAD
1000
MTEXTBEGIN
1070
    73
1070
     1
1070
    44
1040
1.0
1070
    74
1070
     0
1000
MTEXTEND
  0
MTEXT
  5
7A
330
71
100
AcDbEntity
  8
OBJ
 62
     0
100
AcDbMText
 10
0.1219739242801516
 20
-0.00461099765081
 30
0.0
 40
0.1041666666666667
 41
0.0
 71
     1
 72
     1
  1
EXCEPT WHERE NOTED
  7
SLDTEXTSTYLE3
 73
     1
 44
1.0
1001
ACAD
1000
MTEXTBEGIN
1070
    73
1070
     1
1070
    44
1040
1.0
1070
    74
1070
     0
1000
MTEXTEND
  0
ENDBLK
  5
73
330
71
100
AcDbEntity
  8
0
100
AcDbBlockEnd
  0
BLOCK
  5
96
330
95
100
AcDbEntity
  8
0
100
AcDbBlockBegin
  2
SW_NOTE_1
 70
     0
 10
0.0
 20
0.0
 30
0.0
  3
SW_NOTE_1
  1

  0
MTEXT
  5
99
330
95
100
AcDbEntity
  8
OBJ
 62
     0
100
AcDbMText
 10
0.0
 20
0.1074223116476637
 30
0.0
 40
0.0833333333333333
 41
0.0
 71
     1
 72
     1
  1
703 ROGERS DRIVE, MONTGOMERY, MN. 56069
  7
SLDTEXTSTYLE9
 73
     1
 44
1.0
1001
ACAD
1000
MTEXTBEGIN
1070
    73
1070
     1
1070
    44
1040
1.0
1070
    74
1070
     0
1000
MTEXTEND
  0
MTEXT
  5
9B
330
95
100
AcDbEntity
  8
OBJ
 62
     0
100
AcDbMText
 10
2.642901335644908
 20
0.1074223116476637
 30
0.0
 40
0.0833333333333333
 41
0.0
 71
     1
 72
     1
  1
PHONE: (507) 364-7333
  7
SLDTEXTSTYLE10
 73
     1
 44
1.0
1001
ACAD
1000
MTEXTBEGIN
1070
    73
1070
     1
1070
    44
1040
1.0
1070
    74
1070
     0
1000
MTEXTEND
  0
ENDBLK
  5
97
330
95
100
AcDbEntity
  8
0
100
AcDbBlockEnd
  0
BLOCK
  5
B7
330
B6
100
AcDbEntity
  8
0
100
AcDbBlockBegin
  2
SW_NOTE_2
 70
     0
 10
0.0
 20
0.0
 30
0.0
  3
SW_NOTE_2
  1

  0
MTEXT
  5
BA
330
B6
100
AcDbEntity
  8
PAINT
 62
     0
100
AcDbMText
 10
0.0
 20
0.1208501006036214
 30
0.0
 40
0.09375
 41
0.0
 71
     1
 72
     1
  1
NOTE:
  7
SLDTEXTSTYLE11
 73
     1
 44
1.0
1001
ACAD
1000
MTEXTBEGIN
1070
    73
1070
     1
1070
    44
1040
1.0
1070
    74
1070
     0
1000
MTEXTEND
  0
MTEXT
  5
BC
330
B6
100
AcDbEntity
  8
PAINT
 62
     0
100
AcDbMText
 10
0.0
 20
-0.0041498978857291
 30
0.0
 40
0.09375
 41
0.0
 71
     1
 72
     1
  1
PAINT WITH PRIMER AFTER FABRICATION.
  7
SLDTEXTSTYLE12
 73
     1
 44
1.0
1001
ACAD
1000
MTEXTBEGIN
1070
    73
1070
     1
1070
    44
1040
1.0
1070
    74
1070
     0
1000
MTEXTEND
  0
ENDBLK
  5
B8
330
B6
100
AcDbEntity
  8
0
100
AcDbBlockEnd
  0
BLOCK
  5
111
330
110
100
AcDbEntity
  8
0
100
AcDbBlockBegin
  2
_Closed
 70
     0
 10
0.0
 20
0.0
 30
0.0
  3
_Closed
  1

  0
LINE
  5
113
330
110
100
AcDbEntity
  8
0
  6
ByBlock
 62
     0
370
    -2
100
AcDbLine
 10
-1.0
 20
0.166667
 30
0.0
 11
0.0
 21
0.0
 31
0.0
  0
LINE
  5
114
330
110
100
AcDbEntity
  8
0
  6
ByBlock
 62
     0
370
    -2
100
AcDbLine
 10
0.0
 20
0.0
 30
0.0
 11
-1.0
 21
-0.166667
 31
0.0
  0
LINE
  5
115
330
110
100
AcDbEntity
  8
0
  6
ByBlock
 62
     0
370
    -2
100
AcDbLine
 10
-1.0
 20
0.166667
 30
0.0
 11
-1.0
 21
-0.166667
 31
0.0
  0
LINE
  5
116
330
110
100
AcDbEntity
  8
0
  6
ByBlock
 62
     0
370
    -2
100
AcDbLine
 10
0.0
 20
0.0
 30
0.0
 11
-1.0
 21
0.0
 31
0.0
  0
ENDBLK
  5
112
330
110
100
AcDbEntity
  8
0
100
AcDbBlockEnd
  0
BLOCK
  5
240
330
23F
100
AcDbEntity
  8
0
100
AcDbBlockBegin
  2
SW_NOTE_3
 70
     0
 10
0.0
 20
0.0
 30
0.0
  3
SW_NOTE_3
  1

  0
MTEXT
  5
242
330
23F
100
AcDbEntity
  8
OBJ
 62
     0
100
AcDbMText
 10
0.0
 20
0.1208501006036214
 30
0.0
 40
0.09375
 41
0.0
 71
     1
 72
     1
  1
FLAT LAYOUT
  7
SLDTEXTSTYLE11
 73
     1
 44
1.0
1001
ACAD
1000
MTEXTBEGIN
1070
    73
1070
     1
1070
    44
1040
1.0
1070
    74
1070
     0
1000
MTEXTEND
  0
MTEXT
  5
244
330
23F
100
AcDbEntity
  8
OBJ
 62
     0
100
AcDbMText
 10
-0.3229165596403475
 20
-0.0041498978857293
 30
0.0
 40
0.09375
 41
0.0
 71
     1
 72
     1
  1
0.125 MIN. BEND RADIUS
  7
SLDTEXTSTYLE14
 73
     1
 44
1.0
1001
ACAD
1000
MTEXTBEGIN
1070
    73
1070
     1
1070
    44
1040
1.0
1070
    74
1070
     0
1000
MTEXTEND
  0
MTEXT
  5
245
330
23F
100
AcDbEntity
  8
OBJ
 62
     0
100
AcDbMText
 10
-0.3472220988606844
 20
-0.1291498963750801
 30
0.0
 40
0.09375
 41
0.0
 71
     1
 72
     1
  1
0.250 MAX. BEND RADIUS
  7
SLDTEXTSTYLE14
 73
     1
 44
1.0
1001
ACAD
1000
MTEXTBEGIN
1070
    73
1070
     1
1070
    44
1040
1.0
1070
    74
1070
     0
1000
MTEXTEND
  0
ENDBLK
  5
241
330
23F
100
AcDbEntity
  8
0
100
AcDbBlockEnd
  0
BLOCK
  5
25E
330
25D
100
AcDbEntity
  8
0
100
AcDbBlockBegin
  2
RT_DEFS$$
 70
     0
 10
0.0
 20
0.0
 30
0.0
  3
RT_DEFS$$
  1
RT_DEFS$$
  0
ENDBLK
  5
25F
330
25D
100
AcDbEntity
  8
0
100
AcDbBlockEnd
  0
BLOCK
  5
261
330
260
100
AcDbEntity
  8
0
100
AcDbBlockBegin
  2
RT_ANIM$$
 70
     0
 10
0.0
 20
0.0
 30
0.0
  3
RT_ANIM$$
  1
RT_ANIM$$
  0
ENDBLK
  5
262
330
260
100
AcDbEntity
  8
0
100
AcDbBlockEnd
  0
BLOCK
  5
264
330
263
100
AcDbEntity
  8
0
100
AcDbBlockBegin
  2
RT_BATCH$$
 70
     0
 10
0.0
 20
0.0
 30
0.0
  3
RT_BATCH$$
  1
RT_BATCH$$
  0
ENDBLK
  5
265
330
263
100
AcDbEntity
  8
0
100
AcDbBlockEnd
  0
BLOCK
  5
267
330
266
100
AcDbEntity
  8
0
100
AcDbBlockBegin
  2
RT_ACI$$
 70
     0
 10
0.0
 20
0.0
 30
0.0
  3
RT_ACI$$
  1
RT_ACI$$
  0
ENDBLK
  5
268
330
266
100
AcDbEntity
  8
0
100
AcDbBlockEnd
  0
BLOCK
  5
26A
330
269
100
AcDbEntity
  8
0
100
AcDbBlockBegin
  2
REV
 70
     2
 10
0.0
 20
0.0
 30
0.0
  3
REV
  1

  0
LINE
  5
26B
330
269
100
AcDbEntity
  8
BORDER
100
AcDbLine
 10
3.951999999996047
 20
0.1875
 30
0.0
 11
0.0
 21
0.1875
 31
0.0
  0
ATTDEF
  5
26C
330
269
100
AcDbEntity
  8
DIM
100
AcDbText
 10
0.1152342488971243
 20
0.0571441840226639
 30
0.0
 40
0.08203125
  1

 72
     1
 11
0.1152342488971243
 21
0.0571441840226639
 31
0.0
100
AcDbAttributeDefinition
  3
ENTER LETTER OF REVISION
  2
*
 70
     0
  0
ATTDEF
  5
26D
330
269
100
AcDbEntity
  8
DIM
100
AcDbText
 10
0.5502760874308166
 20
0.0560816150165158
 30
0.0
 40
0.08203125
  1

 72
     1
 11
0.5502760874308166
 21
0.0560816150165158
 31
0.0
100
AcDbAttributeDefinition
  3
ENTER DATE
  2
*
 70
     0
  0
ATTDEF
  5
26E
330
269
100
AcDbEntity
  8
DIM
100
AcDbText
 10
1.139136775932428
 20
0.0559108056767519
 30
0.0
 40
0.08203125
  1

 72
     1
 11
1.139136775932428
 21
0.0559108056767519
 31
0.0
100
AcDbAttributeDefinition
  3
ENTER ECO NUMBER
  2
*
 70
     0
  0
ATTDEF
  5
26F
330
269
100
AcDbEntity
  8
DIM
100
AcDbText
 10
1.545124068634819
 20
0.0580217110408627
 30
0.0
 40
0.08203125
  1

100
AcDbAttributeDefinition
  3
ENTER DESCRIPTION
  2
*
 70
     0
  0
ATTDEF
  5
270
330
269
100
AcDbEntity
  8
DIM
100
AcDbText
 10
3.732182445309141
 20
0.0577211241385456
 30
0.0
 40
0.08203125
  1

 72
     1
 11
3.732182445309141
 21
0.0577211241385456
 31
0.0
100
AcDbAttributeDefinition
  3
ENTER DONE BY
  2
*
 70
     0
  0
INSERT
  5
271
330
269
100
AcDbEntity
  8
0
100
AcDbBlockReference
  2
RT_DEFS$$
 10
-46.28844437138407
 20
6.567488776391058
 30
0.0
1001
RT_RJH
1002
{
1070
 10000
1002
}
  0
INSERT
  5
272
330
269
100
AcDbEntity
  8
0
100
AcDbBlockReference
  2
RT_ANIM$$
 10
-46.28844437138407
 20
6.567488776391058
 30
0.0
1001
RT_RJH
1002
{
1070
 10000
1002
}
  0
INSERT
  5
273
330
269
100
AcDbEntity
  8
0
100
AcDbBlockReference
  2
RT_BATCH$$
 10
-46.28844437138407
 20
6.567488776391058
 30
0.0
1001
RT_RJH
1002
{
1070
 10000
1002
}
  0
INSERT
  5
274
330
269
100
AcDbEntity
  8
0
100
AcDbBlockReference
  2
RT_ACI$$
 10
-46.28844437138407
 20
6.567488776391058
 30
0.0
1001
RT_RJH
1000

1000

1000

1000

1000

1000

1000

1000

1000

1000

1000

1000

1000

1000

1000

1000

1000

1000

1000

1000

1000

1000

1000

1000

1000

1000

1000

1000

1000

1000

1000

1000

1000

1000

1000

1000

1000

1000

1000

1000

1000

1000

1000

1000

1000

1000

1000

1000

1000

1000

1000

1000

1000

1000

1000

1000

1000

1000

1000

1000

1000

1000

1000

1000

1000

1000

1000

1000

1000

1000

1000

1000

1000

1000

1000

1000

1000

1000

1000

1000

1000

1000

1000

1000

1000

1000

1000

1000

1000

1000

1000

1000

1000

1000

1000

1000

1000

1000

1000

1000

1000

1000

1000

1000

1000

1000

1000

1000

1000

1000

1000

1000

1000

1000

1000

1000

1000

1000

1000

1000

1000

1000

1000

1000

1000

1000

1000

1000

1000

1000

1000

1000

1000

1000

1000

1000

1000

1000

1000

1000

1000

1000

1000

1000

1000

1000

1000

1000

1000

1000

1000

1000

1000

1000

1000

1000

1000

1000

1000

1000

1000

1000

1000

1000

1000

1000

1000

1000

1000

1000

1000

1000

1000

1000

1000

1000

1000

1000

1000

1000

1000

1000

1000

1000

1000

1000

1000

1000

1000

1000

1000

1000

1000

1000

1000

1000

1000

1000

1000

1000

1000

1000

1000

1000

1000

1000

1000

1000

1000

1000

1000

1000

1000

1000

1000

1000

1000

1000

1000

1000

1000

1000

1000

1000

1000

1000

1000

1000

1000

1000

1000

1000

1000

1000

1000

1000

1000

1000

1000

1000

1000

1000

1000

1000

1000

1000

1000

1000

1000

1000

1000

1000

1000

1000

1000

1000

1000

1000

1000

1000

1000

1000

1000

1000

1000

1000

1000

1000

1000

1000

1000

1000

1000

1000

1000

1000

1000

1000

1000

1000

1000

1000

1000

1000

1000

1000

1000

1000

1000

1000

1000

1000

1000

1000

1000

1000

1000

1000

1000

1000

1000

1000

1000

1000

1000

1000

1000

1000

1000

1000

1000

1000

1000

1000

1000

1000

1000

1000

1000

1000

1000

1000

1000

1000

1000

1000

1000

1000

1000

1000

1000

1000

1000

1000

1000

1000

1000

1000

1000

1000

1000

1000

1000

1000

1000

1000

1000

1000

1000

1000

1000

1000

1000

1000

1000

1000

1000

1000

1000

1000

1000

1000

1000

1000

1000

1000

1000

1000

1000

1000

1000

1000

1000

1000

1000

1000

1000

1000

1000

1000

1000

1000

1000

1000

1000

1000

1000

1000

1000

1000

1000

1000

1000

1000

1000

1000

1000

1000

1000

1000

1000

1000

1000

1000

1000

1000

1000

1000

1000

1000

1000

1000

1000

1000

1000

1000

1000

1000

1000

1000

1000

1000

1000

1000

1000

1000

1000

1000

1000

1000

1000

1000

1000

1000

1000

1000

1000

1000

1000

1000

1000

1000

1000

1000

1000

1000

1000

1000

1000

1000

1000

1000

1000

1000

1000

1000

1000

1000

1000

1000

1000

1000

1000

1000

1000

1000

1000

1000

1000

1000

1000

1000

1000

1000

1000

1000

1000

1000

1000

1000

1000

1000

1000

1000

1000

1000

1000

1000

1000

1000

1000

1000

1000

1000

1000

1000

1000

1000

1000

1000

1000

1000

1000

1000

1000

1000

1000

1000

1000

1000

  0
ENDBLK
  5
275
330
269
100
AcDbEntity
  8
0
100
AcDbBlockEnd
  0
BLOCK
  5
4E2
330
4E1
100
AcDbEntity
  8
0
 62
     0
100
AcDbBlockBegin
  2
SW_CENTERMARK0
 70
     0
 10
0.0
 20
0.0
 30
0.0
  3
SW_CENTERMARK0
  1

  0
LINE
  5
4E3
330
4E1
100
AcDbEntity
  8
0
  6
Continuous
 62
     7
100
AcDbLine
 10
5.619069239500567
 20
6.239249432463107
 30
0.0
 11
5.619069239500567
 21
6.289249432463106
 31
0.0
  0
LINE
  5
4E4
330
4E1
100
AcDbEntity
  8
0
  6
Continuous
 62
     7
100
AcDbLine
 10
5.619069239500567
 20
6.239249432463107
 30
0.0
 11
5.569069239500567
 21
6.239249432463107
 31
0.0
  0
LINE
  5
4E5
330
4E1
100
AcDbEntity
  8
0
  6
Continuous
 62
     7
100
AcDbLine
 10
5.619069239500567
 20
6.239249432463107
 30
0.0
 11
5.619069239500567
 21
6.189249432463108
 31
0.0
  0
LINE
  5
4E6
330
4E1
100
AcDbEntity
  8
0
  6
Continuous
 62
     7
100
AcDbLine
 10
5.619069239500567
 20
6.239249432463107
 30
0.0
 11
5.669069239500568
 21
6.239249432463107
 31
0.0
  0
ENDBLK
  5
4E7
330
4E1
100
AcDbEntity
  8
0
100
AcDbBlockEnd
  0
BLOCK
  5
4E9
330
4E8
100
AcDbEntity
  8
0
 62
     0
100
AcDbBlockBegin
  2
SW_CENTERMARK1
 70
     0
 10
0.0
 20
0.0
 30
0.0
  3
SW_CENTERMARK1
  1

  0
LINE
  5
4EA
330
4E8
100
AcDbEntity
  8
0
  6
Continuous
 62
     7
100
AcDbLine
 10
5.619069239500567
 20
6.395499432463108
 30
0.0
 11
5.619069239500567
 21
6.445499432463107
 31
0.0
  0
LINE
  5
4EB
330
4E8
100
AcDbEntity
  8
0
  6
Continuous
 62
     7
100
AcDbLine
 10
5.619069239500567
 20
6.395499432463108
 30
0.0
 11
5.569069239500567
 21
6.395499432463108
 31
0.0
  0
LINE
  5
4EC
330
4E8
100
AcDbEntity
  8
0
  6
Continuous
 62
     7
100
AcDbLine
 10
5.619069239500567
 20
6.395499432463108
 30
0.0
 11
5.619069239500567
 21
6.345499432463108
 31
0.0
  0
LINE
  5
4ED
330
4E8
100
AcDbEntity
  8
0
  6
Continuous
 62
     7
100
AcDbLine
 10
5.619069239500567
 20
6.395499432463108
 30
0.0
 11
5.669069239500568
 21
6.395499432463108
 31
0.0
  0
ENDBLK
  5
4EE
330
4E8
100
AcDbEntity
  8
0
100
AcDbBlockEnd
  0
BLOCK
  5
5EE
330
5E5
100
AcDbEntity
  8
0
100
AcDbBlockBegin
  2
*D13
 70
     1
 10
0.0
 20
0.0
 30
0.0
  3
*D13
  1

  0
LINE
  5
ADE
330
5E5
100
AcDbEntity
  8
OBJ
 62
   255
370
    -2
100
AcDbLine
 10
5.427337726089827
 20
3.04255308591165
 30
0.0
 11
5.583337726089827
 21
3.04255308591165
 31
0.0
  0
LINE
  5
ADF
330
5E5
100
AcDbEntity
  8
OBJ
 62
   255
370
    -2
100
AcDbLine
 10
5.583337726089827
 20
3.04255308591165
 30
0.0
 11
6.015407058175068
 21
3.96454979722189
 31
0.0
  0
MTEXT
  5
AE0
102
{ACAD_XDICTIONARY
360
BCF
102
}
330
5E5
100
AcDbEntity
  8
OBJ
 62
   255
100
AcDbMText
 10
4.743902057144515
 20
3.042553085911651
 30
0.0
 40
0.09100341796875
 41
0.0
 71
     5
 72
     1
  1
\A1;1-1/16"\U+00B11/32" x 1 1/4"\U+00B11/32"\PPUNCH SLOT
  7
SLDTEXTSTYLE11
 73
     1
 44
1.0
1001
ACAD
1000
MTEXTBEGIN
1070
    73
1070
     1
1070
    44
1040
1.0
1070
    74
1070
     0
1000
MTEXTEND
  0
INSERT
  5
AE1
330
5E5
100
AcDbEntity
  8
OBJ
 62
   255
370
    -2
100
AcDbBlockReference
  2
_Closed
 10
6.081604093130249
 20
4.105808257369033
 30
0.0
 41
0.156
 42
0.156
 43
0.156
 50
64.89110733132432
  0
LINE
  5
AE2
330
5E5
100
AcDbEntity
  8
OBJ
 62
     0
370
    -2
100
AcDbLine
 10
6.091058773050893
 20
4.318035511195868
 30
0.0
 11
6.271058773050893
 21
4.318035511195868
 31
0.0
  0
LINE
  5
AE3
330
5E5
100
AcDbEntity
  8
OBJ
 62
     0
370
    -2
100
AcDbLine
 10
6.181058773050893
 20
4.228035511195868
 30
0.0
 11
6.181058773050893
 21
4.408035511195868
 31
0.0
  0
POINT
  5
AE4
330
5E5
100
AcDbEntity
  8
Defpoints
 62
     0
100
AcDbPoint
 10
6.081604093130249
 20
4.105808257369033
 30
0.0
  0
POINT
  5
AE5
330
5E5
100
AcDbEntity
  8
Defpoints
 62
     0
100
AcDbPoint
 10
6.181058773050893
 20
4.318035511195868
 30
0.0
  0
ENDBLK
  5
5EF
330
5E5
100
AcDbEntity
  8
0
100
AcDbBlockEnd
  0
BLOCK
  5
873
330
868
100
AcDbEntity
  8
0
100
AcDbBlockBegin
  2
*D14
 70
     1
 10
0.0
 20
0.0
 30
0.0
  3
*D14
  1

  0
LINE
  5
869
330
868
100
AcDbEntity
  8
OBJ
 62
     0
370
    -2
100
AcDbLine
 10
1.694204010521215
 20
3.948393598971551
 30
0.0
 11
0.5906054385576909
 21
3.948393598971553
 31
0.0
  0
LINE
  5
86A
330
868
100
AcDbEntity
  8
OBJ
 62
     0
370
    -2
100
AcDbLine
 10
2.174405189929366
 20
6.469226949200691
 30
0.0
 11
0.5906054385576916
 21
6.469226949200692
 31
0.0
  0
LINE
  5
86B
330
868
100
AcDbEntity
  8
OBJ
 62
     0
370
    -2
100
AcDbLine
 10
0.7706054385576909
 20
4.128393598971553
 30
0.0
 11
0.7706054385576912
 21
5.073810274086121
 31
0.0
  0
LINE
  5
86C
330
868
100
AcDbEntity
  8
OBJ
 62
     0
370
    -2
100
AcDbLine
 10
0.7706054385576915
 20
6.289226949200692
 30
0.0
 11
0.7706054385576913
 21
5.343810274086122
 31
0.0
  0
SOLID
  5
86D
330
868
100
AcDbEntity
  8
OBJ
 62
     0
100
AcDbTrace
 10
0.740605438557691
 20
4.128393598971553
 30
0.0
 11
0.8006054385576909
 21
4.128393598971553
 31
0.0
 12
0.7706054385576909
 22
3.948393598971553
 32
0.0
 13
0.7706054385576909
 23
3.948393598971553
 33
0.0
  0
SOLID
  5
86E
330
868
100
AcDbEntity
  8
OBJ
 62
     0
100
AcDbTrace
 10
0.7406054385576915
 20
6.289226949200692
 30
0.0
 11
0.8006054385576915
 21
6.289226949200692
 31
0.0
 12
0.7706054385576915
 22
6.469226949200692
 32
0.0
 13
0.7706054385576915
 23
6.469226949200692
 33
0.0
  0
MTEXT
  5
86F
330
868
100
AcDbEntity
  8
OBJ
 62
     0
100
AcDbMText
 10
0.7706054385576904
 20
5.208810274086121
 30
0.0
 40
0.09
 41
0.0
 71
     5
 72
     1
  1
\A1;15 1/8
 73
     1
 44
1.0
1001
ACAD
1000
MTEXTBEGIN
1070
    73
1070
     1
1070
    44
1040
1.0
1070
    74
1070
     0
1000
MTEXTEND
  0
POINT
  5
870
330
868
100
AcDbEntity
  8
Defpoints
 62
     0
100
AcDbPoint
 10
1.756704010521215
 20
3.948393598971551
 30
0.0
  0
POINT
  5
871
330
868
100
AcDbEntity
  8
Defpoints
 62
     0
100
AcDbPoint
 10
2.236905189929365
 20
6.469226949200691
 30
0.0
  0
POINT
  5
872
330
868
100
AcDbEntity
  8
Defpoints
 62
     0
100
AcDbPoint
 10
0.7706054385576915
 20
6.469226949200692
 30
0.0
  0
ENDBLK
  5
874
330
868
100
AcDbEntity
  8
0
100
AcDbBlockEnd
  0
BLOCK
  5
881
330
876
100
AcDbEntity
  8
0
100
AcDbBlockBegin
  2
*D15
 70
     1
 10
0.0
 20
0.0
 30
0.0
  3
*D15
  1

  0
LINE
  5
877
330
876
100
AcDbEntity
  8
OBJ
 62
     0
370
    -2
100
AcDbLine
 10
2.73573129267742
 20
6.281726932304883
 30
0.0
 11
2.73573129267742
 21
7.386867021270012
 31
0.0
  0
LINE
  5
878
330
876
100
AcDbEntity
  8
OBJ
 62
     0
370
    -2
100
AcDbLine
 10
3.423091951509606
 20
7.908348975131713
 30
0.0
 11
3.423091951509606
 21
7.026867021270014
 31
0.0
  0
LINE
  5
879
330
876
100
AcDbEntity
  8
OBJ
 62
     0
370
    -2
100
AcDbLine
 10
2.555731292677421
 20
7.206867021270014
 30
0.0
 11
2.375731292677421
 21
7.206867021270014
 31
0.0
  0
LINE
  5
87A
330
876
100
AcDbEntity
  8
OBJ
 62
     0
370
    -2
100
AcDbLine
 10
3.603091951509606
 20
7.206867021270014
 30
0.0
 11
3.783091951509605
 21
7.206867021270014
 31
0.0
  0
SOLID
  5
87B
330
876
100
AcDbEntity
  8
OBJ
 62
     0
100
AcDbTrace
 10
2.555731292677421
 20
7.236867021270014
 30
0.0
 11
2.555731292677421
 21
7.176867021270012
 31
0.0
 12
2.73573129267742
 22
7.206867021270014
 32
0.0
 13
2.73573129267742
 23
7.206867021270014
 33
0.0
  0
SOLID
  5
87C
330
876
100
AcDbEntity
  8
OBJ
 62
     0
100
AcDbTrace
 10
3.603091951509606
 20
7.236867021270014
 30
0.0
 11
3.603091951509606
 21
7.176867021270012
 31
0.0
 12
3.423091951509606
 22
7.206867021270014
 32
0.0
 13
3.423091951509606
 23
7.206867021270014
 33
0.0
  0
MTEXT
  5
87D
330
876
100
AcDbEntity
  8
OBJ
 62
     0
100
AcDbMText
 10
3.079411622093513
 20
7.206867021270014
 30
0.0
 40
0.09
 41
0.0
 71
     5
 72
     1
  1
\A1;4 1/8
 73
     1
 44
1.0
1001
ACAD
1000
MTEXTBEGIN
1070
    73
1070
     1
1070
    44
1040
1.0
1070
    74
1070
     0
1000
MTEXTEND
  0
POINT
  5
87E
330
876
100
AcDbEntity
  8
Defpoints
 62
     0
100
AcDbPoint
 10
2.73573129267742
 20
6.219226932304883
 30
0.0
  0
POINT
  5
87F
330
876
100
AcDbEntity
  8
Defpoints
 62
     0
100
AcDbPoint
 10
3.423091951509606
 20
7.970848975131713
 30
0.0
  0
POINT
  5
880
330
876
100
AcDbEntity
  8
Defpoints
 62
     0
100
AcDbPoint
 10
3.423091951509606
 20
7.206867021270014
 30
0.0
  0
ENDBLK
  5
882
330
876
100
AcDbEntity
  8
0
100
AcDbBlockEnd
  0
BLOCK
  5
88F
330
884
100
AcDbEntity
  8
0
100
AcDbBlockBegin
  2
*D16
 70
     1
 10
0.0
 20
0.0
 30
0.0
  3
*D16
  1

  0
LINE
  5
891
330
884
100
AcDbEntity
  8
OBJ
 62
     0
370
    -2
100
AcDbLine
 10
2.652397958943049
 20
6.448393598971552
 30
0.0
 11
2.652397958943049
 21
7.008378646380331
 31
0.0
  0
LINE
  5
892
330
884
100
AcDbEntity
  8
OBJ
 62
     0
370
    -2
100
AcDbLine
 10
2.73573129267742
 20
6.281726932304883
 30
0.0
 11
2.73573129267742
 21
7.008378646380331
 31
0.0
  0
LINE
  5
893
330
884
100
AcDbEntity
  8
OBJ
 62
     0
370
    -2
100
AcDbLine
 10
2.915731292677421
 20
6.828378646380331
 30
0.0
 11
3.095731292677421
 21
6.828378646380331
 31
0.0
  0
LINE
  5
894
330
884
100
AcDbEntity
  8
OBJ
 62
     0
370
    -2
100
AcDbLine
 10
2.472397958943049
 20
6.828378646380331
 30
0.0
 11
2.29239795894305
 21
6.828378646380331
 31
0.0
  0
SOLID
  5
895
330
884
100
AcDbEntity
  8
OBJ
 62
     0
100
AcDbTrace
 10
2.915731292677421
 20
6.858378646380331
 30
0.0
 11
2.915731292677421
 21
6.798378646380331
 31
0.0
 12
2.73573129267742
 22
6.828378646380331
 32
0.0
 13
2.73573129267742
 23
6.828378646380331
 33
0.0
  0
SOLID
  5
896
330
884
100
AcDbEntity
  8
OBJ
 62
     0
100
AcDbTrace
 10
2.472397958943049
 20
6.858378646380331
 30
0.0
 11
2.472397958943049
 21
6.798378646380331
 31
0.0
 12
2.652397958943049
 22
6.828378646380331
 32
0.0
 13
2.652397958943049
 23
6.828378646380331
 33
0.0
  0
MTEXT
  5
897
330
884
100
AcDbEntity
  8
OBJ
 62
     0
100
AcDbMText
 10
2.097397958943051
 20
6.828378646380331
 30
0.0
 40
0.09
 41
0.0
 71
     5
 72
     1
  1
\A1;1/2
 73
     1
 44
1.0
1001
ACAD
1000
MTEXTBEGIN
1070
    73
1070
     1
1070
    44
1040
1.0
1070
    74
1070
     0
1000
MTEXTEND
  0
POINT
  5
898
330
884
100
AcDbEntity
  8
Defpoints
 62
     0
100
AcDbPoint
 10
2.652397958943049
 20
6.385893598971552
 30
0.0
  0
POINT
  5
899
330
884
100
AcDbEntity
  8
Defpoints
 62
     0
100
AcDbPoint
 10
2.73573129267742
 20
6.219226932304883
 30
0.0
  0
POINT
  5
89A
330
884
100
AcDbEntity
  8
Defpoints
 62
     0
100
AcDbPoint
 10
2.73573129267742
 20
6.828378646380331
 30
0.0
  0
ENDBLK
  5
890
330
884
100
AcDbEntity
  8
0
100
AcDbBlockEnd
  0
BLOCK
  5
8B5
330
8AA
100
AcDbEntity
  8
0
100
AcDbBlockBegin
  2
*D17
 70
     1
 10
0.0
 20
0.0
 30
0.0
  3
*D17
  1

  0
LINE
  5
8AB
330
8AA
100
AcDbEntity
  8
OBJ
 62
     0
370
    -2
100
AcDbLine
 10
1.756704010521215
 20
4.250476942395436
 30
0.0
 11
1.756704010521215
 21
7.876553341080707
 31
0.0
  0
LINE
  5
8AC
330
8AA
100
AcDbEntity
  8
OBJ
 62
     0
370
    -2
100
AcDbLine
 10
3.423091951509605
 20
4.250476942395436
 30
0.0
 11
3.423091951509606
 21
7.876553341080707
 31
0.0
  0
LINE
  5
8AD
330
8AA
100
AcDbEntity
  8
OBJ
 62
     0
370
    -2
100
AcDbLine
 10
1.936704010521215
 20
7.696553341080707
 30
0.0
 11
2.44739798101541
 21
7.696553341080707
 31
0.0
  0
LINE
  5
8AE
330
8AA
100
AcDbEntity
  8
OBJ
 62
     0
370
    -2
100
AcDbLine
 10
3.243091951509605
 20
7.696553341080707
 30
0.0
 11
2.73239798101541
 21
7.696553341080707
 31
0.0
  0
SOLID
  5
8AF
330
8AA
100
AcDbEntity
  8
OBJ
 62
     0
100
AcDbTrace
 10
1.936704010521215
 20
7.726553341080707
 30
0.0
 11
1.936704010521215
 21
7.666553341080707
 31
0.0
 12
1.756704010521215
 22
7.696553341080707
 32
0.0
 13
1.756704010521215
 23
7.696553341080707
 33
0.0
  0
SOLID
  5
8B0
330
8AA
100
AcDbEntity
  8
OBJ
 62
     0
100
AcDbTrace
 10
3.243091951509605
 20
7.726553341080707
 30
0.0
 11
3.243091951509605
 21
7.666553341080707
 31
0.0
 12
3.423091951509605
 22
7.696553341080707
 32
0.0
 13
3.423091951509605
 23
7.696553341080707
 33
0.0
  0
MTEXT
  5
8B1
330
8AA
100
AcDbEntity
  8
OBJ
 62
     0
100
AcDbMText
 10
2.589897981015409
 20
7.696553341080707
 30
0.0
 40
0.09
 41
0.0
 71
     5
 72
     1
  1
\A1;10
 73
     1
 44
1.0
1001
ACAD
1000
MTEXTBEGIN
1070
    73
1070
     1
1070
    44
1040
1.0
1070
    74
1070
     0
1000
MTEXTEND
  0
POINT
  5
8B2
330
8AA
100
AcDbEntity
  8
Defpoints
 62
     0
100
AcDbPoint
 10
1.756704010521215
 20
4.187976942395436
 30
0.0
  0
POINT
  5
8B3
330
8AA
100
AcDbEntity
  8
Defpoints
 62
     0
100
AcDbPoint
 10
3.423091951509605
 20
4.187976942395436
 30
0.0
  0
POINT
  5
8B4
330
8AA
100
AcDbEntity
  8
Defpoints
 62
     0
100
AcDbPoint
 10
3.423091951509605
 20
7.696553341080707
 30
0.0
  0
ENDBLK
  5
8B6
330
8AA
100
AcDbEntity
  8
0
100
AcDbBlockEnd
  0
BLOCK
  5
8C4
330
8B8
100
AcDbEntity
  8
0
100
AcDbBlockBegin
  2
*D18
 70
     1
 10
0.0
 20
0.0
 30
0.0
  3
*D18
  1

  0
LINE
  5
8C6
330
8B8
100
AcDbEntity
  8
OBJ
 62
     0
370
    -2
100
AcDbLine
 10
1.694204010521215
 20
3.948393598971551
 30
0.0
 11
1.125723392473231
 21
3.948393598971551
 31
0.0
  0
LINE
  5
8C7
330
8B8
100
AcDbEntity
  8
OBJ
 62
     0
370
    -2
100
AcDbLine
 10
1.694204010521215
 20
4.187976942395436
 30
0.0
 11
1.125723392473231
 21
4.187976942395436
 31
0.0
  0
LINE
  5
8C8
330
8B8
100
AcDbEntity
  8
OBJ
 62
     0
370
    -2
100
AcDbLine
 10
1.305723392473232
 20
4.367976942395435
 30
0.0
 11
1.305723392473232
 21
4.547976942395436
 31
0.0
  0
LINE
  5
8C9
330
8B8
100
AcDbEntity
  8
OBJ
 62
     0
370
    -2
100
AcDbLine
 10
1.305723392473232
 20
3.768393598971551
 30
0.0
 11
1.305723392473232
 21
3.588393598971553
 31
0.0
  0
LINE
  5
8CA
330
8B8
100
AcDbEntity
  8
OBJ
 62
     0
370
    -2
100
AcDbLine
 10
1.305723392473232
 20
3.588393598971553
 30
0.0
 11
1.125723392473231
 21
3.588393598971553
 31
0.0
  0
SOLID
  5
8CB
330
8B8
100
AcDbEntity
  8
OBJ
 62
     0
100
AcDbTrace
 10
1.275723392473232
 20
4.367976942395435
 30
0.0
 11
1.335723392473231
 21
4.367976942395435
 31
0.0
 12
1.305723392473232
 22
4.187976942395436
 32
0.0
 13
1.305723392473232
 23
4.187976942395436
 33
0.0
  0
SOLID
  5
8CC
330
8B8
100
AcDbEntity
  8
OBJ
 62
     0
100
AcDbTrace
 10
1.275723392473232
 20
3.768393598971551
 30
0.0
 11
1.335723392473231
 21
3.768393598971551
 31
0.0
 12
1.305723392473232
 22
3.948393598971551
 32
0.0
 13
1.305723392473232
 23
3.948393598971551
 33
0.0
  0
MTEXT
  5
8CD
330
8B8
100
AcDbEntity
  8
OBJ
 62
     0
100
AcDbMText
 10
0.8107233924732318
 20
3.588393598971553
 30
0.0
 40
0.09
 41
0.0
 71
     5
 72
     1
  1
\A1;1 7/16
 73
     1
 44
1.0
1001
ACAD
1000
MTEXTBEGIN
1070
    73
1070
     1
1070
    44
1040
1.0
1070
    74
1070
     0
1000
MTEXTEND
  0
POINT
  5
8CE
330
8B8
100
AcDbEntity
  8
Defpoints
 62
     0
100
AcDbPoint
 10
1.756704010521215
 20
3.948393598971551
 30
0.0
  0
POINT
  5
8CF
330
8B8
100
AcDbEntity
  8
Defpoints
 62
     0
100
AcDbPoint
 10
1.756704010521215
 20
4.187976942395436
 30
0.0
  0
POINT
  5
8D0
330
8B8
100
AcDbEntity
  8
Defpoints
 62
     0
100
AcDbPoint
 10
1.305723392473232
 20
4.187976942395436
 30
0.0
  0
ENDBLK
  5
8C5
330
8B8
100
AcDbEntity
  8
0
100
AcDbBlockEnd
  0
BLOCK
  5
8DE
330
8D2
100
AcDbEntity
  8
0
100
AcDbBlockBegin
  2
*D19
 70
     1
 10
0.0
 20
0.0
 30
0.0
  3
*D19
  1

  0
LINE
  5
8FA
330
8D2
100
AcDbEntity
  8
OBJ
 62
     0
370
    -2
100
AcDbLine
 10
2.381564625609716
 20
6.385893598971552
 30
0.0
 11
0.9246239792275943
 21
6.385893598971552
 31
0.0
  0
LINE
  5
8FB
330
8D2
100
AcDbEntity
  8
OBJ
 62
     0
370
    -2
100
AcDbLine
 10
2.174405189929366
 20
6.469226949200691
 30
0.0
 11
0.9246239792275943
 21
6.469226949200692
 31
0.0
  0
LINE
  5
8FC
330
8D2
100
AcDbEntity
  8
OBJ
 62
     0
370
    -2
100
AcDbLine
 10
1.104623979227594
 20
6.205893598971552
 30
0.0
 11
1.104623979227594
 21
6.025893598971553
 31
0.0
  0
LINE
  5
8FD
330
8D2
100
AcDbEntity
  8
OBJ
 62
     0
370
    -2
100
AcDbLine
 10
1.104623979227594
 20
6.649226949200691
 30
0.0
 11
1.104623979227594
 21
6.963740475938802
 31
0.0
  0
LINE
  5
8FE
330
8D2
100
AcDbEntity
  8
OBJ
 62
     0
370
    -2
100
AcDbLine
 10
1.104623979227594
 20
6.963740475938802
 30
0.0
 11
1.284623979227593
 21
6.963740475938802
 31
0.0
  0
SOLID
  5
8FF
330
8D2
100
AcDbEntity
  8
OBJ
 62
     0
100
AcDbTrace
 10
1.074623979227594
 20
6.205893598971552
 30
0.0
 11
1.134623979227594
 21
6.205893598971552
 31
0.0
 12
1.104623979227594
 22
6.385893598971552
 32
0.0
 13
1.104623979227594
 23
6.385893598971552
 33
0.0
  0
SOLID
  5
900
330
8D2
100
AcDbEntity
  8
OBJ
 62
     0
100
AcDbTrace
 10
1.074623979227594
 20
6.649226949200691
 30
0.0
 11
1.134623979227594
 21
6.649226949200691
 31
0.0
 12
1.104623979227594
 22
6.469226949200692
 32
0.0
 13
1.104623979227594
 23
6.469226949200692
 33
0.0
  0
MTEXT
  5
901
330
8D2
100
AcDbEntity
  8
OBJ
 62
     0
100
AcDbMText
 10
1.479623979227592
 20
6.963740475938802
 30
0.0
 40
0.09
 41
0.0
 71
     5
 72
     1
  1
\A1;1/2
 73
     1
 44
1.0
1001
ACAD
1000
MTEXTBEGIN
1070
    73
1070
     1
1070
    44
1040
1.0
1070
    74
1070
     0
1000
MTEXTEND
  0
POINT
  5
902
330
8D2
100
AcDbEntity
  8
Defpoints
 62
     0
100
AcDbPoint
 10
2.444064625609716
 20
6.385893598971552
 30
0.0
  0
POINT
  5
903
330
8D2
100
AcDbEntity
  8
Defpoints
 62
     0
100
AcDbPoint
 10
2.236905189929365
 20
6.469226949200691
 30
0.0
  0
POINT
  5
904
330
8D2
100
AcDbEntity
  8
Defpoints
 62
     0
100
AcDbPoint
 10
1.104623979227594
 20
6.469226949200692
 30
0.0
  0
ENDBLK
  5
8DF
330
8D2
100
AcDbEntity
  8
0
100
AcDbBlockEnd
  0
BLOCK
  5
8ED
330
8E1
100
AcDbEntity
  8
0
100
AcDbBlockBegin
  2
*D20
 70
     1
 10
0.0
 20
0.0
 30
0.0
  3
*D20
  1

  0
LINE
  5
8EF
330
8E1
100
AcDbEntity
  8
OBJ
 62
     0
370
    -2
100
AcDbLine
 10
2.464897959344087
 20
6.219226932304883
 30
0.0
 11
1.23633778253287
 21
6.219226932304886
 31
0.0
  0
LINE
  5
8F0
330
8E1
100
AcDbEntity
  8
OBJ
 62
     0
370
    -2
100
AcDbLine
 10
2.381564625609716
 20
6.385893598971552
 30
0.0
 11
1.23633778253287
 21
6.385893598971552
 31
0.0
  0
LINE
  5
8F1
330
8E1
100
AcDbEntity
  8
OBJ
 62
     0
370
    -2
100
AcDbLine
 10
1.41633778253287
 20
6.565893598971553
 30
0.0
 11
1.41633778253287
 21
6.745893598971552
 31
0.0
  0
LINE
  5
8F2
330
8E1
100
AcDbEntity
  8
OBJ
 62
     0
370
    -2
100
AcDbLine
 10
1.41633778253287
 20
6.039226932304886
 30
0.0
 11
1.41633778253287
 21
5.645351358815817
 31
0.0
  0
LINE
  5
8F3
330
8E1
100
AcDbEntity
  8
OBJ
 62
     0
370
    -2
100
AcDbLine
 10
1.41633778253287
 20
5.645351358815817
 30
0.0
 11
1.23633778253287
 21
5.645351358815817
 31
0.0
  0
SOLID
  5
8F4
330
8E1
100
AcDbEntity
  8
OBJ
 62
     0
100
AcDbTrace
 10
1.38633778253287
 20
6.565893598971553
 30
0.0
 11
1.44633778253287
 21
6.565893598971553
 31
0.0
 12
1.41633778253287
 22
6.385893598971552
 32
0.0
 13
1.41633778253287
 23
6.385893598971552
 33
0.0
  0
SOLID
  5
8F5
330
8E1
100
AcDbEntity
  8
OBJ
 62
     0
100
AcDbTrace
 10
1.38633778253287
 20
6.039226932304886
 30
0.0
 11
1.44633778253287
 21
6.039226932304886
 31
0.0
 12
1.41633778253287
 22
6.219226932304886
 32
0.0
 13
1.41633778253287
 23
6.219226932304886
 33
0.0
  0
MTEXT
  5
8F6
330
8E1
100
AcDbEntity
  8
OBJ
 62
     0
100
AcDbMText
 10
1.13133778253287
 20
5.645351358815817
 30
0.0
 40
0.09
 41
0.0
 71
     5
 72
     1
  1
\A1;1
 73
     1
 44
1.0
1001
ACAD
1000
MTEXTBEGIN
1070
    73
1070
     1
1070
    44
1040
1.0
1070
    74
1070
     0
1000
MTEXTEND
  0
POINT
  5
8F7
330
8E1
100
AcDbEntity
  8
Defpoints
 62
     0
100
AcDbPoint
 10
2.527397959344087
 20
6.219226932304883
 30
0.0
  0
POINT
  5
8F8
330
8E1
100
AcDbEntity
  8
Defpoints
 62
     0
100
AcDbPoint
 10
2.444064625609716
 20
6.385893598971552
 30
0.0
  0
POINT
  5
8F9
330
8E1
100
AcDbEntity
  8
Defpoints
 62
     0
100
AcDbPoint
 10
1.41633778253287
 20
6.385893598971552
 30
0.0
  0
ENDBLK
  5
8EE
330
8E1
100
AcDbEntity
  8
0
100
AcDbBlockEnd
  0
BLOCK
  5
92E
330
923
100
AcDbEntity
  8
0
100
AcDbBlockBegin
  2
*D21
 70
     1
 10
0.0
 20
0.0
 30
0.0
  3
*D21
  1

  0
LINE
  5
924
330
923
100
AcDbEntity
  8
OBJ
 62
     0
370
    -2
100
AcDbLine
 10
2.339950966110448
 20
3.885893598971553
 30
0.0
 11
2.339950966110448
 21
3.502221139997166
 31
0.0
  0
LINE
  5
925
330
923
100
AcDbEntity
  8
OBJ
 62
     0
370
    -2
100
AcDbLine
 10
2.839844952256897
 20
3.885893598971551
 30
0.0
 11
2.839844952256897
 21
3.502221139997166
 31
0.0
  0
LINE
  5
926
330
923
100
AcDbEntity
  8
OBJ
 62
     0
370
    -2
100
AcDbLine
 10
2.159950966110448
 20
3.682221139997166
 30
0.0
 11
1.979950966110448
 21
3.682221139997166
 31
0.0
  0
LINE
  5
927
330
923
100
AcDbEntity
  8
OBJ
 62
     0
370
    -2
100
AcDbLine
 10
3.019844952256897
 20
3.682221139997166
 30
0.0
 11
3.199844952256897
 21
3.682221139997166
 31
0.0
  0
SOLID
  5
928
330
923
100
AcDbEntity
  8
OBJ
 62
     0
100
AcDbTrace
 10
2.159950966110448
 20
3.712221139997167
 30
0.0
 11
2.159950966110448
 21
3.652221139997168
 31
0.0
 12
2.339950966110448
 22
3.682221139997166
 32
0.0
 13
2.339950966110448
 23
3.682221139997166
 33
0.0
  0
SOLID
  5
929
330
923
100
AcDbEntity
  8
OBJ
 62
     0
100
AcDbTrace
 10
3.019844952256897
 20
3.712221139997167
 30
0.0
 11
3.019844952256897
 21
3.652221139997168
 31
0.0
 12
2.839844952256897
 22
3.682221139997166
 32
0.0
 13
2.839844952256897
 23
3.682221139997166
 33
0.0
  0
MTEXT
  5
92A
330
923
100
AcDbEntity
  8
OBJ
 62
     0
100
AcDbMText
 10
2.589897959183673
 20
3.682221139997166
 30
0.0
 40
0.09
 41
0.0
 71
     5
 72
     1
  1
\A1;3
 73
     1
 44
1.0
1001
ACAD
1000
MTEXTBEGIN
1070
    73
1070
     1
1070
    44
1040
1.0
1070
    74
1070
     0
1000
MTEXTEND
  0
POINT
  5
92B
330
923
100
AcDbEntity
  8
Defpoints
 62
     0
100
AcDbPoint
 10
2.339950966110448
 20
3.948393598971553
 30
0.0
  0
POINT
  5
92C
330
923
100
AcDbEntity
  8
Defpoints
 62
     0
100
AcDbPoint
 10
2.839844952256897
 20
3.948393598971551
 30
0.0
  0
POINT
  5
92D
330
923
100
AcDbEntity
  8
Defpoints
 62
     0
100
AcDbPoint
 10
2.839844952256897
 20
3.682221139997166
 30
0.0
  0
ENDBLK
  5
92F
330
923
100
AcDbEntity
  8
0
100
AcDbBlockEnd
  0
BLOCK
  5
93C
330
931
100
AcDbEntity
  8
0
100
AcDbBlockBegin
  2
*D22
 70
     1
 10
0.0
 20
0.0
 30
0.0
  3
*D22
  1

  0
LINE
  5
932
330
931
100
AcDbEntity
  8
OBJ
 62
     0
370
    -2
100
AcDbLine
 10
1.756704010521215
 20
3.885893598971551
 30
0.0
 11
1.756704010521215
 21
3.115873521916462
 31
0.0
  0
LINE
  5
933
330
931
100
AcDbEntity
  8
OBJ
 62
     0
370
    -2
100
AcDbLine
 10
2.339950966110448
 20
3.885893598971553
 30
0.0
 11
2.339950966110448
 21
3.115873521916462
 31
0.0
  0
LINE
  5
934
330
931
100
AcDbEntity
  8
OBJ
 62
     0
370
    -2
100
AcDbLine
 10
1.576704010521215
 20
3.295873521916462
 30
0.0
 11
1.396704010521215
 21
3.295873521916462
 31
0.0
  0
LINE
  5
935
330
931
100
AcDbEntity
  8
OBJ
 62
     0
370
    -2
100
AcDbLine
 10
2.519950966110449
 20
3.295873521916462
 30
0.0
 11
2.699950966110449
 21
3.295873521916462
 31
0.0
  0
SOLID
  5
936
330
931
100
AcDbEntity
  8
OBJ
 62
     0
100
AcDbTrace
 10
1.576704010521215
 20
3.325873521916462
 30
0.0
 11
1.576704010521215
 21
3.265873521916462
 31
0.0
 12
1.756704010521215
 22
3.295873521916462
 32
0.0
 13
1.756704010521215
 23
3.295873521916462
 33
0.0
  0
SOLID
  5
937
330
931
100
AcDbEntity
  8
OBJ
 62
     0
100
AcDbTrace
 10
2.519950966110449
 20
3.325873521916462
 30
0.0
 11
2.519950966110449
 21
3.265873521916462
 31
0.0
 12
2.339950966110448
 22
3.295873521916462
 32
0.0
 13
2.339950966110448
 23
3.295873521916462
 33
0.0
  0
MTEXT
  5
938
330
931
100
AcDbEntity
  8
OBJ
 62
     0
100
AcDbMText
 10
2.048327488315831
 20
3.295873521916462
 30
0.0
 40
0.09
 41
0.0
 71
     5
 72
     1
  1
\A1;3 1/2
 73
     1
 44
1.0
1001
ACAD
1000
MTEXTBEGIN
1070
    73
1070
     1
1070
    44
1040
1.0
1070
    74
1070
     0
1000
MTEXTEND
  0
POINT
  5
939
330
931
100
AcDbEntity
  8
Defpoints
 62
     0
100
AcDbPoint
 10
1.756704010521215
 20
3.948393598971551
 30
0.0
  0
POINT
  5
93A
330
931
100
AcDbEntity
  8
Defpoints
 62
     0
100
AcDbPoint
 10
2.339950966110448
 20
3.948393598971553
 30
0.0
  0
POINT
  5
93B
330
931
100
AcDbEntity
  8
Defpoints
 62
     0
100
AcDbPoint
 10
2.339950966110448
 20
3.295873521916462
 30
0.0
  0
ENDBLK
  5
93D
330
931
100
AcDbEntity
  8
0
100
AcDbBlockEnd
  0
BLOCK
  5
95A
330
94F
100
AcDbEntity
  8
0
100
AcDbBlockBegin
  2
*D23
 70
     1
 10
0.0
 20
0.0
 30
0.0
  3
*D23
  1

  0
LINE
  5
950
330
94F
100
AcDbEntity
  8
OBJ
 62
     0
370
    -2
100
AcDbLine
 10
5.493558763781666
 20
5.068035520465096
 30
0.0
 11
4.643978000956219
 21
5.068035520465096
 31
0.0
  0
LINE
  5
951
330
94F
100
AcDbEntity
  8
OBJ
 62
     0
370
    -2
100
AcDbLine
 10
5.368558763781666
 20
3.443035501926643
 30
0.0
 11
4.643978000956219
 21
3.443035501926643
 31
0.0
  0
LINE
  5
952
330
94F
100
AcDbEntity
  8
OBJ
 62
     0
370
    -2
100
AcDbLine
 10
4.823978000956219
 20
4.888035520465097
 30
0.0
 11
4.823978000956219
 21
4.39053551119587
 31
0.0
  0
LINE
  5
953
330
94F
100
AcDbEntity
  8
OBJ
 62
     0
370
    -2
100
AcDbLine
 10
4.823978000956219
 20
3.623035501926644
 30
0.0
 11
4.823978000956219
 21
4.120535511195869
 31
0.0
  0
SOLID
  5
954
330
94F
100
AcDbEntity
  8
OBJ
 62
     0
100
AcDbTrace
 10
4.793978000956219
 20
4.888035520465097
 30
0.0
 11
4.853978000956219
 21
4.888035520465097
 31
0.0
 12
4.823978000956219
 22
5.068035520465096
 32
0.0
 13
4.823978000956219
 23
5.068035520465096
 33
0.0
  0
SOLID
  5
955
330
94F
100
AcDbEntity
  8
OBJ
 62
     0
100
AcDbTrace
 10
4.793978000956219
 20
3.623035501926644
 30
0.0
 11
4.853978000956219
 21
3.623035501926644
 31
0.0
 12
4.823978000956219
 22
3.443035501926643
 32
0.0
 13
4.823978000956219
 23
3.443035501926643
 33
0.0
  0
MTEXT
  5
956
330
94F
100
AcDbEntity
  8
OBJ
 62
     0
100
AcDbMText
 10
4.823978000956218
 20
4.255535511195871
 30
0.0
 40
0.09
 41
0.0
 71
     5
 72
     1
  1
\A1;3 1/4
 73
     1
 44
1.0
1001
ACAD
1000
MTEXTBEGIN
1070
    73
1070
     1
1070
    44
1040
1.0
1070
    74
1070
     0
1000
MTEXTEND
  0
POINT
  5
957
330
94F
100
AcDbEntity
  8
Defpoints
 62
     0
100
AcDbPoint
 10
5.556058763781666
 20
5.068035520465096
 30
0.0
  0
POINT
  5
958
330
94F
100
AcDbEntity
  8
Defpoints
 62
     0
100
AcDbPoint
 10
5.431058763781666
 20
3.443035501926643
 30
0.0
  0
POINT
  5
959
330
94F
100
AcDbEntity
  8
Defpoints
 62
     0
100
AcDbPoint
 10
4.823978000956219
 20
3.443035501926643
 30
0.0
  0
ENDBLK
  5
95B
330
94F
100
AcDbEntity
  8
0
100
AcDbBlockEnd
  0
BLOCK
  5
968
330
95D
100
AcDbEntity
  8
0
100
AcDbBlockBegin
  2
*D24
 70
     1
 10
0.0
 20
0.0
 30
0.0
  3
*D24
  1

  0
LINE
  5
A5B
330
95D
100
AcDbEntity
  8
OBJ
 62
     0
370
    -2
100
AcDbLine
 10
6.181058773050892
 20
4.536735511195869
 30
0.0
 11
6.181058773050892
 21
5.429616192551129
 31
0.0
  0
LINE
  5
A5C
330
95D
100
AcDbEntity
  8
OBJ
 62
     0
370
    -2
100
AcDbLine
 10
5.431058763781666
 20
5.005535520465096
 30
0.0
 11
5.431058763781666
 21
5.429616192551129
 31
0.0
  0
LINE
  5
A5D
330
95D
100
AcDbEntity
  8
OBJ
 62
     0
370
    -2
100
AcDbLine
 10
6.001058773050892
 20
5.24961619255113
 30
0.0
 11
5.611058763781667
 21
5.24961619255113
 31
0.0
  0
LINE
  5
A5E
330
95D
100
AcDbEntity
  8
OBJ
 62
     0
370
    -2
100
AcDbLine
 10
5.431058763781666
 20
5.24961619255113
 30
0.0
 11
5.251058763781666
 21
5.24961619255113
 31
0.0
  0
SOLID
  5
A5F
330
95D
100
AcDbEntity
  8
OBJ
 62
     0
100
AcDbTrace
 10
6.001058773050892
 20
5.27961619255113
 30
0.0
 11
6.001058773050892
 21
5.219616192551129
 31
0.0
 12
6.181058773050892
 22
5.24961619255113
 32
0.0
 13
6.181058773050892
 23
5.24961619255113
 33
0.0
  0
SOLID
  5
A60
330
95D
100
AcDbEntity
  8
OBJ
 62
     0
100
AcDbTrace
 10
5.611058763781667
 20
5.27961619255113
 30
0.0
 11
5.611058763781667
 21
5.219616192551129
 31
0.0
 12
5.431058763781666
 22
5.24961619255113
 32
0.0
 13
5.431058763781666
 23
5.24961619255113
 33
0.0
  0
MTEXT
  5
A61
330
95D
100
AcDbEntity
  8
OBJ
 62
     0
100
AcDbMText
 10
4.981058763781666
 20
5.24961619255113
 30
0.0
 40
0.09
 41
0.0
 71
     5
 72
     1
  1
\A1;1 1/2
 73
     1
 44
1.0
1001
ACAD
1000
MTEXTBEGIN
1070
    73
1070
     1
1070
    44
1040
1.0
1070
    74
1070
     0
1000
MTEXTEND
  0
POINT
  5
A62
330
95D
100
AcDbEntity
  8
Defpoints
 62
     0
100
AcDbPoint
 10
6.181058773050892
 20
4.474235511195869
 30
0.0
  0
POINT
  5
A63
330
95D
100
AcDbEntity
  8
Defpoints
 62
     0
100
AcDbPoint
 10
5.431058763781666
 20
4.943035520465096
 30
0.0
  0
POINT
  5
A64
330
95D
100
AcDbEntity
  8
Defpoints
 62
     0
100
AcDbPoint
 10
5.431058763781666
 20
5.24961619255113
 30
0.0
  0
ENDBLK
  5
969
330
95D
100
AcDbEntity
  8
0
100
AcDbBlockEnd
  0
BLOCK
  5
976
330
96B
100
AcDbEntity
  8
0
100
AcDbBlockBegin
  2
*D25
 70
     1
 10
0.0
 20
0.0
 30
0.0
  3
*D25
  1

  0
LINE
  5
A6F
330
96B
100
AcDbEntity
  8
OBJ
 62
     0
370
    -2
100
AcDbLine
 10
6.931058782320119
 20
5.005535520465096
 30
0.0
 11
6.931058782320119
 21
5.694280936333985
 31
0.0
  0
LINE
  5
A70
330
96B
100
AcDbEntity
  8
OBJ
 62
     0
370
    -2
100
AcDbLine
 10
5.431058763781668
 20
5.005535520465096
 30
0.0
 11
5.431058763781668
 21
5.694280936333985
 31
0.0
  0
LINE
  5
A71
330
96B
100
AcDbEntity
  8
OBJ
 62
     0
370
    -2
100
AcDbLine
 10
6.75105878232012
 20
5.514280936333985
 30
0.0
 11
6.301058773050892
 21
5.514280936333985
 31
0.0
  0
LINE
  5
A72
330
96B
100
AcDbEntity
  8
OBJ
 62
     0
370
    -2
100
AcDbLine
 10
5.611058763781668
 20
5.514280936333985
 30
0.0
 11
6.061058773050892
 21
5.514280936333985
 31
0.0
  0
SOLID
  5
A73
330
96B
100
AcDbEntity
  8
OBJ
 62
     0
100
AcDbTrace
 10
6.75105878232012
 20
5.544280936333985
 30
0.0
 11
6.75105878232012
 21
5.484280936333985
 31
0.0
 12
6.931058782320119
 22
5.514280936333985
 32
0.0
 13
6.931058782320119
 23
5.514280936333985
 33
0.0
  0
SOLID
  5
A74
330
96B
100
AcDbEntity
  8
OBJ
 62
     0
100
AcDbTrace
 10
5.611058763781668
 20
5.544280936333985
 30
0.0
 11
5.611058763781668
 21
5.484280936333985
 31
0.0
 12
5.431058763781668
 22
5.514280936333985
 32
0.0
 13
5.431058763781668
 23
5.514280936333985
 33
0.0
  0
MTEXT
  5
A75
330
96B
100
AcDbEntity
  8
OBJ
 62
     0
100
AcDbMText
 10
6.181058773050892
 20
5.514280936333985
 30
0.0
 40
0.09
 41
0.0
 71
     5
 72
     1
  1
\A1;3
 73
     1
 44
1.0
1001
ACAD
1000
MTEXTBEGIN
1070
    73
1070
     1
1070
    44
1040
1.0
1070
    74
1070
     0
1000
MTEXTEND
  0
POINT
  5
A76
330
96B
100
AcDbEntity
  8
Defpoints
 62
     0
100
AcDbPoint
 10
6.931058782320119
 20
4.943035520465096
 30
0.0
  0
POINT
  5
A77
330
96B
100
AcDbEntity
  8
Defpoints
 62
     0
100
AcDbPoint
 10
5.431058763781668
 20
4.943035520465096
 30
0.0
  0
POINT
  5
A78
330
96B
100
AcDbEntity
  8
Defpoints
 62
     0
100
AcDbPoint
 10
5.431058763781668
 20
5.514280936333985
 30
0.0
  0
ENDBLK
  5
977
330
96B
100
AcDbEntity
  8
0
100
AcDbBlockEnd
  0
BLOCK
  5
984
330
979
100
AcDbEntity
  8
0
100
AcDbBlockBegin
  2
*D26
 70
     1
 10
0.0
 20
0.0
 30
0.0
  3
*D26
  1

  0
LINE
  5
97A
330
979
100
AcDbEntity
  8
OBJ
 62
     0
370
    -2
100
AcDbLine
 10
6.243558773050892
 20
4.708610511195869
 30
0.0
 11
7.64815348214979
 21
4.708610511195869
 31
0.0
  0
LINE
  5
97B
330
979
100
AcDbEntity
  8
OBJ
 62
     0
370
    -2
100
AcDbLine
 10
6.868558782320119
 20
5.068035520465096
 30
0.0
 11
7.64815348214979
 21
5.068035520465096
 31
0.0
  0
LINE
  5
97C
330
979
100
AcDbEntity
  8
OBJ
 62
     0
370
    -2
100
AcDbLine
 10
7.46815348214979
 20
4.52861051119587
 30
0.0
 11
7.46815348214979
 21
4.34861051119587
 31
0.0
  0
LINE
  5
97D
330
979
100
AcDbEntity
  8
OBJ
 62
     0
370
    -2
100
AcDbLine
 10
7.46815348214979
 20
5.248035520465096
 30
0.0
 11
7.46815348214979
 21
5.428035520465096
 31
0.0
  0
SOLID
  5
97E
330
979
100
AcDbEntity
  8
OBJ
 62
     0
100
AcDbTrace
 10
7.43815348214979
 20
4.52861051119587
 30
0.0
 11
7.49815348214979
 21
4.52861051119587
 31
0.0
 12
7.46815348214979
 22
4.708610511195869
 32
0.0
 13
7.46815348214979
 23
4.708610511195869
 33
0.0
  0
SOLID
  5
97F
330
979
100
AcDbEntity
  8
OBJ
 62
     0
100
AcDbTrace
 10
7.43815348214979
 20
5.248035520465096
 30
0.0
 11
7.49815348214979
 21
5.248035520465096
 31
0.0
 12
7.46815348214979
 22
5.068035520465096
 32
0.0
 13
7.46815348214979
 23
5.068035520465096
 33
0.0
  0
MTEXT
  5
980
330
979
100
AcDbEntity
  8
OBJ
 62
     0
100
AcDbMText
 10
7.46815348214979
 20
4.888323015830483
 30
0.0
 40
0.09
 41
0.0
 71
     5
 72
     1
  1
\A1;3/4
 73
     1
 44
1.0
1001
ACAD
1000
MTEXTBEGIN
1070
    73
1070
     1
1070
    44
1040
1.0
1070
    74
1070
     0
1000
MTEXTEND
  0
POINT
  5
981
330
979
100
AcDbEntity
  8
Defpoints
 62
     0
100
AcDbPoint
 10
6.181058773050892
 20
4.708610511195869
 30
0.0
  0
POINT
  5
982
330
979
100
AcDbEntity
  8
Defpoints
 62
     0
100
AcDbPoint
 10
6.806058782320119
 20
5.068035520465096
 30
0.0
  0
POINT
  5
983
330
979
100
AcDbEntity
  8
Defpoints
 62
     0
100
AcDbPoint
 10
7.46815348214979
 20
5.068035520465096
 30
0.0
  0
ENDBLK
  5
985
330
979
100
AcDbEntity
  8
0
100
AcDbBlockEnd
  0
BLOCK
  5
9A3
330
998
100
AcDbEntity
  8
0
100
AcDbBlockBegin
  2
*D27
 70
     1
 10
0.0
 20
0.0
 30
0.0
  3
*D27
  1

  0
LINE
  5
999
330
998
100
AcDbEntity
  8
OBJ
 62
     0
370
    -2
100
AcDbLine
 10
6.576020405073523
 20
9.710676888760126
 30
0.0
 11
6.576020405073523
 21
9.350252691166748
 31
0.0
  0
LINE
  5
99A
330
998
100
AcDbEntity
  8
OBJ
 62
     0
370
    -2
100
AcDbLine
 10
7.076020411253007
 20
9.710676888760126
 30
0.0
 11
7.076020411253007
 21
9.350252691166748
 31
0.0
  0
LINE
  5
99B
330
998
100
AcDbEntity
  8
OBJ
 62
     0
370
    -2
100
AcDbLine
 10
6.396020405073523
 20
9.530252691166747
 30
0.0
 11
6.216020405073523
 21
9.530252691166747
 31
0.0
  0
LINE
  5
99C
330
998
100
AcDbEntity
  8
OBJ
 62
     0
370
    -2
100
AcDbLine
 10
7.256020411253008
 20
9.530252691166747
 30
0.0
 11
7.436020411253007
 21
9.530252691166747
 31
0.0
  0
SOLID
  5
99D
330
998
100
AcDbEntity
  8
OBJ
 62
     0
100
AcDbTrace
 10
6.396020405073523
 20
9.560252691166747
 30
0.0
 11
6.396020405073523
 21
9.500252691166748
 31
0.0
 12
6.576020405073523
 22
9.530252691166747
 32
0.0
 13
6.576020405073523
 23
9.530252691166747
 33
0.0
  0
SOLID
  5
99E
330
998
100
AcDbEntity
  8
OBJ
 62
     0
100
AcDbTrace
 10
7.256020411253008
 20
9.560252691166747
 30
0.0
 11
7.256020411253008
 21
9.500252691166748
 31
0.0
 12
7.076020411253007
 22
9.530252691166747
 32
0.0
 13
7.076020411253007
 23
9.530252691166747
 33
0.0
  0
MTEXT
  5
99F
330
998
100
AcDbEntity
  8
OBJ
 62
     0
100
AcDbMText
 10
6.826020408163266
 20
9.530252691166747
 30
0.0
 40
0.09
 41
0.0
 71
     5
 72
     1
  1
\A1;3
 73
     1
 44
1.0
1001
ACAD
1000
MTEXTBEGIN
1070
    73
1070
     1
1070
    44
1040
1.0
1070
    74
1070
     0
1000
MTEXTEND
  0
POINT
  5
9A0
330
998
100
AcDbEntity
  8
Defpoints
 62
     0
100
AcDbPoint
 10
6.576020405073523
 20
9.773176888760126
 30
0.0
  0
POINT
  5
9A1
330
998
100
AcDbEntity
  8
Defpoints
 62
     0
100
AcDbPoint
 10
7.076020411253007
 20
9.773176888760126
 30
0.0
  0
POINT
  5
9A2
330
998
100
AcDbEntity
  8
Defpoints
 62
     0
100
AcDbPoint
 10
7.076020411253007
 20
9.530252691166747
 30
0.0
  0
ENDBLK
  5
9A4
330
998
100
AcDbEntity
  8
0
100
AcDbBlockEnd
  0
BLOCK
  5
9C3
330
9B7
100
AcDbEntity
  8
0
100
AcDbBlockBegin
  2
*D28
 70
     1
 10
0.0
 20
0.0
 30
0.0
  3
*D28
  1

  0
LINE
  5
B9E
330
9B7
100
AcDbEntity
  8
OBJ
 62
     0
370
    -2
100
AcDbLine
 10
17.84093406293117
 20
10.3564768949396
 30
0.0
 11
17.4708844849077
 21
10.3564768949396
 31
0.0
  0
LINE
  5
B9F
330
9B7
100
AcDbEntity
  8
OBJ
 62
     0
370
    -2
100
AcDbLine
 10
17.84093406420774
 20
9.773176888760126
 30
0.0
 11
17.4708844849077
 21
9.773176888760126
 31
0.0
  0
LINE
  5
BA0
330
9B7
100
AcDbEntity
  8
OBJ
 62
     0
370
    -2
100
AcDbLine
 10
17.6508844849077
 20
10.1764768949396
 30
0.0
 11
17.6508844849077
 21
9.953176888760122
 31
0.0
  0
LINE
  5
BA1
330
9B7
100
AcDbEntity
  8
OBJ
 62
     0
370
    -2
100
AcDbLine
 10
17.6508844849077
 20
9.773176888760126
 30
0.0
 11
17.6508844849077
 21
9.593176888760126
 31
0.0
  0
LINE
  5
BA2
330
9B7
100
AcDbEntity
  8
OBJ
 62
     0
370
    -2
100
AcDbLine
 10
17.6508844849077
 20
9.593176888760126
 30
0.0
 11
17.4708844849077
 21
9.593176888760126
 31
0.0
  0
SOLID
  5
BA3
330
9B7
100
AcDbEntity
  8
OBJ
 62
     0
100
AcDbTrace
 10
17.6208844849077
 20
10.1764768949396
 30
0.0
 11
17.68088448490769
 21
10.1764768949396
 31
0.0
 12
17.6508844849077
 22
10.3564768949396
 32
0.0
 13
17.6508844849077
 23
10.3564768949396
 33
0.0
  0
SOLID
  5
BA4
330
9B7
100
AcDbEntity
  8
OBJ
 62
     0
100
AcDbTrace
 10
17.6208844849077
 20
9.953176888760122
 30
0.0
 11
17.68088448490769
 21
9.953176888760122
 31
0.0
 12
17.6508844849077
 22
9.773176888760126
 32
0.0
 13
17.6508844849077
 23
9.773176888760126
 33
0.0
  0
MTEXT
  5
BA5
330
9B7
100
AcDbEntity
  8
OBJ
 62
     0
100
AcDbMText
 10
17.1858844849077
 20
9.593176888760126
 30
0.0
 40
0.09
 41
0.0
 71
     5
 72
     1
  1
\A1;3 1/2
 73
     1
 44
1.0
1001
ACAD
1000
MTEXTBEGIN
1070
    73
1070
     1
1070
    44
1040
1.0
1070
    74
1070
     0
1000
MTEXTEND
  0
POINT
  5
BA6
330
9B7
100
AcDbEntity
  8
Defpoints
 62
     0
100
AcDbPoint
 10
17.90343406293117
 20
10.3564768949396
 30
0.0
  0
POINT
  5
BA7
330
9B7
100
AcDbEntity
  8
Defpoints
 62
     0
100
AcDbPoint
 10
17.90343406420775
 20
9.773176888760126
 30
0.0
  0
POINT
  5
BA8
330
9B7
100
AcDbEntity
  8
Defpoints
 62
     0
100
AcDbPoint
 10
17.6508844849077
 20
9.773176888760126
 30
0.0
  0
ENDBLK
  5
9C4
330
9B7
100
AcDbEntity
  8
0
100
AcDbBlockEnd
  0
BLOCK
  5
9FA
330
9EF
100
AcDbEntity
  8
0
100
AcDbBlockBegin
  2
*D29
 70
     1
 10
0.0
 20
0.0
 30
0.0
  3
*D29
  1

  0
LINE
  5
A3D
330
9EF
100
AcDbEntity
  8
OBJ
 62
     0
370
    -2
100
AcDbLine
 10
4.776652356544103
 20
6.567542517006804
 30
0.0
 11
4.024007425610771
 21
6.567542517006804
 31
0.0
  0
LINE
  5
A3E
330
9EF
100
AcDbEntity
  8
OBJ
 62
     0
370
    -2
100
AcDbLine
 10
4.776652356544103
 20
9.088375867235942
 30
0.0
 11
4.024007425610771
 21
9.088375867235942
 31
0.0
  0
LINE
  5
A3F
330
9EF
100
AcDbEntity
  8
OBJ
 62
     0
370
    -2
100
AcDbLine
 10
4.204007425610771
 20
6.747542517006804
 30
0.0
 11
4.204007425610771
 21
7.692959192121374
 31
0.0
  0
LINE
  5
A40
330
9EF
100
AcDbEntity
  8
OBJ
 62
     0
370
    -2
100
AcDbLine
 10
4.204007425610771
 20
8.908375867235942
 30
0.0
 11
4.204007425610771
 21
7.962959192121374
 31
0.0
  0
SOLID
  5
A41
330
9EF
100
AcDbEntity
  8
OBJ
 62
     0
100
AcDbTrace
 10
4.174007425610771
 20
6.747542517006804
 30
0.0
 11
4.234007425610771
 21
6.747542517006804
 31
0.0
 12
4.204007425610771
 22
6.567542517006804
 32
0.0
 13
4.204007425610771
 23
6.567542517006804
 33
0.0
  0
SOLID
  5
A42
330
9EF
100
AcDbEntity
  8
OBJ
 62
     0
100
AcDbTrace
 10
4.174007425610771
 20
8.908375867235942
 30
0.0
 11
4.234007425610771
 21
8.908375867235942
 31
0.0
 12
4.204007425610771
 22
9.088375867235942
 32
0.0
 13
4.204007425610771
 23
9.088375867235942
 33
0.0
  0
MTEXT
  5
A43
330
9EF
100
AcDbEntity
  8
OBJ
 62
     0
100
AcDbMText
 10
4.204007425610771
 20
7.827959192121375
 30
0.0
 40
0.09
 41
0.0
 71
     5
 72
     1
  1
\A1;15 1/8
 73
     1
 44
1.0
1001
ACAD
1000
MTEXTBEGIN
1070
    73
1070
     1
1070
    44
1040
1.0
1070
    74
1070
     0
1000
MTEXTEND
  0
POINT
  5
A44
330
9EF
100
AcDbEntity
  8
Defpoints
 62
     0
100
AcDbPoint
 10
4.839152356544103
 20
6.567542517006804
 30
0.0
  0
POINT
  5
A45
330
9EF
100
AcDbEntity
  8
Defpoints
 62
     0
100
AcDbPoint
 10
4.839152356544103
 20
9.088375867235942
 30
0.0
  0
POINT
  5
A46
330
9EF
100
AcDbEntity
  8
Defpoints
 62
     0
100
AcDbPoint
 10
4.204007425610771
 20
9.088375867235942
 30
0.0
  0
ENDBLK
  5
9FB
330
9EF
100
AcDbEntity
  8
0
100
AcDbBlockEnd
  0
BLOCK
  5
A0E
330
A03
100
AcDbEntity
  8
0
100
AcDbBlockBegin
  2
*D30
 70
     1
 10
0.0
 20
0.0
 30
0.0
  3
*D30
  1

  0
LINE
  5
A33
330
A03
100
AcDbEntity
  8
OBJ
 62
     0
370
    -2
100
AcDbLine
 10
4.861656417662122
 20
6.505042517006805
 30
0.0
 11
4.861656417662122
 21
6.087934202421251
 31
0.0
  0
LINE
  5
A34
330
A03
100
AcDbEntity
  8
OBJ
 62
     0
370
    -2
100
AcDbLine
 10
5.444952362940554
 20
6.505042517006805
 30
0.0
 11
5.444952362940554
 21
6.087934202421251
 31
0.0
  0
LINE
  5
A35
330
A03
100
AcDbEntity
  8
OBJ
 62
     0
370
    -2
100
AcDbLine
 10
4.681656417662122
 20
6.267934202421251
 30
0.0
 11
4.501656417662123
 21
6.267934202421251
 31
0.0
  0
LINE
  5
A36
330
A03
100
AcDbEntity
  8
OBJ
 62
     0
370
    -2
100
AcDbLine
 10
5.624952362940554
 20
6.267934202421251
 30
0.0
 11
5.804952362940555
 21
6.267934202421251
 31
0.0
  0
SOLID
  5
A37
330
A03
100
AcDbEntity
  8
OBJ
 62
     0
100
AcDbTrace
 10
4.681656417662122
 20
6.297934202421251
 30
0.0
 11
4.681656417662122
 21
6.237934202421251
 31
0.0
 12
4.861656417662122
 22
6.267934202421251
 32
0.0
 13
4.861656417662122
 23
6.267934202421251
 33
0.0
  0
SOLID
  5
A38
330
A03
100
AcDbEntity
  8
OBJ
 62
     0
100
AcDbTrace
 10
5.624952362940554
 20
6.297934202421251
 30
0.0
 11
5.624952362940554
 21
6.237934202421251
 31
0.0
 12
5.444952362940554
 22
6.267934202421251
 32
0.0
 13
5.444952362940554
 23
6.267934202421251
 33
0.0
  0
MTEXT
  5
A39
330
A03
100
AcDbEntity
  8
OBJ
 62
     0
100
AcDbMText
 10
5.15330439030134
 20
6.267934202421251
 30
0.0
 40
0.09
 41
0.0
 71
     5
 72
     1
  1
\A1;3 1/2
 73
     1
 44
1.0
1001
ACAD
1000
MTEXTBEGIN
1070
    73
1070
     1
1070
    44
1040
1.0
1070
    74
1070
     0
1000
MTEXTEND
  0
POINT
  5
A3A
330
A03
100
AcDbEntity
  8
Defpoints
 62
     0
100
AcDbPoint
 10
4.861656417662122
 20
6.567542517006805
 30
0.0
  0
POINT
  5
A3B
330
A03
100
AcDbEntity
  8
Defpoints
 62
     0
100
AcDbPoint
 10
5.444952362940554
 20
6.567542517006805
 30
0.0
  0
POINT
  5
A3C
330
A03
100
AcDbEntity
  8
Defpoints
 62
     0
100
AcDbPoint
 10
5.444952362940554
 20
6.267934202421251
 30
0.0
  0
ENDBLK
  5
A0F
330
A03
100
AcDbEntity
  8
0
100
AcDbBlockEnd
  0
BLOCK
  5
A21
330
A20
100
AcDbEntity
  8
0
 62
     0
100
AcDbBlockBegin
  2
WELD43
 70
     0
 10
0.0
 20
0.0
 30
0.0
  3
WELD43
  1

  0
LINE
  5
A22
330
A20
100
AcDbEntity
  8
OBJ
100
AcDbLine
 10
-0.6207675177304969
 20
-0.000101281991042
 30
0.0
 11
-0.6207675177304969
 21
-0.2095871650350989
 31
-0.0000000000000015
  0
LINE
  5
A23
330
A20
100
AcDbEntity
  8
OBJ
100
AcDbLine
 10
-0.6207675177304969
 20
-0.2095871650350989
 30
-0.0000000000000015
 11
-0.41128163468644
 21
-0.000101281991042
 31
0.0
  0
LINE
  5
A24
330
A20
100
AcDbEntity
  8
OBJ
100
AcDbLine
 10
-0.41128163468644
 20
-0.000101281991042
 30
0.0
 11
-0.6207675177304969
 21
-0.000101281991042
 31
0.0
  0
MTEXT
  5
A25
330
A20
100
AcDbEntity
  8
OBJ
100
AcDbMText
 10
-1.090575177304964
 20
-0.0572887403732651
 30
0.0
 40
0.125
 41
0.0
 71
     1
 72
     5
  1
3/16
  7
SLDTEXTSTYLE0
 73
     1
 44
1.0
1001
ACAD
1000
MTEXTBEGIN
1070
    73
1070
     1
1070
    44
1040
1.0
1070
    74
1070
     0
1000
MTEXTEND
  0
MTEXT
  5
A26
330
A20
100
AcDbEntity
  8
OBJ
100
AcDbMText
 10
-1.572200749520071
 20
0.0641164859218326
 30
0.0
 40
0.125
 41
0.0
 71
     1
 72
     5
  1
(3)
  7
SLDTEXTSTYLE0
 73
     1
 44
1.0
1001
ACAD
1000
MTEXTBEGIN
1070
    73
1070
     1
1070
    44
1040
1.0
1070
    74
1070
     0
1000
MTEXTEND
  0
LINE
  5
A27
330
A20
100
AcDbEntity
  8
OBJ
100
AcDbLine
 10
0.0
 20
0.0
 30
0.0
 11
-1.0
 21
0.0
 31
0.0
  0
LINE
  5
A28
330
A20
100
AcDbEntity
  8
OBJ
100
AcDbLine
 10
-1.19999429590725
 20
0.1999942959072502
 30
0.0
 11
-1.0
 21
0.0
 31
0.0
  0
LINE
  5
A29
330
A20
100
AcDbEntity
  8
OBJ
100
AcDbLine
 10
-1.19999429590725
 20
-0.1999942959072502
 30
0.0
 11
-1.0
 21
0.0
 31
0.0
  0
ENDBLK
  5
A2A
330
A20
100
AcDbEntity
  8
0
100
AcDbBlockEnd
  0
BLOCK
  5
A91
330
A85
100
AcDbEntity
  8
0
100
AcDbBlockBegin
  2
*D32
 70
     1
 10
0.0
 20
0.0
 30
0.0
  3
*D32
  1

  0
LINE
  5
A86
330
A85
100
AcDbEntity
  8
OBJ
 62
     0
370
    -2
100
AcDbLine
 10
7.138520411253005
 20
6.630042517006805
 30
0.0
 11
7.624720236331857
 21
6.630042517006805
 31
0.0
  0
LINE
  5
A87
330
A85
100
AcDbEntity
  8
OBJ
 62
     0
370
    -2
100
AcDbLine
 10
7.161020406886692
 20
6.567542517006805
 30
0.0
 11
7.624720236331857
 21
6.567542517006805
 31
0.0
  0
LINE
  5
A88
330
A85
100
AcDbEntity
  8
OBJ
 62
     0
370
    -2
100
AcDbLine
 10
7.444720236331857
 20
6.810042517006806
 30
0.0
 11
7.444720236331857
 21
6.990042517006807
 31
0.0
  0
LINE
  5
A89
330
A85
100
AcDbEntity
  8
OBJ
 62
     0
370
    -2
100
AcDbLine
 10
7.444720236331857
 20
6.387542517006806
 30
0.0
 11
7.444720236331857
 21
6.207542517006806
 31
0.0
  0
LINE
  5
A8A
330
A85
100
AcDbEntity
  8
OBJ
 62
     0
370
    -2
100
AcDbLine
 10
7.444720236331857
 20
6.207542517006806
 30
0.0
 11
7.264720236331857
 21
6.207542517006806
 31
0.0
  0
SOLID
  5
A8B
330
A85
100
AcDbEntity
  8
OBJ
 62
     0
100
AcDbTrace
 10
7.414720236331857
 20
6.810042517006806
 30
0.0
 11
7.474720236331857
 21
6.810042517006806
 31
0.0
 12
7.444720236331857
 22
6.630042517006805
 32
0.0
 13
7.444720236331857
 23
6.630042517006805
 33
0.0
  0
SOLID
  5
A8C
330
A85
100
AcDbEntity
  8
OBJ
 62
     0
100
AcDbTrace
 10
7.414720236331857
 20
6.387542517006806
 30
0.0
 11
7.474720236331857
 21
6.387542517006806
 31
0.0
 12
7.444720236331857
 22
6.567542517006805
 32
0.0
 13
7.444720236331857
 23
6.567542517006805
 33
0.0
  0
MTEXT
  5
A8D
330
A85
100
AcDbEntity
  8
OBJ
 62
     0
100
AcDbMText
 10
7.054720236331855
 20
6.207542517006807
 30
0.0
 40
0.09
 41
0.0
 71
     5
 72
     1
  1
\A1;3/8
 73
     1
 44
1.0
1001
ACAD
1000
MTEXTBEGIN
1070
    73
1070
     1
1070
    44
1040
1.0
1070
    74
1070
     0
1000
MTEXTEND
  0
POINT
  5
A8E
330
A85
100
AcDbEntity
  8
Defpoints
 62
     0
100
AcDbPoint
 10
7.076020411253005
 20
6.630042517006805
 30
0.0
  0
POINT
  5
A8F
330
A85
100
AcDbEntity
  8
Defpoints
 62
     0
100
AcDbPoint
 10
7.098520406886692
 20
6.567542517006805
 30
0.0
  0
POINT
  5
A90
330
A85
100
AcDbEntity
  8
Defpoints
 62
     0
100
AcDbPoint
 10
7.444720236331857
 20
6.567542517006805
 30
0.0
  0
ENDBLK
  5
A92
330
A85
100
AcDbEntity
  8
0
100
AcDbBlockEnd
  0
ENDSEC
  0
SECTION
  2
ENTITIES
  0
LINE
  5
C7
330
1F
100
AcDbEntity
  8
0
  6
Continuous
 62
     7
370
    15
100
AcDbLine
 10
2.634861807966376
 20
0.8135421591649636
 30
0.0
 11
2.616168689887814
 21
0.8135421591649636
 31
0.0
  0
LINE
  5
C8
330
1F
100
AcDbEntity
  8
0
  6
Continuous
 62
     7
370
    15
100
AcDbLine
 10
2.616168689887814
 20
0.8135421591649636
 30
0.0
 11
2.616168689887814
 21
2.67961539571197
 31
0.0
  0
LINE
  5
C9
330
1F
100
AcDbEntity
  8
0
  6
Continuous
 62
     7
370
    15
100
AcDbLine
 10
2.634861807966376
 20
0.8135421591649636
 30
0.0
 11
2.634861807966376
 21
2.67961539571197
 31
0.0
  0
LINE
  5
CA
330
1F
100
AcDbEntity
  8
0
  6
Continuous
 62
     7
370
    15
100
AcDbLine
 10
3.050264517680723
 20
0.8135421591649636
 30
0.0
 11
3.050264517680723
 21
0.614495021503574
 31
0.0
  0
LINE
  5
CB
330
1F
100
AcDbEntity
  8
0
  6
Continuous
 62
     7
370
    15
100
AcDbLine
 10
3.050264517680723
 20
0.8135421591649636
 30
0.0
 11
3.068957635759281
 21
0.8135421591649636
 31
0.0
  0
LINE
  5
CC
330
1F
100
AcDbEntity
  8
0
  6
Continuous
 62
     7
370
    15
100
AcDbLine
 10
3.068957635759281
 20
0.8135421591649636
 30
0.0
 11
3.068957635759281
 21
0.614495021503574
 31
0.0
  0
LINE
  5
CF
330
1F
100
AcDbEntity
  8
0
  6
Continuous
 62
     7
370
    15
100
AcDbLine
 10
2.616168689887814
 20
0.8135421591649636
 30
0.0
 11
2.616168689887814
 21
0.614495021503574
 31
0.0
  0
LINE
  5
D0
330
1F
100
AcDbEntity
  8
0
  6
Continuous
 62
     7
370
    15
100
AcDbLine
 10
2.634861807966376
 20
0.8135421591649636
 30
0.0
 11
2.634861807966376
 21
0.614495021503574
 31
0.0
  0
LINE
  5
D1
330
1F
100
AcDbEntity
  8
0
  6
Continuous
 62
     7
370
    15
100
AcDbLine
 10
3.050264517680723
 20
2.67961539571197
 30
0.0
 11
3.050264517680723
 21
0.8135421591649636
 31
0.0
  0
LINE
  5
D2
330
1F
100
AcDbEntity
  8
0
  6
Continuous
 62
     7
370
    15
100
AcDbLine
 10
3.068957635759281
 20
2.67961539571197
 30
0.0
 11
3.068957635759281
 21
0.8135421591649636
 31
0.0
  0
LINE
  5
D3
330
1F
100
AcDbEntity
  8
0
  6
Continuous
 62
     7
370
    15
100
AcDbLine
 10
2.616168689887814
 20
2.708817004466872
 30
0.0
 11
2.634861807966376
 21
2.708817004466872
 31
0.0
  0
LINE
  5
D4
330
1F
100
AcDbEntity
  8
0
  6
Continuous
 62
     7
370
    15
100
AcDbLine
 10
2.616168689887814
 20
2.67961539571197
 30
0.0
 11
2.616168689887814
 21
2.708817004466872
 31
0.0
  0
LINE
  5
D5
330
1F
100
AcDbEntity
  8
0
  6
Continuous
 62
     7
370
    15
100
AcDbLine
 10
2.634861807966376
 20
2.708817004466872
 30
0.0
 11
2.634861807966376
 21
2.67961539571197
 31
0.0
  0
LINE
  5
D6
330
1F
100
AcDbEntity
  8
0
  6
Continuous
 62
     7
370
    15
100
AcDbLine
 10
3.050264517680723
 20
2.708817004466872
 30
0.0
 11
3.068957635759281
 21
2.708817004466872
 31
0.0
  0
LINE
  5
D7
330
1F
100
AcDbEntity
  8
0
  6
Continuous
 62
     7
370
    15
100
AcDbLine
 10
3.068957635759281
 20
2.708817004466872
 30
0.0
 11
3.068957635759281
 21
2.67961539571197
 31
0.0
  0
LINE
  5
D8
330
1F
100
AcDbEntity
  8
0
  6
Continuous
 62
     7
370
    15
100
AcDbLine
 10
3.050264517680723
 20
2.67961539571197
 30
0.0
 11
3.050264517680723
 21
2.708817004466872
 31
0.0
  0
LINE
  5
DA
330
1F
100
AcDbEntity
  8
0
  6
Continuous
 62
     7
370
    15
100
AcDbLine
 10
2.652170262666285
 20
2.708817004466872
 30
0.0
 11
2.634861807966376
 21
2.708817004466872
 31
0.0
  0
LINE
  5
DE
330
1F
100
AcDbEntity
  8
0
  6
Continuous
 62
     7
370
    15
100
AcDbLine
 10
3.050264517680723
 20
2.708817004466872
 30
0.0
 11
3.032956062980815
 21
2.708817004466872
 31
0.0
  0
CIRCLE
  5
DF
330
1F
100
AcDbEntity
  8
0
  6
Continuous
 62
     7
370
    15
100
AcDbCircle
 10
2.790637824884274
 20
1.116439956204885
 30
0.0
 40
0.0194546933311821
  0
CIRCLE
  5
E0
330
1F
100
AcDbEntity
  8
0
  6
Continuous
 62
     7
370
    15
100
AcDbCircle
 10
2.790637824884274
 20
1.393375092591818
 30
0.0
 40
0.0194546933311821
  0
CIRCLE
  5
E1
330
1F
100
AcDbEntity
  8
0
  6
Continuous
 62
     7
370
    15
100
AcDbCircle
 10
2.790637824884274
 20
1.67031022897875
 30
0.0
 40
0.0194546933311821
  0
CIRCLE
  5
E2
330
1F
100
AcDbEntity
  8
0
  6
Continuous
 62
     7
370
    15
100
AcDbCircle
 10
2.790637824884274
 20
1.947245365365682
 30
0.0
 40
0.0194546933311821
  0
CIRCLE
  5
E3
330
1F
100
AcDbEntity
  8
0
  6
Continuous
 62
     7
370
    15
100
AcDbCircle
 10
2.963722285126106
 20
1.116439956204885
 30
0.0
 40
0.0194546933311814
  0
CIRCLE
  5
E4
330
1F
100
AcDbEntity
  8
0
  6
Continuous
 62
     7
370
    15
100
AcDbCircle
 10
2.963722285126106
 20
1.393375092591818
 30
0.0
 40
0.0194546933311814
  0
CIRCLE
  5
E5
330
1F
100
AcDbEntity
  8
0
  6
Continuous
 62
     7
370
    15
100
AcDbCircle
 10
2.963722285126106
 20
1.67031022897875
 30
0.0
 40
0.0194546933311814
  0
CIRCLE
  5
E6
330
1F
100
AcDbEntity
  8
0
  6
Continuous
 62
     7
370
    15
100
AcDbCircle
 10
2.963722285126106
 20
1.947245365365682
 30
0.0
 40
0.0194546933311814
  0
CIRCLE
  5
E7
330
1F
100
AcDbEntity
  8
0
  6
Continuous
 62
     7
370
    15
100
AcDbCircle
 10
2.721404040454356
 20
1.254907524398352
 30
0.0
 40
0.0194546933311814
  0
CIRCLE
  5
E8
330
1F
100
AcDbEntity
  8
0
  6
Continuous
 62
     7
370
    15
100
AcDbCircle
 10
2.721404040454356
 20
1.531842660785283
 30
0.0
 40
0.0194546933311814
  0
CIRCLE
  5
E9
330
1F
100
AcDbEntity
  8
0
  6
Continuous
 62
     7
370
    15
100
AcDbCircle
 10
2.721404040454356
 20
1.808777797172216
 30
0.0
 40
0.0194546933311814
  0
CIRCLE
  5
EA
330
1F
100
AcDbEntity
  8
0
  6
Continuous
 62
     7
370
    15
100
AcDbCircle
 10
2.721404040454356
 20
2.085712933559148
 30
0.0
 40
0.0194546933311814
  0
CIRCLE
  5
EB
330
1F
100
AcDbEntity
  8
0
  6
Continuous
 62
     7
370
    15
100
AcDbCircle
 10
2.894488500696189
 20
1.254907524398352
 30
0.0
 40
0.0194546933311814
  0
CIRCLE
  5
EC
330
1F
100
AcDbEntity
  8
0
  6
Continuous
 62
     7
370
    15
100
AcDbCircle
 10
2.894488500696189
 20
1.531842660785283
 30
0.0
 40
0.0194546933311814
  0
CIRCLE
  5
ED
330
1F
100
AcDbEntity
  8
0
  6
Continuous
 62
     7
370
    15
100
AcDbCircle
 10
2.894488500696189
 20
1.808777797172215
 30
0.0
 40
0.0194546933311814
  0
CIRCLE
  5
EE
330
1F
100
AcDbEntity
  8
0
  6
Continuous
 62
     7
370
    15
100
AcDbCircle
 10
2.894488500696189
 20
2.085712933559148
 30
0.0
 40
0.0194546933311814
  0
LINE
  5
F0
330
1F
100
AcDbEntity
  8
0
  6
Continuous
 62
     7
370
    15
100
AcDbLine
 10
3.068957635759281
 20
0.614495021503574
 30
0.0
 11
2.616168689887814
 21
0.614495021503574
 31
0.0
  0
LINE
  5
F2
330
1F
100
AcDbEntity
  8
0
  6
Continuous
 62
     7
370
    15
100
AcDbLine
 10
3.032956062980815
 20
2.708817004466872
 30
0.0
 11
2.652170262666285
 21
2.708817004466872
 31
0.0
  0
CIRCLE
  5
F4
330
1F
100
AcDbEntity
  8
0
  6
Continuous
 62
     7
370
    15
100
AcDbCircle
 10
2.721404040454356
 20
2.63958320633301
 30
0.0
 40
0.0194546933311814
  0
CIRCLE
  5
F5
330
1F
100
AcDbEntity
  8
0
  6
Continuous
 62
     7
370
    15
100
AcDbCircle
 10
2.894488500696189
 20
2.63958320633301
 30
0.0
 40
0.0194546933311814
  0
CIRCLE
  5
F6
330
1F
100
AcDbEntity
  8
0
  6
Continuous
 62
     7
370
    15
100
AcDbCircle
 10
2.894488500696189
 20
2.36264806994608
 30
0.0
 40
0.0194546933311814
  0
CIRCLE
  5
F7
330
1F
100
AcDbEntity
  8
0
  6
Continuous
 62
     7
370
    15
100
AcDbCircle
 10
2.721404040454356
 20
2.36264806994608
 30
0.0
 40
0.0194546933311814
  0
CIRCLE
  5
F8
330
1F
100
AcDbEntity
  8
0
  6
Continuous
 62
     7
370
    15
100
AcDbCircle
 10
2.790637824884274
 20
2.501115638139546
 30
0.0
 40
0.0194546933311821
  0
CIRCLE
  5
F9
330
1F
100
AcDbEntity
  8
0
  6
Continuous
 62
     7
370
    15
100
AcDbCircle
 10
2.963722285126106
 20
2.501115638139546
 30
0.0
 40
0.0194546933311814
  0
CIRCLE
  5
FA
330
1F
100
AcDbEntity
  8
0
  6
Continuous
 62
     7
370
    15
100
AcDbCircle
 10
2.963722285126106
 20
2.224180501752615
 30
0.0
 40
0.0194546933311814
  0
CIRCLE
  5
FB
330
1F
100
AcDbEntity
  8
0
  6
Continuous
 62
     7
370
    15
100
AcDbCircle
 10
2.790637824884274
 20
2.224180501752615
 30
0.0
 40
0.0194546933311821
  0
LINE
  5
FD
330
1F
100
AcDbEntity
  8
OBJ
100
AcDbLine
 10
0.7221110605542856
 20
2.708816990429745
 30
0.0
 11
0.7228067722138151
 21
0.6144950215035738
 31
0.0
  0
LINE
  5
101
330
1F
100
AcDbEntity
  8
0
  6
Continuous
 62
     7
370
    15
100
AcDbLine
 10
0.7041102765088785
 20
2.708817004466872
 30
0.0
 11
0.7041102765088785
 21
0.6144950215035729
 31
0.0
  0
LINE
  5
102
330
1F
100
AcDbEntity
  8
0
  6
Continuous
 62
     7
370
    15
100
AcDbLine
 10
0.7041102765088785
 20
2.708817004466872
 30
0.0
 11
0.7401118442102596
 21
2.708817004466872
 31
0.0
  0
LINE
  5
103
330
1F
100
AcDbEntity
  8
0
  6
Continuous
 62
     7
370
    15
100
AcDbLine
 10
1.207412198692692
 20
0.8135421591649636
 30
0.0
 11
1.207412198692692
 21
0.6144950215035738
 31
0.0
  0
LINE
  5
104
330
1F
100
AcDbEntity
  8
0
  6
Continuous
 62
     7
370
    15
100
AcDbLine
 10
0.7041102765088785
 20
0.6144950215035729
 30
0.0
 11
1.207412198692692
 21
0.6144950215035738
 31
0.0
  0
LINE
  5
106
330
1F
100
AcDbEntity
  8
0
  6
Continuous
 62
     7
370
    15
100
AcDbLine
 10
0.7401118442102596
 20
2.708817004466872
 30
0.0
 11
0.8084584410466653
 21
2.708817004466872
 31
0.0
  0
ARC
  5
107
330
1F
100
AcDbEntity
  8
0
  6
Continuous
 62
     7
370
    15
100
AcDbCircle
 10
0.8084584393475452
 20
2.674200098381378
 30
0.0
 40
0.0346168920483668
100
AcDbArc
 50
8.999999999999314
 51
90.0
  0
LINE
  5
108
330
1F
100
AcDbEntity
  8
0
  6
Continuous
 62
     7
370
    15
100
AcDbLine
 10
1.207412198692692
 20
0.8135421591649636
 30
0.0
 11
0.8426491392715675
 21
2.67961539571197
 31
0.0
  0
ARC
  5
121
330
1F
100
AcDbEntity
  8
0
  6
Continuous
 62
     7
370
    15
100
AcDbCircle
 10
3.032956069089562
 20
3.74505375162125
 30
0.0
 40
0.0360015677303009
100
AcDbArc
 50
0.0
 51
90.0
  0
ARC
  5
122
330
1F
100
AcDbEntity
  8
0
  6
Continuous
 62
     7
370
    15
100
AcDbCircle
 10
3.032956069089562
 20
3.745053751487978
 30
0.0
 40
0.0173084462240921
100
AcDbArc
 50
0.000000441169902
 51
90.0
  0
ARC
  5
123
330
1F
100
AcDbEntity
  8
0
  6
Continuous
 62
     7
370
    15
100
AcDbCircle
 10
2.652170256557533
 20
3.745053751487978
 30
0.0
 40
0.0173084462240943
100
AcDbArc
 50
90.0
 51
179.9999995588301
  0
ARC
  5
124
330
1F
100
AcDbEntity
  8
0
  6
Continuous
 62
     7
370
    15
100
AcDbCircle
 10
2.652170256557533
 20
3.74505375162125
 30
0.0
 40
0.0360015677303009
100
AcDbArc
 50
90.0
 51
180.0
  0
LINE
  5
125
330
1F
100
AcDbEntity
  8
0
  6
Continuous
 62
     7
370
    15
100
AcDbLine
 10
3.050264517680723
 20
3.676707154994021
 30
0.0
 11
3.050264517680723
 21
3.745053751830427
 31
0.0
  0
LINE
  5
126
330
1F
100
AcDbEntity
  8
0
  6
Continuous
 62
     7
370
    15
100
AcDbLine
 10
3.068957635759281
 20
3.676707154994021
 30
0.0
 11
3.068957635759281
 21
3.745053751830427
 31
0.0
  0
LINE
  5
127
330
1F
100
AcDbEntity
  8
0
  6
Continuous
 62
     7
370
    15
100
AcDbLine
 10
2.616168689887814
 20
3.745053751830427
 30
0.0
 11
2.616168689887814
 21
3.676707154994021
 31
0.0
  0
LINE
  5
128
330
1F
100
AcDbEntity
  8
0
  6
Continuous
 62
     7
370
    15
100
AcDbLine
 10
2.634861807966376
 20
3.745053751830427
 30
0.0
 11
2.634861807966376
 21
3.676707154994021
 31
0.0
  0
LINE
  5
129
330
1F
100
AcDbEntity
  8
0
  6
Continuous
 62
     7
370
    15
100
AcDbLine
 10
3.032956062980815
 20
3.781055319531807
 30
0.0
 11
2.652170262666285
 21
3.781055319531807
 31
0.0
  0
LINE
  5
12A
330
1F
100
AcDbEntity
  8
0
  6
Continuous
 62
     7
370
    15
100
AcDbLine
 10
3.032956062980815
 20
3.762362197712069
 30
0.0
 11
2.652170262666285
 21
3.762362197645433
 31
0.0
  0
LINE
  5
12B
330
1F
100
AcDbEntity
  8
0
  6
Continuous
 62
     7
370
    15
100
AcDbLine
 10
3.050264517680723
 20
3.642516456769119
 30
0.0
 11
3.050264517680723
 21
3.676707154994021
 31
0.0
  0
LINE
  5
12C
330
1F
100
AcDbEntity
  8
0
  6
Continuous
 62
     7
370
    15
100
AcDbLine
 10
3.068957635759281
 20
3.676707154994021
 30
0.0
 11
3.068957635759281
 21
3.642516456769119
 31
0.0
  0
LINE
  5
12D
330
1F
100
AcDbEntity
  8
0
  6
Continuous
 62
     7
370
    15
100
AcDbLine
 10
2.616168689887814
 20
3.642516456769119
 30
0.0
 11
2.616168689887814
 21
3.676707154994021
 31
0.0
  0
LINE
  5
12E
330
1F
100
AcDbEntity
  8
0
  6
Continuous
 62
     7
370
    15
100
AcDbLine
 10
2.634861807966376
 20
3.676707154994021
 30
0.0
 11
2.634861807966376
 21
3.642516456769119
 31
0.0
  0
LINE
  5
12F
330
1F
100
AcDbEntity
  8
0
  6
Continuous
 62
     7
370
    15
100
AcDbLine
 10
2.634861807966376
 20
3.277753397347999
 30
0.0
 11
2.616168689887814
 21
3.277753397347999
 31
0.0
  0
LINE
  5
130
330
1F
100
AcDbEntity
  8
0
  6
Continuous
 62
     7
370
    15
100
AcDbLine
 10
2.616168689887814
 20
3.277753397347999
 30
0.0
 11
2.616168689887814
 21
3.642516456769119
 31
0.0
  0
LINE
  5
131
330
1F
100
AcDbEntity
  8
0
  6
Continuous
 62
     7
370
    15
100
AcDbLine
 10
2.634861807966376
 20
3.277753397347999
 30
0.0
 11
2.634861807966376
 21
3.642516456769119
 31
0.0
  0
LINE
  5
132
330
1F
100
AcDbEntity
  8
0
  6
Continuous
 62
     7
370
    15
100
AcDbLine
 10
3.050264517680723
 20
3.277753397347999
 30
0.0
 11
3.068957635759281
 21
3.277753397347999
 31
0.0
  0
LINE
  5
133
330
1F
100
AcDbEntity
  8
0
  6
Continuous
 62
     7
370
    15
100
AcDbLine
 10
3.050264517680723
 20
3.642516456769119
 30
0.0
 11
3.050264517680723
 21
3.277753397347999
 31
0.0
  0
LINE
  5
134
330
1F
100
AcDbEntity
  8
0
  6
Continuous
 62
     7
370
    15
100
AcDbLine
 10
3.068957635759281
 20
3.642516456769119
 30
0.0
 11
3.068957635759281
 21
3.277753397347999
 31
0.0
  0
LINE
  5
9D5
330
1F
100
AcDbEntity
  8
0
  6
Continuous
 62
     7
100
AcDbLine
 10
3.015609547050591
 20
3.762331042442085
 30
0.0
 11
2.66947523832554
 21
3.762331042442085
 31
0.0
  0
LINE
  5
9D6
330
1F
100
AcDbEntity
  8
OBJ
100
AcDbLine
 10
3.015609547050591
 20
3.762331042442085
 30
0.0
 11
3.050222977409753
 21
3.727717612082921
 31
0.0
  0
LINE
  5
9D7
330
1F
100
AcDbEntity
  8
0
  6
Continuous
 62
     7
100
AcDbLine
 10
3.050222977409753
 20
3.312356442639547
 30
0.0
 11
3.050222977409753
 21
3.727717612082923
 31
0.0
  0
LINE
  5
9D8
330
1F
100
AcDbEntity
  8
0
  6
Continuous
 62
     7
100
AcDbLine
 10
2.634861807966376
 20
3.312356442639547
 30
0.0
 11
3.050222977409753
 21
3.312356442639547
 31
0.0
  0
LINE
  5
9D9
330
1F
100
AcDbEntity
  8
0
  6
Continuous
 62
     7
100
AcDbLine
 10
2.634861807966376
 20
3.727717612082921
 30
0.0
 11
2.634861807966376
 21
3.312356442639547
 31
0.0
  0
LINE
  5
9DA
330
1F
100
AcDbEntity
  8
OBJ
100
AcDbLine
 10
2.634861807966376
 20
3.727717612082921
 30
0.0
 11
2.66947523832554
 21
3.762331042442085
 31
0.0
  0
ARC
  5
9DB
330
1F
100
AcDbEntity
  8
0
  6
Continuous
 62
     7
100
AcDbCircle
 10
2.842542392688064
 20
3.597903400297206
 30
0.0
 40
0.0649001819234281
100
AcDbArc
 50
0.0
 51
180.0000000000004
  0
LINE
  5
9DC
330
1F
100
AcDbEntity
  8
0
  6
Continuous
 62
     7
100
AcDbLine
 10
2.777642210764637
 20
3.554636612348253
 30
0.0
 11
2.777642210764637
 21
3.597903400297203
 31
0.0
  0
LINE
  5
9DD
330
1F
100
AcDbEntity
  8
0
  6
Continuous
 62
     7
100
AcDbLine
 10
2.907442574611493
 20
3.597903400297206
 30
0.0
 11
2.907442574611493
 21
3.554636612348253
 31
0.0
  0
ARC
  5
9DE
330
1F
100
AcDbEntity
  8
0
  6
Continuous
 62
     7
100
AcDbCircle
 10
2.842542392688064
 20
3.554636612348253
 30
0.0
 40
0.0649001819234281
100
AcDbArc
 50
180.0000000000004
 51
0.0
  0
LINE
  5
9FC
330
1F
100
AcDbEntity
  8
0
  6
HIDDEN
 62
     7
370
    15
100
AcDbLine
 10
0.7227952636480454
 20
0.6664203595761224
 30
0.0
 11
1.172767613130689
 21
0.666420359576124
 31
0.0
  0
LINE
  5
9FD
330
1F
100
AcDbEntity
  8
0
  6
HIDDEN
 62
     7
370
    15
100
AcDbLine
 10
0.7227722741149948
 20
0.7529072026697614
 30
0.0
 11
1.172767613130689
 21
0.7529072026697629
 31
0.0
  0
LINE
  5
9FE
330
1F
100
AcDbEntity
  8
0
  6
HIDDEN
 62
     7
370
    15
100
AcDbLine
 10
1.172767613130689
 20
0.7529072026697629
 30
0.0
 11
1.172767613130689
 21
0.666420359576124
 31
0.0
  0
LINE
  5
9FF
330
1F
100
AcDbEntity
  8
0
  6
Continuous
 62
     7
370
    15
100
AcDbLine
 10
3.050264517680719
 20
0.6664203595761232
 30
0.0
 11
2.634861807966376
 21
0.6664203595761232
 31
0.0
  0
LINE
  5
A00
330
1F
100
AcDbEntity
  8
0
  6
Continuous
 62
     7
370
    15
100
AcDbLine
 10
3.050264517680719
 20
0.7529072026697629
 30
0.0
 11
2.634861807966376
 21
0.7529072026697619
 31
0.0
  0
MTEXT
  5
BAA
330
1F
100
AcDbEntity
  8
OBJ
100
AcDbMText
 10
2.161092888019466
 20
3.143161558053428
 30
0.0
 40
0.1
 41
1.998749330034313
 71
     1
 72
     5
  1
UPHD11-TOP-VIEW
 73
     1
 44
1.0
1001
ACAD
1000
MTEXTBEGIN
1070
    73
1070
     1
1070
    44
1040
1.0
1070
    74
1070
     0
1000
MTEXTEND
  0
MTEXT
  5
BB2
330
1F
100
AcDbEntity
  8
OBJ
100
AcDbMText
 10
2.053356712804792
 20
0.4368566667477049
 30
0.0
 40
0.1
 41
1.998749330034313
 71
     1
 72
     5
  1
UPHD11-FRONT-VIEW
 73
     1
 44
1.0
1001
ACAD
1000
MTEXTBEGIN
1070
    73
1070
     1
1070
    44
1040
1.0
1070
    74
1070
     0
1000
MTEXTEND
  0
MTEXT
  5
BB8
330
1F
100
AcDbEntity
  8
OBJ
100
AcDbMText
 10
0.3797051688480053
 20
0.4669521066539525
 30
0.0
 40
0.1
 41
1.998749330034313
 71
     1
 72
     5
  1
UPHD11-SIDE-VIEW
 73
     1
 44
1.0
1001
ACAD
1000
MTEXTBEGIN
1070
    73
1070
     1
1070
    44
1040
1.0
1070
    74
1070
     0
1000
MTEXTEND
  0
VIEWPORT
  5
B5D
102
{ACAD_XDICTIONARY
360
BD1
102
}
330
23
100
AcDbEntity
 67
     1
  8
0
100
AcDbViewport
 10
5.249999639556162
 20
3.999999883606676
 30
0.0
 40
12.94947880058353
 41
8.992999745766947
 68
     1
 69
     1
 12
5.249999639556162
 22
3.999999883606676
 13
0.0
 23
0.0
 14
0.5
 24
0.5
 15
0.5
 25
0.5
 16
0.0
 26
0.0
 36
1.0
 17
0.0
 27
0.0
 37
0.0
 42
50.0
 43
0.0
 44
0.0
 45
8.992999745766947
 50
0.0
 51
0.0
 72
  2000
 90
    32800
  1

281
     0
 71
     1
 74
     0
110
0.0
120
0.0
130
0.0
111
1.0
121
0.0
131
0.0
112
0.0
122
1.0
132
0.0
 79
     0
146
0.0
  0
VIEWPORT
  5
B5F
102
{ACAD_XDICTIONARY
360
BD3
102
}
330
23
100
AcDbEntity
 67
     1
  8
OBJ
100
AcDbViewport
 10
5.24999976158142
 20
3.999999761581419
 30
0.0
 40
8.399999618530271
 41
6.399999618530272
 68
     2
 69
     2
 12
4.249999999999976
 22
5.506367763904655
 13
0.0
 23
0.0
 14
0.5
 24
0.5
 15
0.5
 25
0.5
 16
0.0
 26
0.0
 36
1.0
 17
0.0
 27
0.0
 37
0.0
 42
50.0
 43
0.0
 44
0.0
 45
10.60880829014483
 50
0.0
 51
0.0
 72
  2000
 90
    32864
  1

281
     0
 71
     1
 74
     0
110
0.0
120
0.0
130
0.0
111
1.0
121
0.0
131
0.0
112
0.0
122
1.0
132
0.0
 79
     0
146
0.0
  0
ENDSEC
  0
SECTION
  2
OBJECTS
  0
DICTIONARY
  5
C
330
0
100
AcDbDictionary
281
     1
  3
ACAD_COLOR
350
24B
  3
ACAD_GROUP
350
D
  3
ACAD_LAYOUT
350
1A
  3
ACAD_MATERIAL
350
24A
  3
ACAD_MLINESTYLE
350
17
  3
ACAD_PLOTSETTINGS
350
19
  3
ACAD_PLOTSTYLENAME
350
E
  3
AcadDim
350
2EA
  3
ACDBHEADERROUNDTRIPXREC
350
BC4
  3
AcDbVariableDictionary
350
399
  3
ASE_INDEX_DICTIONARY
350
B87
  3
DWGPROPS
350
BC3
  0
DICTIONARY
  5
BCD
330
77
100
AcDbDictionary
280
     1
281
     1
  3
ACAD_MTEXT_RT
360
BCE
  0
DICTIONARY
  5
BCF
330
AE0
100
AcDbDictionary
280
     1
281
     1
  3
ACAD_MTEXT_RT
360
BD0
  0
DICTIONARY
  5
BD1
330
B5D
100
AcDbDictionary
280
     1
281
     1
  3
ACAD_XREC_ROUNDTRIP
360
BD2
  0
DICTIONARY
  5
BD3
330
B5F
100
AcDbDictionary
280
     1
281
     1
  3
ACAD_XREC_ROUNDTRIP
360
BD4
  0
DICTIONARY
  5
24B
102
{ACAD_REACTORS
330
C
102
}
330
C
100
AcDbDictionary
281
     1
  0
DICTIONARY
  5
D
102
{ACAD_REACTORS
330
C
102
}
330
C
100
AcDbDictionary
281
     1
  0
DICTIONARY
  5
1A
102
{ACAD_REACTORS
330
C
102
}
330
C
100
AcDbDictionary
281
     1
  3
Layout1
350
1E
  3
Layout2
350
26
  3
Model
350
22
  0
DICTIONARY
  5
24A
102
{ACAD_REACTORS
330
C
102
}
330
C
100
AcDbDictionary
281
     1
  0
DICTIONARY
  5
17
102
{ACAD_REACTORS
330
C
102
}
330
C
100
AcDbDictionary
281
     1
  3
Standard
350
18
  0
DICTIONARY
  5
19
102
{ACAD_REACTORS
330
C
102
}
330
C
100
AcDbDictionary
281
     1
  0
ACDBDICTIONARYWDFLT
  5
E
102
{ACAD_REACTORS
330
C
102
}
330
C
100
AcDbDictionary
281
     1
  3
Normal
350
F
100
AcDbDictionaryWithDefault
340
F
  0
XRECORD
  5
2EA
102
{ACAD_REACTORS
330
C
102
}
330
C
100
AcDbXrecord
280
     1
 90
   990106
  3

 60
     0
 61
     0
 62
     1
 63
     3
 64
     0
 65
     0
 66
     0
 67
     3
 68
     1
 69
     0
 70
     0
 71
     0
 72
     0
 40
0.0
170
     0
340
6E8
  0
DICTIONARY
  5
BC4
102
{ACAD_REACTORS
330
C
102
}
330
C
100
AcDbDictionary
281
     1
  3
COLORDICT
350
BC6
  3
MATERIALDICT
350
BC5
  0
DICTIONARY
  5
399
102
{ACAD_REACTORS
330
C
102
}
330
C
100
AcDbDictionary
281
     1
  3
DIMASSOC
350
39A
  3
PROJECTNAME
350
39B
  0
DICTIONARY
  5
B87
102
{ACAD_REACTORS
330
C
102
}
330
C
100
AcDbDictionary
281
     1
  3
ASEBlockHierarchyIndexRecord
350
B88
1001
DCO15
1040
1621673076.772
  0
XRECORD
  5
BC3
102
{ACAD_REACTORS
330
C
102
}
330
C
100
AcDbXrecord
280
     1
  1
DWGPROPS COOKIE
  2

  3

  4

  6

  7

  8

  9

300
=
301
=
302
=
303
=
304
=
305
=
306
=
307
=
308
=
309
=
 40
0.1708145486111111
 41
2454112.638393553
 42
2454763.446594688
  1

 90
        0
  0
XRECORD
  5
BCE
102
{ACAD_REACTORS
330
BCD
102
}
330
BCD
100
AcDbXrecord
280
     1
 40
1562.0
  1
%%p
  0
XRECORD
  5
BD0
102
{ACAD_REACTORS
330
BCF
102
}
330
BCF
100
AcDbXrecord
280
     1
 40
97420.0
  1
\A1;1-1/16"%%p1/32" x 1 1/4"%%p1/32"\PPUNCH SLOT
  0
XRECORD
  5
BD2
102
{ACAD_REACTORS
330
BD1
102
}
330
BD1
100
AcDbXrecord
280
     1
102
SHADEPLOT
 70
     0
  0
XRECORD
  5
BD4
102
{ACAD_REACTORS
330
BD3
102
}
330
BD3
100
AcDbXrecord
280
     1
102
SHADEPLOT
 70
     0
  0
LAYOUT
  5
1E
102
{ACAD_XDICTIONARY
360
BC7
102
}
102
{ACAD_REACTORS
330
1A
102
}
330
1A
100
AcDbPlotSettings
  1

  2
none_device
  4

  6

 40
0.0
 41
0.0
 42
0.0
 43
0.0
 44
0.0
 45
0.0
 46
0.0
 47
0.0
 48
0.0
 49
0.0
140
0.0
141
0.0
142
1.0
143
1.0
 70
   688
 72
     0
 73
     0
 74
     5
  7

 75
    16
147
1.0
148
0.0
149
0.0
100
AcDbLayout
  1
Layout1
 70
     1
 71
     1
 10
0.0
 20
0.0
 11
12.0
 21
9.0
 12
0.0
 22
0.0
 32
0.0
 14
1.000000000000000E+20
 24
1.000000000000000E+20
 34
1.000000000000000E+20
 15
-1.000000000000000E+20
 25
-1.000000000000000E+20
 35
-1.000000000000000E+20
146
0.0
 13
0.0
 23
0.0
 33
0.0
 16
1.0
 26
0.0
 36
0.0
 17
0.0
 27
1.0
 37
0.0
 76
     0
330
1B
  0
LAYOUT
  5
26
102
{ACAD_XDICTIONARY
360
BCB
102
}
102
{ACAD_REACTORS
330
1A
102
}
330
1A
100
AcDbPlotSettings
  1

  2
none_device
  4
Letter_(8.50_x_11.00_Inches)
  6

 40
6.349999904632567
 41
6.349999904632567
 42
6.350006103515625
 43
6.350006103515625
 44
215.8999938964844
 45
279.3999938964844
 46
0.0
 47
0.0
 48
0.0
 49
0.0
140
0.0
141
0.0
142
1.0
143
1.0
 70
   688
 72
     0
 73
     1
 74
     5
  7

 75
    16
147
1.0
148
0.0
149
0.0
100
AcDbLayout
  1
Layout2
 70
     1
 71
     2
 10
-0.2500002402958907
 20
-0.2499999962453767
 11
10.74999951940821
 21
8.249999763458731
 12
0.0
 22
0.0
 32
0.0
 14
1.049999952316283
 24
0.7999999523162842
 34
0.0
 15
9.449999570846555
 25
7.199999570846556
 35
0.0
146
0.0
 13
0.0
 23
0.0
 33
0.0
 16
1.0
 26
0.0
 36
0.0
 17
0.0
 27
1.0
 37
0.0
 76
     0
330
23
331
B5D
  0
LAYOUT
  5
22
102
{ACAD_XDICTIONARY
360
BC9
102
}
102
{ACAD_REACTORS
330
1A
102
}
330
1A
100
AcDbPlotSettings
  1

  2
Acrobat Distiller
  4
Letter
  6

 40
3.174999999999998
 41
3.174999999999998
 42
3.175002999999998
 43
3.174987999999998
 44
215.899994
 45
279.399994
 46
0.0
 47
0.0
 48
0.2500000000039868
 49
0.256367763909904
140
8.249999999995978
141
10.75636776389939
142
1.0
143
0.9767441645825602
 70
 11952
 72
     0
 73
     0
 74
     4
  7
monochrome.ctb
 75
     0
147
1.023809546307735
148
-6.350000000101262
149
-6.51174120331156
100
AcDbLayout
  1
Model
 70
     1
 71
     0
 10
0.0
 20
0.0
 11
0.0
 21
0.0
 12
0.0
 22
0.0
 32
0.0
 14
0.0
 24
0.0
 34
0.0
 15
8.5
 25
11.0
 35
0.0
146
0.0
 13
0.0
 23
0.0
 33
0.0
 16
1.0
 26
0.0
 36
0.0
 17
0.0
 27
1.0
 37
0.0
 76
     0
330
1F
  0
MLINESTYLE
  5
18
102
{ACAD_REACTORS
330
17
102
}
330
17
100
AcDbMlineStyle
  2
STANDARD
 70
     0
  3

 62
   256
 51
90.0
 52
90.0
 71
     2
 49
0.5
 62
   256
  6
BYLAYER
 49
-0.5
 62
   256
  6
BYLAYER
  0
ACDBPLACEHOLDER
  5
F
102
{ACAD_REACTORS
330
E
102
}
330
E
  0
XRECORD
  5
BC6
102
{ACAD_REACTORS
330
BC4
102
}
330
BC4
100
AcDbXrecord
280
     1
340
24B
  0
XRECORD
  5
BC5
102
{ACAD_REACTORS
330
BC4
102
}
330
BC4
100
AcDbXrecord
280
     1
340
24A
  0
DICTIONARYVAR
  5
39A
102
{ACAD_REACTORS
330
399
102
}
330
399
100
DictionaryVariables
280
     0
  1
1
  0
DICTIONARYVAR
  5
39B
102
{ACAD_REACTORS
330
399
102
}
330
399
100
DictionaryVariables
280
     0
  1

  0
XRECORD
  5
B88
102
{ACAD_REACTORS
330
B87
102
}
330
B87
100
AcDbXrecord
280
     1
330
B32
330
7B
330
9C
330
BD
330
386
330
3AC
330
AA1
330
271
330
272
330
273
330
274
330
AE1
  0
DICTIONARY
  5
BC7
330
1E
100
AcDbDictionary
280
     1
281
     1
  3
ACAD_XREC_ROUNDTRIP
360
BC8
  0
DICTIONARY
  5
BCB
330
26
100
AcDbDictionary
280
     1
281
     1
  3
ACAD_XREC_ROUNDTRIP
360
BCC
  0
DICTIONARY
  5
BC9
330
22
100
AcDbDictionary
280
     1
281
     1
  3
ACAD_XREC_ROUNDTRIP
360
BCA
  0
XRECORD
  5
BC8
102
{ACAD_REACTORS
330
BC7
102
}
330
BC7
100
AcDbXrecord
280
     1
102
SHADEPLOT
 70
     0
102
SHADEPLOTRESLEVEL
 70
     2
102
SHADEPLOTCUSTOMDPI
 70
   300
  0
XRECORD
  5
BCC
102
{ACAD_REACTORS
330
BCB
102
}
330
BCB
100
AcDbXrecord
280
     1
102
SHADEPLOT
 70
     0
102
SHADEPLOTRESLEVEL
 70
     2
102
SHADEPLOTCUSTOMDPI
 70
   300
  0
XRECORD
  5
BCA
102
{ACAD_REACTORS
330
BC9
102
}
330
BC9
100
AcDbXrecord
280
     1
102
SHADEPLOT
 70
     1
102
SHADEPLOTRESLEVEL
 70
     2
102
SHADEPLOTCUSTOMDPI
 70
   300
  0
ENDSEC
  0
EOF
