  0
SECTION
  2
HEADER
  9
$ACADVER
  1
AC1014
  9
$ACADMAINTVER
 70
     9
  9
$DWGCODEPAGE
  3
ANSI_1252
  9
$INSBASE
 10
0.0
 20
0.0
 30
0.0
  9
$EXTMIN
 10
0.001416238485362
 20
0.0012150011104381
 30
0.0
  9
$EXTMAX
 10
20.42347082296373
 20
29.61522237936208
 30
0.0
  9
$LIMMIN
 10
0.0
 20
0.0
  9
$LIMMAX
 10
12.0
 20
9.0
  9
$ORTHOMODE
 70
     0
  9
$REGENMODE
 70
     1
  9
$FILLMODE
 70
     1
  9
$QTEXTMODE
 70
     0
  9
$MIRRTEXT
 70
     0
  9
$DRAGMODE
 70
     2
  9
$LTSCALE
 40
1.5
  9
$OSMODE
 70
    37
  9
$ATTMODE
 70
     1
  9
$TEXTSIZE
 40
0.4375
  9
$TRACEWID
 40
0.05
  9
$TEXTSTYLE
  7
STANDARD
  9
$CLAYER
  8
0
  9
$CELTYPE
  6
BYLAYER
  9
$CECOLOR
 62
   256
  9
$CELTSCALE
 40
1.0
  9
$DELOBJ
 70
     1
  9
$DISPSILH
 70
     1
  9
$DIMSCALE
 40
6.0
  9
$DIMASZ
 40
0.125
  9
$DIMEXO
 40
0.0625
  9
$DIMDLI
 40
0.37890625
  9
$DIMRND
 40
0.0
  9
$DIMDLE
 40
0.0
  9
$DIMEXE
 40
0.09375
  9
$DIMTP
 40
0.0
  9
$DIMTM
 40
0.0
  9
$DIMTXT
 40
0.109375
  9
$DIMCEN
 40
0.0
  9
$DIMTSZ
 40
0.0
  9
$DIMTOL
 70
     0
  9
$DIMLIM
 70
     0
  9
$DIMTIH
 70
     1
  9
$DIMTOH
 70
     1
  9
$DIMSE1
 70
     0
  9
$DIMSE2
 70
     0
  9
$DIMTAD
 70
     0
  9
$DIMZIN
 70
     8
  9
$DIMBLK
  1

  9
$DIMASO
 70
     1
  9
$DIMSHO
 70
     1
  9
$DIMPOST
  1

  9
$DIMAPOST
  1

  9
$DIMALT
 70
     0
  9
$DIMALTD
 70
     2
  9
$DIMALTF
 40
25.4
  9
$DIMLFAC
 40
1.0
  9
$DIMTOFL
 70
     0
  9
$DIMTVP
 40
0.0
  9
$DIMTIX
 70
     0
  9
$DIMSOXD
 70
     0
  9
$DIMSAH
 70
     0
  9
$DIMBLK1
  1

  9
$DIMBLK2
  1

  9
$DIMSTYLE
  2
STANDARD
  9
$DIMCLRD
 70
     0
  9
$DIMCLRE
 70
     0
  9
$DIMCLRT
 70
   256
  9
$DIMTFAC
 40
1.0
  9
$DIMGAP
 40
0.08984375
  9
$DIMJUST
 70
     0
  9
$DIMSD1
 70
     0
  9
$DIMSD2
 70
     0
  9
$DIMTOLJ
 70
     1
  9
$DIMTZIN
 70
     0
  9
$DIMALTZ
 70
     0
  9
$DIMALTTZ
 70
     0
  9
$DIMFIT
 70
     3
  9
$DIMUPT
 70
     1
  9
$DIMUNIT
 70
     7
  9
$DIMDEC
 70
     4
  9
$DIMTDEC
 70
     4
  9
$DIMALTU
 70
     2
  9
$DIMALTTD
 70
     2
  9
$DIMTXSTY
  7
STANDARD
  9
$DIMAUNIT
 70
     0
  9
$LUNITS
 70
     5
  9
$LUPREC
 70
     6
  9
$SKETCHINC
 40
0.1
  9
$FILLETRAD
 40
0.0
  9
$AUNITS
 70
     0
  9
$AUPREC
 70
     1
  9
$MENU
  1
CUSTOM
  9
$ELEVATION
 40
0.0
  9
$PELEVATION
 40
0.0
  9
$THICKNESS
 40
0.0
  9
$LIMCHECK
 70
     0
  9
$BLIPMODE
 70
     0
  9
$CHAMFERA
 40
0.0
  9
$CHAMFERB
 40
0.0
  9
$CHAMFERC
 40
0.0
  9
$CHAMFERD
 40
0.0
  9
$SKPOLY
 70
     0
  9
$TDCREATE
 40
2451263.663231366
  9
$TDUPDATE
 40
2452759.747799837
  9
$TDINDWG
 40
0.1239206250
  9
$TDUSRTIMER
 40
0.1239206250
  9
$USRTIMER
 70
     1
  9
$ANGBASE
 50
0.0
  9
$ANGDIR
 70
     0
  9
$PDMODE
 70
     0
  9
$PDSIZE
 40
0.0
  9
$PLINEWID
 40
0.0
  9
$COORDS
 70
     1
  9
$SPLFRAME
 70
     0
  9
$SPLINETYPE
 70
     6
  9
$SPLINESEGS
 70
     8
  9
$ATTDIA
 70
     0
  9
$ATTREQ
 70
     1
  9
$HANDLING
 70
     1
  9
$HANDSEED
  5
143
  9
$SURFTAB1
 70
     6
  9
$SURFTAB2
 70
     6
  9
$SURFTYPE
 70
     6
  9
$SURFU
 70
     6
  9
$SURFV
 70
     6
  9
$UCSNAME
  2

  9
$UCSORG
 10
0.0
 20
0.0
 30
0.0
  9
$UCSXDIR
 10
1.0
 20
0.0
 30
0.0
  9
$UCSYDIR
 10
0.0
 20
1.0
 30
0.0
  9
$PUCSNAME
  2

  9
$PUCSORG
 10
0.0
 20
0.0
 30
0.0
  9
$PUCSXDIR
 10
1.0
 20
0.0
 30
0.0
  9
$PUCSYDIR
 10
0.0
 20
1.0
 30
0.0
  9
$USERI1
 70
     0
  9
$USERI2
 70
     0
  9
$USERI3
 70
     0
  9
$USERI4
 70
     0
  9
$USERI5
 70
     0
  9
$USERR1
 40
0.0
  9
$USERR2
 40
0.0
  9
$USERR3
 40
0.0
  9
$USERR4
 40
0.0
  9
$USERR5
 40
0.0
  9
$WORLDVIEW
 70
     1
  9
$SHADEDGE
 70
     3
  9
$SHADEDIF
 70
    70
  9
$TILEMODE
 70
     1
  9
$MAXACTVP
 70
    16
  9
$PINSBASE
 10
0.0
 20
0.0
 30
0.0
  9
$PLIMCHECK
 70
     0
  9
$PEXTMIN
 10
1.052083323321005
 20
0.7937500251559762
 30
0.0
  9
$PEXTMAX
 10
9.468749909889039
 20
7.143750226403783
 30
0.0
  9
$PLIMMIN
 10
-0.2145830289585384
 20
-0.2812499887361301
  9
$PLIMMAX
 10
10.78541673074557
 20
8.218749770967978
  9
$UNITMODE
 70
     0
  9
$VISRETAIN
 70
     0
  9
$PLINEGEN
 70
     0
  9
$PSLTSCALE
 70
     0
  9
$TREEDEPTH
 70
  3020
  9
$PICKSTYLE
 70
     1
  9
$CMLSTYLE
  2
STANDARD
  9
$CMLJUST
 70
     0
  9
$CMLSCALE
 40
1.0
  9
$PROXYGRAPHICS
 70
     1
  9
$MEASUREMENT
 70
     0
  0
ENDSEC
  0
SECTION
  2
CLASSES
  0
CLASS
  1
ACDBDICTIONARYWDFLT
  2
AcDbDictionaryWithDefault
  3
AutoCAD 2000
 90
        0
280
     0
281
     0
  0
CLASS
  1
ACDBPLACEHOLDER
  2
AcDbPlaceHolder
  3
AutoCAD 2000
 90
        0
280
     0
281
     0
  0
CLASS
  1
LAYOUT
  2
AcDbLayout
  3
AutoCAD 2000
 90
        0
280
     0
281
     0
  0
CLASS
  1
DICTIONARYVAR
  2
AcDbDictionaryVar
  3
"AutoCAD"
 90
        0
280
     0
281
     0
  0
CLASS
  1
LONG_TRANSACTION
  2
AcDbLongTransaction
  3
AutoCAD 2000
 90
        0
280
     0
281
     0
  0
CLASS
  1
LWPOLYLINE
  2
AcDbPolyline
  3
"AutoCAD"
 90
        0
280
     0
281
     1
  0
CLASS
  1
HATCH
  2
AcDbHatch
  3
"ACAD_SEDONA"
 90
        0
280
     0
281
     1
  0
CLASS
  1
XRECORD
  2
AcDbXrecord
  3
"<Built In>"
 90
        0
280
     0
281
     0
  0
CLASS
  1
LONG_TRANSACTION
  2
AcDbLongTransaction
  3
AutoCAD 2000
 90
        0
280
     0
281
     0
  0
CLASS
  1
LWPOLYLINE
  2
AcDbPolyline
  3
"AutoCAD"
 90
        0
280
     0
281
     1
  0
CLASS
  1
HATCH
  2
AcDbHatch
  3
"ACAD_SEDONA"
 90
        0
280
     0
281
     1
  0
CLASS
  1
XRECORD
  2
AcDbXrecord
  3
"<Built In>"
 90
        0
280
     0
281
     0
  0
ENDSEC
  0
SECTION
  2
TABLES
  0
TABLE
  2
VPORT
  5
125
100
AcDbSymbolTable
 70
     1
  0
VPORT
  5
13F
100
AcDbSymbolTableRecord
100
AcDbViewportTableRecord
  2
*ACTIVE
 70
     0
 10
0.0
 20
0.0
 11
1.0
 21
1.0
 12
-12.88320447961041
 22
25.44358365333428
 13
0.0
 23
0.0
 14
1.0
 24
1.0
 15
0.0
 25
0.0
 16
0.0
 26
0.0
 36
1.0
 17
23.09603071721725
 27
-10.27010416511325
 37
-10.44050274849355
 40
30.56329126392944
 41
1.457627118644067
 42
50.0
 43
10.55307667737539
 44
10.55307667737539
 50
0.0
 51
0.0
 71
     0
 72
   100
 73
     1
 74
     1
 75
     0
 76
     0
 77
     0
 78
     0
  0
ENDTAB
  0
TABLE
  2
LTYPE
  5
120
100
AcDbSymbolTable
 70
     2
  0
LTYPE
  5
121
100
AcDbSymbolTableRecord
100
AcDbLinetypeTableRecord
  2
BYBLOCK
 70
     0
  3

 72
    65
 73
     0
 40
0.0
  0
LTYPE
  5
122
100
AcDbSymbolTableRecord
100
AcDbLinetypeTableRecord
  2
BYLAYER
 70
     0
  3

 72
    65
 73
     0
 40
0.0
  0
LTYPE
  5
5
100
AcDbSymbolTableRecord
100
AcDbLinetypeTableRecord
  2
CONTINUOUS
 70
     0
  3
Solid line
 72
    65
 73
     0
 40
0.0
  0
LTYPE
  5
31
100
AcDbSymbolTableRecord
100
AcDbLinetypeTableRecord
  2
HIDDEN
 70
     0
  3
Hidden __ __ __ __ __ __ __ __ __ __ __ __ __ _
 72
    65
 73
     2
 40
0.375
 49
0.25
 74
     0
 49
-0.125
 74
     0
  0
ENDTAB
  0
TABLE
  2
LAYER
  5
11E
100
AcDbSymbolTable
 70
     5
  0
LAYER
  5
74
100
AcDbSymbolTableRecord
100
AcDbLayerTableRecord
  2
0
 70
     0
 62
     7
  6
CONTINUOUS
  0
LAYER
  5
8
100
AcDbSymbolTableRecord
100
AcDbLayerTableRecord
  2
USP-GEO
 70
     0
 62
     7
  6
CONTINUOUS
  0
LAYER
  5
F
100
AcDbSymbolTableRecord
100
AcDbLayerTableRecord
  2
USP-TXT
 70
     0
 62
     7
  6
CONTINUOUS
  0
LAYER
  5
30
100
AcDbSymbolTableRecord
100
AcDbLayerTableRecord
  2
USP-HID
 70
     0
 62
     7
  6
HIDDEN
  0
LAYER
  5
4
100
AcDbSymbolTableRecord
100
AcDbLayerTableRecord
  2
USP
 70
     0
 62
     7
  6
CONTINUOUS
  0
ENDTAB
  0
TABLE
  2
STYLE
  5
11F
100
AcDbSymbolTable
 70
     1
  0
STYLE
  5
10
100
AcDbSymbolTableRecord
100
AcDbTextStyleTableRecord
  2
STANDARD
 70
     0
 40
0.0
 41
1.0
 50
0.0
 71
     0
 42
0.4375
  3
txt
  4

  0
ENDTAB
  0
TABLE
  2
VIEW
  5
123
100
AcDbSymbolTable
 70
     0
  0
ENDTAB
  0
TABLE
  2
UCS
  5
124
100
AcDbSymbolTable
 70
     0
  0
ENDTAB
  0
TABLE
  2
APPID
  5
127
100
AcDbSymbolTable
 70
     1
  0
APPID
  5
119
100
AcDbSymbolTableRecord
100
AcDbRegAppTableRecord
  2
ACAD
 70
     0
  0
ENDTAB
  0
TABLE
  2
DIMSTYLE
  5
128
100
AcDbSymbolTable
 70
     1
  0
DIMSTYLE
105
130
100
AcDbSymbolTableRecord
100
AcDbDimStyleTableRecord
  2
STANDARD
 70
     0
  3

  4

  5

  6

  7

 40
1.0
 41
0.18
 42
0.0625
 43
0.38
 44
0.18
 45
0.0
 46
0.0
 47
0.0
 48
0.0
140
0.18
141
0.09
142
0.0
143
25.4
144
1.0
145
0.0
146
1.0
147
0.09
 71
     0
 72
     0
 73
     1
 74
     1
 75
     0
 76
     0
 77
     0
 78
     0
170
     0
171
     2
172
     0
173
     0
174
     0
175
     0
176
     0
177
     0
178
     0
270
     2
271
     4
272
     4
273
     2
274
     2
340
10
275
     0
280
     0
281
     0
282
     0
283
     1
284
     0
285
     0
286
     0
287
     3
288
     0
  0
ENDTAB
  0
TABLE
  2
BLOCK_RECORD
  5
1
100
AcDbSymbolTable
 70
     3
  0
BLOCK_RECORD
  5
2
102
{ACAD_XDICTIONARY
360
110
102
}
100
AcDbSymbolTableRecord
100
AcDbBlockTableRecord
  2
*MODEL_SPACE
  0
BLOCK_RECORD
  5
114
102
{ACAD_XDICTIONARY
360
11A
102
}
100
AcDbSymbolTableRecord
100
AcDbBlockTableRecord
  2
*PAPER_SPACE
  0
BLOCK_RECORD
  5
6
100
AcDbSymbolTableRecord
100
AcDbBlockTableRecord
  2
THO35160_F
  0
BLOCK_RECORD
  5
77
100
AcDbSymbolTableRecord
100
AcDbBlockTableRecord
  2
THO35160_T
  0
BLOCK_RECORD
  5
EA
100
AcDbSymbolTableRecord
100
AcDbBlockTableRecord
  2
THO35160_S
  0
ENDTAB
  0
ENDSEC
  0
SECTION
  2
BLOCKS
  0
BLOCK
  5
112
100
AcDbEntity
  8
0
100
AcDbBlockBegin
  2
*MODEL_SPACE
 70
     0
 10
0.0
 20
0.0
 30
0.0
  3
*MODEL_SPACE
  1

  0
ENDBLK
  5
113
100
AcDbEntity
  8
0
100
AcDbBlockEnd
  0
BLOCK
  5
11C
100
AcDbEntity
 67
     1
  8
0
100
AcDbBlockBegin
  2
*PAPER_SPACE
 70
     0
 10
0.0
 20
0.0
 30
0.0
  3
*PAPER_SPACE
  1

  0
ENDBLK
  5
11D
100
AcDbEntity
 67
     1
  8
0
100
AcDbBlockEnd
  0
BLOCK
  5
73
100
AcDbEntity
  8
0
100
AcDbBlockBegin
  2
THO35160_F
 70
     0
 10
0.0
 20
0.0
 30
0.0
  3
THO35160_F
  1

  0
LINE
  5
7
100
AcDbEntity
  8
USP-GEO
100
AcDbLine
 10
2.739499999999994
 20
1.520749999999999
 30
0.0
 11
2.739499999999995
 21
15.85199999999998
 31
0.0
  0
LINE
  5
9
100
AcDbEntity
  8
USP-GEO
100
AcDbLine
 10
8.600682548228821
 20
16.052
 30
0.0
 11
6.353999999999989
 21
3.310430109777517
 31
0.0
  0
LINE
  5
A
100
AcDbEntity
  8
USP-GEO
100
AcDbLine
 10
2.687500000000001
 20
3.310430109777485
 30
0.0
 11
0.4408174517711641
 21
16.05199999999998
 31
0.0
  0
LINE
  5
B
100
AcDbEntity
  8
USP-GEO
100
AcDbLine
 10
6.35399999999999
 20
1.52075000000003
 30
0.0
 11
6.353999999999988
 21
15.85200000000002
 31
0.0
  0
LINE
  5
C
100
AcDbEntity
  8
USP-GEO
100
AcDbLine
 10
6.301999999999987
 20
1.520750000000031
 30
0.0
 11
6.301999999999985
 21
15.85200000000002
 31
0.0
  0
LINE
  5
D
100
AcDbEntity
  8
USP-GEO
100
AcDbLine
 10
2.687499999999996
 20
15.85199999999998
 30
0.0
 11
2.687499999999996
 21
1.520749999999999
 31
0.0
  0
TEXT
  5
E
100
AcDbEntity
  8
USP-TXT
100
AcDbText
 10
0.0733364706380888
 20
-2.583760405064859
 30
0.0
 40
0.4375
  1
THO35160 - FRONT VIEW
 72
     1
 11
4.557711470638088
 21
-2.583760405064859
 31
0.0
100
AcDbText
  0
LINE
  5
11
100
AcDbEntity
  8
USP-GEO
100
AcDbLine
 10
2.739499999999998
 20
0.0519999999999995
 30
0.0
 11
6.301999999999992
 21
0.052
 31
0.0
  0
LINE
  5
12
100
AcDbEntity
  8
USP-GEO
100
AcDbLine
 10
6.35399999999999
 20
-0.0000000000000002
 30
0.0
 11
2.687499999999995
 21
0.0
 31
0.0
  0
LINE
  5
13
100
AcDbEntity
  8
USP-GEO
100
AcDbLine
 10
2.820921447674244
 20
0.8204335271637248
 30
0.0
 11
2.739499999999999
 21
0.9614596113613281
 31
0.0
  0
LINE
  5
14
100
AcDbEntity
  8
USP-GEO
100
AcDbLine
 10
2.739499999999994
 20
0.0520000000000001
 30
0.0
 11
2.739499999999993
 21
1.520749999999999
 31
0.0
  0
LINE
  5
15
100
AcDbEntity
  8
USP-GEO
100
AcDbLine
 10
2.687499999999995
 20
1.520749999999999
 30
0.0
 11
2.687499999999995
 21
-0.0000000000000002
 31
0.0
  0
LINE
  5
16
100
AcDbEntity
  8
USP-GEO
100
AcDbLine
 10
2.820921447674244
 20
0.8204335271637248
 30
0.0
 11
2.775888126677455
 21
0.7944335271637258
 31
0.0
  0
LINE
  5
17
100
AcDbEntity
  8
USP-GEO
100
AcDbLine
 10
2.739499999999996
 20
0.8574596113613367
 30
0.0
 11
2.775888126677455
 21
0.7944335271637254
 31
0.0
  0
ARC
  5
18
100
AcDbEntity
  8
USP-GEO
100
AcDbCircle
 10
2.739499999999994
 20
1.348749999999917
 30
0.0
 40
0.2500000000000013
100
AcDbArc
 50
102.0051728307533
 51
116.8201988106499
  0
ARC
  5
19
100
AcDbEntity
  8
USP-GEO
100
AcDbCircle
 10
2.739499999999994
 20
1.348749999999917
 30
0.0
 40
0.2500000000000013
100
AcDbArc
 50
153.1798011893496
 51
257.9948271692466
  0
LINE
  5
1A
100
AcDbEntity
  8
USP-GEO
100
AcDbLine
 10
2.626701954730809
 20
1.571856703134204
 30
0.0
 11
2.516393296865708
 21
1.461548045269104
 31
0.0
  0
LINE
  5
1B
100
AcDbEntity
  8
USP-GEO
100
AcDbLine
 10
2.739499999999994
 20
1.520749999999999
 30
0.0
 11
2.687499999999996
 21
1.520749999999999
 31
0.0
  0
LINE
  5
1C
100
AcDbEntity
  8
USP-GEO
100
AcDbLine
 10
1.919883783521923
 20
11.2105786437627
 30
0.0
 11
1.778462427284622
 21
11.35200000000001
 31
0.0
  0
LINE
  5
1D
100
AcDbEntity
  8
USP-GEO
100
AcDbLine
 10
1.778462427284622
 20
11.35200000000001
 30
0.0
 11
1.919883783521925
 21
11.49342135623733
 31
0.0
  0
LINE
  5
1E
100
AcDbEntity
  8
USP-GEO
100
AcDbLine
 10
2.06130513975924
 20
11.35200000000001
 30
0.0
 11
1.919883783521923
 21
11.21057864376269
 31
0.0
  0
LINE
  5
1F
100
AcDbEntity
  8
USP-GEO
100
AcDbLine
 10
1.919883783521922
 20
11.49342135623733
 30
0.0
 11
2.061305139759239
 21
11.35200000000001
 31
0.0
  0
CIRCLE
  5
20
100
AcDbEntity
  8
USP-GEO
100
AcDbCircle
 10
1.600940586335354
 20
12.35200000000001
 30
0.0
 40
0.09
  0
LINE
  5
21
100
AcDbEntity
  8
USP-GEO
100
AcDbLine
 10
6.220578552325743
 20
0.820433964686048
 30
0.0
 11
6.301999999999992
 21
0.961460048883657
 31
0.0
  0
LINE
  5
22
100
AcDbEntity
  8
USP-GEO
100
AcDbLine
 10
6.35399999999999
 20
-0.0000000000000002
 30
0.0
 11
6.35399999999999
 21
1.52075000000003
 31
0.0
  0
LINE
  5
23
100
AcDbEntity
  8
USP-GEO
100
AcDbLine
 10
6.301999999999987
 20
0.0520000000000006
 30
0.0
 11
6.301999999999987
 21
1.520750000000031
 31
0.0
  0
LINE
  5
24
100
AcDbEntity
  8
USP-GEO
100
AcDbLine
 10
6.301999999999989
 20
0.8574600488836553
 30
0.0
 11
6.265611873322533
 21
0.7944339646860478
 31
0.0
  0
LINE
  5
25
100
AcDbEntity
  8
USP-GEO
100
AcDbLine
 10
6.220578552325743
 20
0.820433964686048
 30
0.0
 11
6.265611873322534
 21
0.7944339646860487
 31
0.0
  0
ARC
  5
26
100
AcDbEntity
  8
USP-GEO
100
AcDbCircle
 10
6.301999999999988
 20
1.34874999999992
 30
0.0
 40
0.2500000000000013
100
AcDbArc
 50
282.0051728307542
 51
26.82019881065014
  0
LINE
  5
27
100
AcDbEntity
  8
USP-GEO
100
AcDbLine
 10
6.414798045269174
 20
1.571856703134207
 30
0.0
 11
6.525106703134275
 21
1.461548045269107
 31
0.0
  0
ARC
  5
28
100
AcDbEntity
  8
USP-GEO
100
AcDbCircle
 10
6.301999999999988
 20
1.34874999999992
 30
0.0
 40
0.2500000000000013
100
AcDbArc
 50
63.17980118934997
 51
77.99482716924578
  0
LINE
  5
29
100
AcDbEntity
  8
USP-GEO
100
AcDbLine
 10
6.301999999999987
 20
1.520750000000031
 30
0.0
 11
6.35399999999999
 21
1.520750000000031
 31
0.0
  0
LINE
  5
2A
100
AcDbEntity
  8
USP-GEO
100
AcDbLine
 10
7.121616216478065
 20
11.2105786437627
 30
0.0
 11
6.980194860240748
 21
11.35200000000001
 31
0.0
  0
LINE
  5
2B
100
AcDbEntity
  8
USP-GEO
100
AcDbLine
 10
6.980194860240749
 20
11.35200000000001
 30
0.0
 11
7.121616216478066
 21
11.49342135623733
 31
0.0
  0
LINE
  5
2C
100
AcDbEntity
  8
USP-GEO
100
AcDbLine
 10
7.263037572715368
 20
11.35200000000002
 30
0.0
 11
7.121616216478064
 21
11.2105786437627
 31
0.0
  0
LINE
  5
2D
100
AcDbEntity
  8
USP-GEO
100
AcDbLine
 10
7.12161621647806
 20
11.49342135623733
 30
0.0
 11
7.263037572715361
 21
11.35200000000001
 31
0.0
  0
CIRCLE
  5
2E
100
AcDbEntity
  8
USP-GEO
100
AcDbCircle
 10
7.440559413664635
 20
12.35200000000002
 30
0.0
 40
0.09
  0
LINE
  5
2F
100
AcDbEntity
  8
USP-HID
100
AcDbLine
 10
0.4408174517711636
 20
16.05199999999998
 30
0.0
 11
2.625424962042594
 21
16.05199999999998
 31
0.0
  0
LINE
  5
32
100
AcDbEntity
  8
USP-GEO
100
AcDbLine
 10
0.4408174517711645
 20
16.10399999999997
 30
0.0
 11
0.9062499999999982
 21
16.10399999999997
 31
0.0
  0
LINE
  5
33
100
AcDbEntity
  8
USP-GEO
100
AcDbLine
 10
0.4408174517711636
 20
16.05199999999998
 30
0.0
 11
0.0
 21
16.05199999999998
 31
0.0
  0
LINE
  5
34
100
AcDbEntity
  8
USP-GEO
100
AcDbLine
 10
0.4408174517711636
 20
16.10399999999997
 30
0.0
 11
0.0
 21
16.10399999999998
 31
0.0
  0
LINE
  5
35
100
AcDbEntity
  8
USP-GEO
100
AcDbLine
 10
-0.0000000000000009
 20
16.05199999999998
 30
0.0
 11
-0.0000000000000009
 21
16.10399999999997
 31
0.0
  0
LINE
  5
36
100
AcDbEntity
  8
USP-GEO
100
AcDbLine
 10
0.4408174517711645
 20
16.05199999999998
 30
0.0
 11
0.4408174517711645
 21
16.10399999999997
 31
0.0
  0
LINE
  5
37
100
AcDbEntity
  8
USP-GEO
100
AcDbLine
 10
2.09375
 20
16.10399999999997
 30
0.0
 11
2.625424962042594
 21
16.10399999999997
 31
0.0
  0
LINE
  5
38
100
AcDbEntity
  8
USP-GEO
100
AcDbLine
 10
1.343749999999998
 20
16.10399999999997
 30
0.0
 11
1.656249999999997
 21
16.10399999999997
 31
0.0
  0
LINE
  5
39
100
AcDbEntity
  8
USP-GEO
100
AcDbLine
 10
1.343749999999996
 20
15.26759954087803
 30
0.0
 11
1.343749999999996
 21
15.02074999999997
 31
0.0
  0
LINE
  5
3A
100
AcDbEntity
  8
USP-GEO
100
AcDbLine
 10
0.9062499999999984
 20
15.02074999999996
 30
0.0
 11
0.9062499999999982
 21
16.12999999999997
 31
0.0
  0
ARC
  5
3B
100
AcDbEntity
  8
USP-GEO
100
AcDbCircle
 10
1.124999999999998
 20
15.02074999999997
 30
0.0
 40
0.21875
100
AcDbArc
 50
180.0000000000004
 51
0.0000000000004507
  0
CIRCLE
  5
3C
100
AcDbEntity
  8
USP-GEO
100
AcDbCircle
 10
1.248286624918418
 20
14.35200000000001
 30
0.0
 40
0.09
  0
LINE
  5
3D
100
AcDbEntity
  8
USP-GEO
100
AcDbLine
 10
1.343749999999995
 20
16.12999999999997
 30
0.0
 11
0.9062499999999973
 21
16.12999999999997
 31
0.0
  0
LINE
  5
3E
100
AcDbEntity
  8
USP-GEO
100
AcDbLine
 10
1.343749999999996
 20
16.12999999999997
 30
0.0
 11
1.343749999999996
 21
15.43640045912199
 31
0.0
  0
ARC
  5
3F
100
AcDbEntity
  8
USP-GEO
100
AcDbCircle
 10
1.312500000000011
 20
15.35200000000001
 30
0.0
 40
0.09
100
AcDbArc
 50
69.6824923651777
 51
290.3175076348226
  0
ARC
  5
40
100
AcDbEntity
  8
USP-GEO
100
AcDbCircle
 10
1.312500000000012
 20
15.35200000000001
 30
0.0
 40
0.09
100
AcDbArc
 50
290.3175076348232
 51
69.68249236517795
  0
LINE
  5
41
100
AcDbEntity
  8
USP-GEO
100
AcDbLine
 10
2.093749999999998
 20
16.12999999999997
 30
0.0
 11
2.093749999999998
 21
15.02074999999997
 31
0.0
  0
LINE
  5
42
100
AcDbEntity
  8
USP-GEO
100
AcDbLine
 10
1.656249999999995
 20
15.02074999999997
 30
0.0
 11
1.656249999999995
 21
16.12999999999997
 31
0.0
  0
ARC
  5
43
100
AcDbEntity
  8
USP-GEO
100
AcDbCircle
 10
1.874999999999998
 20
15.02074999999997
 30
0.0
 40
0.21875
100
AcDbArc
 50
180.0000000000004
 51
0.0
  0
LINE
  5
44
100
AcDbEntity
  8
USP-GEO
100
AcDbLine
 10
2.093749999999996
 20
16.12999999999997
 30
0.0
 11
1.656249999999996
 21
16.12999999999997
 31
0.0
  0
ARC
  5
45
100
AcDbEntity
  8
USP-GEO
100
AcDbCircle
 10
2.758202418937
 20
16.01882793305255
 30
0.0
 40
0.125
100
AcDbArc
 50
190.0000000000076
 51
235.5546887578553
  0
LINE
  5
46
100
AcDbEntity
  8
USP-GEO
100
AcDbLine
 10
2.655728648037564
 20
16.10399999999997
 30
0.0
 11
2.625424962042595
 21
16.10399999999997
 31
0.0
  0
LINE
  5
47
100
AcDbEntity
  8
USP-GEO
100
AcDbLine
 10
2.625424962042593
 20
16.05199999999997
 30
0.0
 11
2.635101449810486
 21
15.99712191084416
 31
0.0
  0
LINE
  5
48
100
AcDbEntity
  8
USP-GEO
100
AcDbLine
 10
2.655728648037565
 20
16.05199999999998
 30
0.0
 11
2.625424962042594
 21
16.05199999999998
 31
0.0
  0
LINE
  5
49
100
AcDbEntity
  8
USP-GEO
100
AcDbLine
 10
2.625424962042594
 20
16.10399999999997
 30
0.0
 11
2.625424962042594
 21
16.05199999999997
 31
0.0
  0
LINE
  5
4A
100
AcDbEntity
  8
USP-GEO
100
AcDbLine
 10
2.655728648037578
 20
16.05199999999997
 30
0.0
 11
2.655728648037578
 21
16.10399999999997
 31
0.0
  0
LINE
  5
4B
100
AcDbEntity
  8
USP-GEO
100
AcDbLine
 10
2.739499999999996
 20
15.9013663554543
 30
0.0
 11
2.739499999999996
 21
15.9157446271468
 31
0.0
  0
LINE
  5
4C
100
AcDbEntity
  8
USP-GEO
100
AcDbLine
 10
2.739499999999997
 20
15.85199999999998
 30
0.0
 11
2.739499999999997
 21
15.90136635545429
 31
0.0
  0
LINE
  5
4D
100
AcDbEntity
  8
USP-GEO
100
AcDbLine
 10
2.687499999999996
 20
15.90136635545429
 30
0.0
 11
2.687499999999996
 21
15.85199999999998
 31
0.0
  0
LINE
  5
4E
100
AcDbEntity
  8
USP-GEO
100
AcDbLine
 10
2.687499999999998
 20
15.9157446271468
 30
0.0
 11
2.687499999999998
 21
15.9013663554543
 31
0.0
  0
LINE
  5
4F
100
AcDbEntity
  8
USP-GEO
100
AcDbLine
 10
2.739499999999996
 20
15.90136635545429
 30
0.0
 11
2.687499999999998
 21
15.90136635545429
 31
0.0
  0
LINE
  5
50
100
AcDbEntity
  8
USP-GEO
100
AcDbLine
 10
2.687499999999997
 20
15.9157446271468
 30
0.0
 11
2.739499999999996
 21
15.9157446271468
 31
0.0
  0
LINE
  5
51
100
AcDbEntity
  8
USP-GEO
100
AcDbLine
 10
2.739499999999997
 20
15.85199999999998
 30
0.0
 11
2.687499999999996
 21
15.85199999999998
 31
0.0
  0
LINE
  5
52
100
AcDbEntity
  8
USP-HID
100
AcDbLine
 10
6.416075037957388
 20
16.05200000000001
 30
0.0
 11
8.600682548228824
 21
16.052
 31
0.0
  0
ARC
  5
53
100
AcDbEntity
  8
USP-GEO
100
AcDbCircle
 10
7.166499999999987
 20
15.02075
 30
0.0
 40
0.21875
100
AcDbArc
 50
179.9999999999973
 51
0.0000000000004507
  0
LINE
  5
54
100
AcDbEntity
  8
USP-GEO
100
AcDbLine
 10
7.38524999999999
 20
16.13000000000001
 30
0.0
 11
6.947749999999989
 21
16.13000000000001
 31
0.0
  0
LINE
  5
55
100
AcDbEntity
  8
USP-GEO
100
AcDbLine
 10
6.947749999999989
 20
15.02075
 30
0.0
 11
6.947749999999989
 21
16.13000000000001
 31
0.0
  0
LINE
  5
56
100
AcDbEntity
  8
USP-GEO
100
AcDbLine
 10
6.416075037957391
 20
16.10400000000001
 30
0.0
 11
6.947749999999991
 21
16.10399999999999
 31
0.0
  0
LINE
  5
57
100
AcDbEntity
  8
USP-GEO
100
AcDbLine
 10
6.416075037957391
 20
16.10400000000001
 30
0.0
 11
6.385771351962412
 21
16.10400000000001
 31
0.0
  0
LINE
  5
58
100
AcDbEntity
  8
USP-GEO
100
AcDbLine
 10
6.406398550189498
 20
15.9971219108442
 30
0.0
 11
6.416075037957391
 21
16.05200000000001
 31
0.0
  0
ARC
  5
59
100
AcDbEntity
  8
USP-GEO
100
AcDbCircle
 10
6.283297581062985
 20
16.01882793305257
 30
0.0
 40
0.125
100
AcDbArc
 50
304.4453112421456
 51
349.9999999999956
  0
LINE
  5
5A
100
AcDbEntity
  8
USP-GEO
100
AcDbLine
 10
6.385771351962412
 20
16.05200000000001
 30
0.0
 11
6.416075037957388
 21
16.05200000000001
 31
0.0
  0
LINE
  5
5B
100
AcDbEntity
  8
USP-GEO
100
AcDbLine
 10
6.353999999999991
 20
15.90136635545434
 30
0.0
 11
6.353999999999991
 21
15.91574462714683
 31
0.0
  0
LINE
  5
5C
100
AcDbEntity
  8
USP-GEO
100
AcDbLine
 10
6.353999999999989
 20
15.85200000000002
 30
0.0
 11
6.353999999999989
 21
15.90136635545433
 31
0.0
  0
LINE
  5
5D
100
AcDbEntity
  8
USP-GEO
100
AcDbLine
 10
6.301999999999988
 20
15.85200000000002
 30
0.0
 11
6.353999999999989
 21
15.85200000000002
 31
0.0
  0
LINE
  5
5E
100
AcDbEntity
  8
USP-GEO
100
AcDbLine
 10
6.30199999999999
 20
15.90136635545433
 30
0.0
 11
6.35399999999999
 21
15.90136635545433
 31
0.0
  0
LINE
  5
5F
100
AcDbEntity
  8
USP-GEO
100
AcDbLine
 10
6.301999999999988
 20
15.85200000000002
 30
0.0
 11
6.301999999999988
 21
15.90136635545433
 31
0.0
  0
LINE
  5
60
100
AcDbEntity
  8
USP-GEO
100
AcDbLine
 10
6.301999999999988
 20
15.91574462714683
 30
0.0
 11
6.353999999999988
 21
15.91574462714683
 31
0.0
  0
LINE
  5
61
100
AcDbEntity
  8
USP-GEO
100
AcDbLine
 10
6.301999999999989
 20
15.91574462714683
 30
0.0
 11
6.301999999999989
 21
15.90136635545434
 31
0.0
  0
LINE
  5
62
100
AcDbEntity
  8
USP-GEO
100
AcDbLine
 10
6.416075037957387
 20
16.05200000000001
 30
0.0
 11
6.416075037957389
 21
16.10400000000001
 31
0.0
  0
LINE
  5
63
100
AcDbEntity
  8
USP-GEO
100
AcDbLine
 10
6.385771351962412
 20
16.05200000000001
 30
0.0
 11
6.385771351962412
 21
16.10400000000001
 31
0.0
  0
LINE
  5
64
100
AcDbEntity
  8
USP-GEO
100
AcDbLine
 10
8.600682548228824
 20
16.05200000000001
 30
0.0
 11
9.041499999999992
 21
16.05200000000001
 31
0.0
  0
LINE
  5
65
100
AcDbEntity
  8
USP-GEO
100
AcDbLine
 10
9.041499999999992
 20
16.10400000000001
 30
0.0
 11
8.600682548228823
 21
16.104
 31
0.0
  0
LINE
  5
66
100
AcDbEntity
  8
USP-GEO
100
AcDbLine
 10
8.135249999999988
 20
16.13000000000001
 30
0.0
 11
7.697749999999987
 21
16.13000000000001
 31
0.0
  0
ARC
  5
67
100
AcDbEntity
  8
USP-GEO
100
AcDbCircle
 10
7.916499999999989
 20
15.02075
 30
0.0
 40
0.21875
100
AcDbArc
 50
179.9999999999978
 51
0.0000000000004507
  0
LINE
  5
68
100
AcDbEntity
  8
USP-GEO
100
AcDbLine
 10
7.697749999999987
 20
15.02075
 30
0.0
 11
7.697749999999987
 21
15.26759954087803
 31
0.0
  0
LINE
  5
69
100
AcDbEntity
  8
USP-GEO
100
AcDbLine
 10
7.385249999999989
 20
16.13000000000001
 30
0.0
 11
7.385249999999989
 21
15.02075
 31
0.0
  0
CIRCLE
  5
6A
100
AcDbEntity
  8
USP-GEO
100
AcDbCircle
 10
7.793213375081568
 20
14.35200000000001
 30
0.0
 40
0.09
  0
LINE
  5
6B
100
AcDbEntity
  8
USP-GEO
100
AcDbLine
 10
7.385249999999991
 20
16.10400000000001
 30
0.0
 11
7.697749999999988
 21
16.10400000000001
 31
0.0
  0
LINE
  5
6C
100
AcDbEntity
  8
USP-GEO
100
AcDbLine
 10
7.697749999999987
 20
15.43640045912199
 30
0.0
 11
7.697749999999987
 21
16.13000000000001
 31
0.0
  0
ARC
  5
6D
100
AcDbEntity
  8
USP-GEO
100
AcDbCircle
 10
7.728999999999972
 20
15.35200000000001
 30
0.0
 40
0.09
100
AcDbArc
 50
249.6824923651758
 51
110.3175076348215
  0
ARC
  5
6E
100
AcDbEntity
  8
USP-GEO
100
AcDbCircle
 10
7.728999999999972
 20
15.35200000000001
 30
0.0
 40
0.09
100
AcDbArc
 50
110.3175076348211
 51
249.6824923651778
  0
LINE
  5
6F
100
AcDbEntity
  8
USP-GEO
100
AcDbLine
 10
8.135249999999988
 20
16.13000000000001
 30
0.0
 11
8.135249999999988
 21
15.02075
 31
0.0
  0
LINE
  5
70
100
AcDbEntity
  8
USP-GEO
100
AcDbLine
 10
8.135249999999992
 20
16.10399999999999
 30
0.0
 11
8.600682548228824
 21
16.104
 31
0.0
  0
LINE
  5
71
100
AcDbEntity
  8
USP-GEO
100
AcDbLine
 10
8.600682548228824
 20
16.104
 30
0.0
 11
8.600682548228824
 21
16.052
 31
0.0
  0
LINE
  5
72
100
AcDbEntity
  8
USP-GEO
100
AcDbLine
 10
9.041499999999992
 20
16.05200000000001
 30
0.0
 11
9.041499999999992
 21
16.10400000000001
 31
0.0
  0
ENDBLK
  5
75
100
AcDbEntity
  8
0
100
AcDbBlockEnd
  0
BLOCK
  5
E7
100
AcDbEntity
  8
0
100
AcDbBlockBegin
  2
THO35160_T
 70
     0
 10
0.0
 20
0.0
 30
0.0
  3
THO35160_T
  1

  0
TEXT
  5
78
100
AcDbEntity
  8
USP-TXT
100
AcDbText
 10
0.5108364706380942
 20
-2.566270278406381
 30
0.0
 40
0.4375
  1
THO35160 - TOP VIEW
 72
     1
 11
4.557711470638094
 21
-2.566270278406381
 31
0.0
100
AcDbText
  0
LINE
  5
79
100
AcDbEntity
  8
USP-GEO
100
AcDbLine
 10
4.020749999999994
 20
0.3232233047033759
 30
0.0
 11
3.843973304703353
 21
0.5000000000000142
 31
0.0
  0
LINE
  5
7A
100
AcDbEntity
  8
USP-GEO
100
AcDbLine
 10
3.843973304703358
 20
0.5000000000000142
 30
0.0
 11
4.020749999999995
 21
0.6767766952966383
 31
0.0
  0
LINE
  5
7B
100
AcDbEntity
  8
USP-GEO
100
AcDbLine
 10
2.7395
 20
0.0
 30
0.0
 11
6.301999999999995
 21
0.0
 31
0.0
  0
LINE
  5
7C
100
AcDbEntity
  8
USP-GEO
100
AcDbLine
 10
2.739500000000002
 20
2.375000000000003
 30
0.0
 11
6.301999999999996
 21
2.375000000000003
 31
0.0
  0
LINE
  5
7D
100
AcDbEntity
  8
USP-HID
100
AcDbLine
 10
0.4408174517711645
 20
2.742568890191037
 30
0.0
 11
2.625424962042594
 21
2.742568890191041
 31
0.0
  0
LINE
  5
7E
100
AcDbEntity
  8
USP-GEO
100
AcDbLine
 10
0.4408174517711645
 20
2.690568890191038
 30
0.0
 11
0.90625
 21
2.690568890191038
 31
0.0
  0
LINE
  5
7F
100
AcDbEntity
  8
USP-GEO
100
AcDbLine
 10
0.0
 20
5.242568890191037
 30
0.0
 11
2.375
 21
5.242568890191037
 31
0.0
  0
LINE
  5
80
100
AcDbEntity
  8
USP-GEO
100
AcDbLine
 10
0.4408174517711645
 20
2.742568890191037
 30
0.0
 11
0.0000000000000004
 21
5.242568890191037
 31
0.0
  0
LINE
  5
81
100
AcDbEntity
  8
USP-GEO
100
AcDbLine
 10
0.4408174517711645
 20
2.742568890191037
 30
0.0
 11
0.4408174517711645
 21
2.690568890191034
 31
0.0
  0
CIRCLE
  5
82
100
AcDbEntity
  8
USP-GEO
100
AcDbCircle
 10
0.4006634903542326
 20
4.742568890191066
 30
0.0
 40
0.09
  0
LINE
  5
83
100
AcDbEntity
  8
USP-GEO
100
AcDbLine
 10
1.703921356237329
 20
4.492568890191066
 30
0.0
 11
1.56250000000001
 21
4.351147533953746
 31
0.0
  0
LINE
  5
84
100
AcDbEntity
  8
USP-GEO
100
AcDbLine
 10
1.562500000000014
 20
4.351147533953749
 30
0.0
 11
1.42107864376271
 21
4.492568890191066
 31
0.0
  0
LINE
  5
85
100
AcDbEntity
  8
USP-GEO
100
AcDbLine
 10
2.374999999999998
 20
5.242568890191037
 30
0.0
 11
2.655728648037579
 21
3.650477612329705
 31
0.0
  0
LINE
  5
86
100
AcDbEntity
  8
USP-GEO
100
AcDbLine
 10
2.09375
 20
2.690568890191038
 30
0.0
 11
2.625424962042594
 21
2.690568890191038
 31
0.0
  0
LINE
  5
87
100
AcDbEntity
  8
USP-GEO
100
AcDbLine
 10
1.343749999999998
 20
2.690568890191038
 30
0.0
 11
1.656249999999998
 21
2.690568890191038
 31
0.0
  0
LINE
  5
88
100
AcDbEntity
  8
USP-GEO
100
AcDbLine
 10
1.343749999999996
 20
3.773818890191041
 30
0.0
 11
1.343749999999996
 21
2.664568890191034
 31
0.0
  0
LINE
  5
89
100
AcDbEntity
  8
USP-GEO
100
AcDbLine
 10
0.9062499999999985
 20
2.664568890191034
 30
0.0
 11
0.9062499999999991
 21
3.773818890191034
 31
0.0
  0
LINE
  5
8A
100
AcDbEntity
  8
USP-GEO
100
AcDbLine
 10
1.343749999999995
 20
2.664568890191034
 30
0.0
 11
0.9062499999999973
 21
2.664568890191034
 31
0.0
  0
ARC
  5
8B
100
AcDbEntity
  8
USP-GEO
100
AcDbCircle
 10
1.124999999999999
 20
3.773818890191041
 30
0.0
 40
0.21875
100
AcDbArc
 50
0.0
 51
180.0000000000028
  0
LINE
  5
8C
100
AcDbEntity
  8
USP-GEO
100
AcDbLine
 10
2.093749999999998
 20
3.773818890191041
 30
0.0
 11
2.093749999999998
 21
2.664568890191034
 31
0.0
  0
LINE
  5
8D
100
AcDbEntity
  8
USP-GEO
100
AcDbLine
 10
1.656249999999996
 20
2.664568890191038
 30
0.0
 11
1.656249999999997
 21
3.773818890191034
 31
0.0
  0
LINE
  5
8E
100
AcDbEntity
  8
USP-GEO
100
AcDbLine
 10
2.093749999999997
 20
2.664568890191038
 30
0.0
 11
1.656249999999997
 21
2.664568890191038
 31
0.0
  0
ARC
  5
8F
100
AcDbEntity
  8
USP-GEO
100
AcDbCircle
 10
1.874999999999999
 20
3.773818890191041
 30
0.0
 40
0.21875
100
AcDbArc
 50
0.0
 51
180.0000000000028
  0
LINE
  5
90
100
AcDbEntity
  8
USP-GEO
100
AcDbLine
 10
2.739499999999996
 20
0.0
 30
0.0
 11
2.739499999999996
 21
2.526986042278174
 31
0.0
  0
LINE
  5
91
100
AcDbEntity
  8
USP-GEO
100
AcDbLine
 10
2.687499999999997
 20
2.526986042278174
 30
0.0
 11
2.687499999999997
 21
0.0
 31
0.0
  0
ARC
  5
92
100
AcDbEntity
  8
USP-GEO
100
AcDbCircle
 10
2.739499999999996
 20
0.699983190352782
 30
0.0
 40
0.2500000000000013
100
AcDbArc
 50
102.0051728307533
 51
257.9948271692467
  0
ELLIPSE
  5
93
100
AcDbEntity
  8
USP-GEO
100
AcDbEllipse
 10
2.610814336462831
 20
0.699983190352782
 30
0.0
 11
0.0
 21
-0.0779999999999994
 31
0.0
210
0.0
220
0.0
230
1.0
 40
0.7071067811865478
 41
3.505545843107642
 42
5.919232117661746
  0
ELLIPSE
  5
94
100
AcDbEntity
  8
USP-GEO
100
AcDbEllipse
 10
2.571547625798261
 20
0.699983190352782
 30
0.0
 11
0.0
 21
-0.0779999999999994
 31
0.0
210
0.0
220
0.0
230
1.0
 40
0.7071067811865478
 41
0.0
 42
6.283185307179586
  0
LINE
  5
95
100
AcDbEntity
  8
USP-GEO
100
AcDbLine
 10
2.739499999999996
 20
0.0
 30
0.0
 11
2.687499999999997
 21
0.0
 31
0.0
  0
LINE
  5
96
100
AcDbEntity
  8
USP-GEO
100
AcDbLine
 10
2.820921447674246
 20
1.75
 30
0.0
 11
2.7395
 21
1.58715710465151
 31
0.0
  0
LINE
  5
97
100
AcDbEntity
  8
USP-GEO
100
AcDbLine
 10
2.739499999999999
 20
1.912842895348465
 30
0.0
 11
2.820921447674245
 21
1.75
 31
0.0
  0
ARC
  5
98
100
AcDbEntity
  8
USP-GEO
100
AcDbCircle
 10
2.517110634992178
 20
3.234579723847797
 30
0.0
 40
0.125
100
AcDbArc
 50
144.999999999985
 51
255.4761503569665
  0
LINE
  5
99
100
AcDbEntity
  8
USP-GEO
100
AcDbLine
 10
2.635101449810477
 20
2.690568890191038
 30
0.0
 11
2.687499999999998
 21
2.690568890191038
 31
0.0
  0
LINE
  5
9A
100
AcDbEntity
  8
USP-GEO
100
AcDbLine
 10
2.687499999999997
 20
2.742568890191037
 30
0.0
 11
2.635101449810476
 21
2.742568890191037
 31
0.0
  0
LINE
  5
9B
100
AcDbEntity
  8
USP-GEO
100
AcDbLine
 10
2.625424962042596
 20
2.742568890191034
 30
0.0
 11
2.625424962042596
 21
2.690568890191038
 31
0.0
  0
LINE
  5
9C
100
AcDbEntity
  8
USP-GEO
100
AcDbLine
 10
2.635101449810488
 20
2.742568890191034
 30
0.0
 11
2.635101449810488
 21
2.690568890191034
 31
0.0
  0
LINE
  5
9D
100
AcDbEntity
  8
USP-GEO
100
AcDbLine
 10
2.625424962042594
 20
2.690568890191034
 30
0.0
 11
2.635101449810487
 21
2.690568890191034
 31
0.0
  0
LINE
  5
9E
100
AcDbEntity
  8
USP-GEO
100
AcDbLine
 10
2.635101449810488
 20
2.742568890191034
 30
0.0
 11
2.625424962042595
 21
2.742568890191034
 31
0.0
  0
LINE
  5
9F
100
AcDbEntity
  8
USP-GEO
100
AcDbLine
 10
2.57751585950629
 20
3.014274912399404
 30
0.0
 11
2.625424962042596
 21
2.742568890191034
 31
0.0
  0
ARC
  5
A0
100
AcDbEntity
  8
USP-GEO
100
AcDbCircle
 10
2.454414890379751
 20
2.992568890191034
 30
0.0
 40
0.125
100
AcDbArc
 50
10.00000000000019
 51
75.47615035697282
  0
LINE
  5
A1
100
AcDbEntity
  8
USP-GEO
100
AcDbLine
 10
2.739499999999997
 20
2.742568890191034
 30
0.0
 11
2.739499999999997
 21
2.690568890191038
 31
0.0
  0
LINE
  5
A2
100
AcDbEntity
  8
USP-GEO
100
AcDbLine
 10
2.687499999999996
 20
2.742568890191037
 30
0.0
 11
2.687499999999996
 21
2.690568890191034
 31
0.0
  0
LINE
  5
A3
100
AcDbEntity
  8
USP-GEO
100
AcDbLine
 10
2.687499999999998
 20
2.690568890191034
 30
0.0
 11
2.739499999999996
 21
2.690568890191034
 31
0.0
  0
LINE
  5
A4
100
AcDbEntity
  8
USP-GEO
100
AcDbLine
 10
2.739499999999998
 20
2.526986042278171
 30
0.0
 11
2.739499999999998
 21
2.66261898916975
 31
0.0
  0
LINE
  5
A5
100
AcDbEntity
  8
USP-GEO
100
AcDbLine
 10
2.687499999999997
 20
2.66261898916975
 30
0.0
 11
2.687499999999997
 21
2.526986042278174
 31
0.0
  0
LINE
  5
A6
100
AcDbEntity
  8
USP-GEO
100
AcDbLine
 10
2.739499999999996
 20
2.66261898916975
 30
0.0
 11
2.687499999999998
 21
2.66261898916975
 31
0.0
  0
LINE
  5
A7
100
AcDbEntity
  8
USP-GEO
100
AcDbLine
 10
2.739499999999998
 20
2.526986042278171
 30
0.0
 11
2.687499999999997
 21
2.526986042278171
 31
0.0
  0
LINE
  5
A8
100
AcDbEntity
  8
USP-GEO
100
AcDbLine
 10
2.739499999999997
 20
2.662618989169743
 30
0.0
 11
2.739499999999997
 21
2.690568890191034
 31
0.0
  0
LINE
  5
A9
100
AcDbEntity
  8
USP-GEO
100
AcDbLine
 10
2.6875
 20
2.690568890191034
 30
0.0
 11
2.6875
 21
2.662618989169743
 31
0.0
  0
LINE
  5
AA
100
AcDbEntity
  8
USP-GEO
100
AcDbLine
 10
2.687499999999996
 20
2.742568890191037
 30
0.0
 11
2.739499999999997
 21
2.742568890191037
 31
0.0
  0
LINE
  5
AB
100
AcDbEntity
  8
USP-GEO
100
AcDbLine
 10
2.655728648037564
 20
3.650477612329716
 30
0.0
 11
2.414716629456077
 21
3.306276778391701
 31
0.0
  0
LINE
  5
AC
100
AcDbEntity
  8
USP-GEO
100
AcDbLine
 10
1.421078643762712
 20
4.492568890191062
 30
0.0
 11
1.562500000000014
 21
4.633990246428378
 31
0.0
  0
LINE
  5
AD
100
AcDbEntity
  8
USP-GEO
100
AcDbLine
 10
1.562500000000011
 20
4.633990246428382
 30
0.0
 11
1.703921356237328
 21
4.492568890191066
 31
0.0
  0
CIRCLE
  5
AE
100
AcDbEntity
  8
USP-GEO
100
AcDbCircle
 10
2.062500000000014
 20
4.992568890191062
 30
0.0
 40
0.09
  0
LINE
  5
AF
100
AcDbEntity
  8
USP-HID
100
AcDbLine
 10
6.416075037957389
 20
2.742568890191034
 30
0.0
 11
8.600682548228824
 21
2.742568890191034
 31
0.0
  0
LINE
  5
B0
100
AcDbEntity
  8
USP-GEO
100
AcDbLine
 10
7.385249999999991
 20
2.664568890191031
 30
0.0
 11
6.947749999999991
 21
2.664568890191031
 31
0.0
  0
ARC
  5
B1
100
AcDbEntity
  8
USP-GEO
100
AcDbCircle
 10
7.166499999999989
 20
3.773818890191034
 30
0.0
 40
0.21875
100
AcDbArc
 50
0.0
 51
180.000000000001
  0
LINE
  5
B2
100
AcDbEntity
  8
USP-GEO
100
AcDbLine
 10
6.666499999999991
 20
5.242568890191034
 30
0.0
 11
9.041499999999992
 21
5.242568890191034
 31
0.0
  0
LINE
  5
B3
100
AcDbEntity
  8
USP-GEO
100
AcDbLine
 10
6.385771351962414
 20
3.650477612329734
 30
0.0
 11
6.666499999999992
 21
5.242568890191034
 31
0.0
  0
LINE
  5
B4
100
AcDbEntity
  8
USP-GEO
100
AcDbLine
 10
4.020749999999996
 20
0.6767766952966383
 30
0.0
 11
4.197526695296634
 21
0.5000000000000142
 31
0.0
  0
LINE
  5
B5
100
AcDbEntity
  8
USP-GEO
100
AcDbLine
 10
4.197526695296632
 20
0.5000000000000142
 30
0.0
 11
4.020749999999994
 21
0.3232233047033759
 31
0.0
  0
LINE
  5
B6
100
AcDbEntity
  8
USP-GEO
100
AcDbLine
 10
5.197526695296632
 20
0.5000000000000142
 30
0.0
 11
5.020749999999994
 21
0.3232233047033759
 31
0.0
  0
LINE
  5
B7
100
AcDbEntity
  8
USP-GEO
100
AcDbLine
 10
5.020749999999993
 20
0.6767766952966383
 30
0.0
 11
5.197526695296632
 21
0.5000000000000142
 31
0.0
  0
LINE
  5
B8
100
AcDbEntity
  8
USP-GEO
100
AcDbLine
 10
4.843973304703356
 20
0.5000000000000142
 30
0.0
 11
5.020749999999994
 21
0.6767766952966383
 31
0.0
  0
LINE
  5
B9
100
AcDbEntity
  8
USP-GEO
100
AcDbLine
 10
5.020749999999993
 20
0.3232233047033759
 30
0.0
 11
4.843973304703355
 21
0.5000000000000142
 31
0.0
  0
LINE
  5
BA
100
AcDbEntity
  8
USP-GEO
100
AcDbLine
 10
6.353999999999992
 20
-0.0000000000000036
 30
0.0
 11
6.35399999999999
 21
2.526986042278171
 31
0.0
  0
LINE
  5
BB
100
AcDbEntity
  8
USP-GEO
100
AcDbLine
 10
6.301999999999989
 20
-0.0000000000000036
 30
0.0
 11
6.301999999999988
 21
2.526986042278171
 31
0.0
  0
LINE
  5
BC
100
AcDbEntity
  8
USP-GEO
100
AcDbLine
 10
6.301999999999994
 20
1.912843332870785
 30
0.0
 11
6.220578552325745
 21
1.750000437522317
 31
0.0
  0
LINE
  5
BD
100
AcDbEntity
  8
USP-GEO
100
AcDbLine
 10
6.220578552325745
 20
1.750000437522313
 30
0.0
 11
6.301999999999994
 21
1.587157542173816
 31
0.0
  0
ARC
  5
BE
100
AcDbEntity
  8
USP-GEO
100
AcDbCircle
 10
6.30199999999999
 20
0.2999831903527728
 30
0.0
 40
0.2500000000000013
100
AcDbArc
 50
282.0051728307542
 51
77.99482716924551
  0
ELLIPSE
  5
BF
100
AcDbEntity
  8
USP-GEO
100
AcDbEllipse
 10
6.469952374201726
 20
0.2999831903527728
 30
0.0
 11
0.0
 21
-0.0779999999999994
 31
0.0
210
0.0
220
0.0
230
1.0
 40
0.7071067811865479
 41
0.0
 42
6.283185307179586
  0
LINE
  5
C0
100
AcDbEntity
  8
USP-GEO
100
AcDbLine
 10
6.301999999999989
 20
-0.0000000000000036
 30
0.0
 11
6.353999999999992
 21
-0.0000000000000036
 31
0.0
  0
ELLIPSE
  5
C1
100
AcDbEntity
  8
USP-GEO
100
AcDbEllipse
 10
6.430685663537155
 20
0.2999831903527728
 30
0.0
 11
0.0
 21
-0.0779999999999994
 31
0.0
210
0.0
220
0.0
230
1.0
 40
0.7071067811865479
 41
0.3639531895178322
 42
2.777639464071932
  0
LINE
  5
C2
100
AcDbEntity
  8
USP-GEO
100
AcDbLine
 10
6.947749999999992
 20
2.664568890191031
 30
0.0
 11
6.947749999999992
 21
3.773818890191034
 31
0.0
  0
ARC
  5
C3
100
AcDbEntity
  8
USP-GEO
100
AcDbCircle
 10
6.52438936500781
 20
3.234579723847797
 30
0.0
 40
0.125
100
AcDbArc
 50
284.5238496430291
 51
35.00000000000083
  0
LINE
  5
C4
100
AcDbEntity
  8
USP-GEO
100
AcDbLine
 10
6.416075037957392
 20
2.690568890191034
 30
0.0
 11
6.947749999999992
 21
2.690568890191034
 31
0.0
  0
LINE
  5
C5
100
AcDbEntity
  8
USP-GEO
100
AcDbLine
 10
6.353999999999989
 20
2.742568890191034
 30
0.0
 11
6.353999999999989
 21
2.690568890191034
 31
0.0
  0
LINE
  5
C6
100
AcDbEntity
  8
USP-GEO
100
AcDbLine
 10
6.30199999999999
 20
2.742568890191034
 30
0.0
 11
6.30199999999999
 21
2.690568890191034
 31
0.0
  0
LINE
  5
C7
100
AcDbEntity
  8
USP-GEO
100
AcDbLine
 10
6.4063985501895
 20
2.742568890191034
 30
0.0
 11
6.4063985501895
 21
2.690568890191034
 31
0.0
  0
LINE
  5
C8
100
AcDbEntity
  8
USP-GEO
100
AcDbLine
 10
6.416075037957392
 20
2.742568890191034
 30
0.0
 11
6.416075037957392
 21
2.690568890191034
 31
0.0
  0
LINE
  5
C9
100
AcDbEntity
  8
USP-GEO
100
AcDbLine
 10
6.406398550189498
 20
2.690568890191034
 30
0.0
 11
6.416075037957392
 21
2.690568890191034
 31
0.0
  0
LINE
  5
CA
100
AcDbEntity
  8
USP-GEO
100
AcDbLine
 10
6.353999999999989
 20
2.690568890191034
 30
0.0
 11
6.406398550189509
 21
2.690568890191034
 31
0.0
  0
LINE
  5
CB
100
AcDbEntity
  8
USP-GEO
100
AcDbLine
 10
6.301999999999989
 20
2.690568890191034
 30
0.0
 11
6.353999999999988
 21
2.690568890191034
 31
0.0
  0
LINE
  5
CC
100
AcDbEntity
  8
USP-GEO
100
AcDbLine
 10
6.35399999999999
 20
2.526986042278171
 30
0.0
 11
6.35399999999999
 21
2.662618989169747
 31
0.0
  0
LINE
  5
CD
100
AcDbEntity
  8
USP-GEO
100
AcDbLine
 10
6.301999999999988
 20
2.526986042278171
 30
0.0
 11
6.35399999999999
 21
2.526986042278171
 31
0.0
  0
LINE
  5
CE
100
AcDbEntity
  8
USP-GEO
100
AcDbLine
 10
6.301999999999991
 20
2.66261898916975
 30
0.0
 11
6.353999999999991
 21
2.66261898916975
 31
0.0
  0
LINE
  5
CF
100
AcDbEntity
  8
USP-GEO
100
AcDbLine
 10
6.301999999999988
 20
2.526986042278171
 30
0.0
 11
6.301999999999988
 21
2.66261898916975
 31
0.0
  0
LINE
  5
D0
100
AcDbEntity
  8
USP-GEO
100
AcDbLine
 10
6.353999999999992
 20
2.66261898916974
 30
0.0
 11
6.353999999999992
 21
2.690568890191034
 31
0.0
  0
LINE
  5
D1
100
AcDbEntity
  8
USP-GEO
100
AcDbLine
 10
6.30199999999999
 20
2.69056889019103
 30
0.0
 11
6.30199999999999
 21
2.662618989169747
 31
0.0
  0
ARC
  5
D2
100
AcDbEntity
  8
USP-GEO
100
AcDbCircle
 10
6.587085109620238
 20
2.992568890191034
 30
0.0
 40
0.125
100
AcDbArc
 50
104.5238496430315
 51
169.9999999999965
  0
LINE
  5
D3
100
AcDbEntity
  8
USP-GEO
100
AcDbLine
 10
6.416075037957389
 20
2.742568890191034
 30
0.0
 11
6.463984140493696
 21
3.014274912399411
 31
0.0
  0
LINE
  5
D4
100
AcDbEntity
  8
USP-GEO
100
AcDbLine
 10
6.353999999999989
 20
2.742568890191034
 30
0.0
 11
6.30199999999999
 21
2.742568890191034
 31
0.0
  0
LINE
  5
D5
100
AcDbEntity
  8
USP-GEO
100
AcDbLine
 10
6.40639855018951
 20
2.742568890191034
 30
0.0
 11
6.35399999999999
 21
2.742568890191034
 31
0.0
  0
LINE
  5
D6
100
AcDbEntity
  8
USP-GEO
100
AcDbLine
 10
6.4063985501895
 20
2.742568890191034
 30
0.0
 11
6.416075037957392
 21
2.742568890191034
 31
0.0
  0
LINE
  5
D7
100
AcDbEntity
  8
USP-GEO
100
AcDbLine
 10
6.626783370543931
 20
3.306276778391676
 30
0.0
 11
6.385771351962413
 21
3.650477612329734
 31
0.0
  0
CIRCLE
  5
D8
100
AcDbEntity
  8
USP-GEO
100
AcDbCircle
 10
6.978999999999976
 20
4.992568890191034
 30
0.0
 40
0.09
  0
LINE
  5
D9
100
AcDbEntity
  8
USP-GEO
100
AcDbLine
 10
7.620421356237277
 20
4.492568890191034
 30
0.0
 11
7.478999999999974
 21
4.351147533953717
 31
0.0
  0
LINE
  5
DA
100
AcDbEntity
  8
USP-GEO
100
AcDbLine
 10
7.478999999999976
 20
4.351147533953714
 30
0.0
 11
7.337578643762661
 21
4.49256889019103
 31
0.0
  0
LINE
  5
DB
100
AcDbEntity
  8
USP-GEO
100
AcDbLine
 10
9.041499999999992
 20
5.242568890191034
 30
0.0
 11
8.600682548228824
 21
2.742568890191034
 31
0.0
  0
ARC
  5
DC
100
AcDbEntity
  8
USP-GEO
100
AcDbCircle
 10
7.916499999999989
 20
3.773818890191034
 30
0.0
 40
0.21875
100
AcDbArc
 50
0.0
 51
180.000000000001
  0
LINE
  5
DD
100
AcDbEntity
  8
USP-GEO
100
AcDbLine
 10
8.135249999999992
 20
2.664568890191034
 30
0.0
 11
7.697749999999989
 21
2.664568890191034
 31
0.0
  0
LINE
  5
DE
100
AcDbEntity
  8
USP-GEO
100
AcDbLine
 10
7.697749999999988
 20
2.664568890191034
 30
0.0
 11
7.697749999999989
 21
3.773818890191034
 31
0.0
  0
LINE
  5
DF
100
AcDbEntity
  8
USP-GEO
100
AcDbLine
 10
7.385249999999992
 20
3.773818890191034
 30
0.0
 11
7.385249999999992
 21
2.664568890191034
 31
0.0
  0
LINE
  5
E0
100
AcDbEntity
  8
USP-GEO
100
AcDbLine
 10
7.385249999999992
 20
2.690568890191034
 30
0.0
 11
7.697749999999989
 21
2.690568890191034
 31
0.0
  0
LINE
  5
E1
100
AcDbEntity
  8
USP-GEO
100
AcDbLine
 10
8.135249999999992
 20
3.773818890191034
 30
0.0
 11
8.135249999999992
 21
2.664568890191031
 31
0.0
  0
LINE
  5
E2
100
AcDbEntity
  8
USP-GEO
100
AcDbLine
 10
8.135249999999992
 20
2.690568890191034
 30
0.0
 11
8.600682548228824
 21
2.690568890191034
 31
0.0
  0
LINE
  5
E3
100
AcDbEntity
  8
USP-GEO
100
AcDbLine
 10
8.600682548228824
 20
2.742568890191034
 30
0.0
 11
8.600682548228824
 21
2.690568890191034
 31
0.0
  0
CIRCLE
  5
E4
100
AcDbEntity
  8
USP-GEO
100
AcDbCircle
 10
8.640836509645758
 20
4.742568890191034
 30
0.0
 40
0.09
  0
LINE
  5
E5
100
AcDbEntity
  8
USP-GEO
100
AcDbLine
 10
7.478999999999981
 20
4.63399024642835
 30
0.0
 11
7.620421356237284
 21
4.492568890191034
 31
0.0
  0
LINE
  5
E6
100
AcDbEntity
  8
USP-GEO
100
AcDbLine
 10
7.337578643762658
 20
4.492568890191034
 30
0.0
 11
7.478999999999974
 21
4.63399024642835
 31
0.0
  0
ENDBLK
  5
E8
100
AcDbEntity
  8
0
100
AcDbBlockEnd
  0
BLOCK
  5
10E
100
AcDbEntity
  8
0
100
AcDbBlockBegin
  2
THO35160_S
 70
     0
 10
0.0
 20
0.0
 30
0.0
  3
THO35160_S
  1

  0
LINE
  5
EB
100
AcDbEntity
  8
USP-GEO
100
AcDbLine
 10
2.690568890191036
 20
16.052
 30
0.0
 11
2.690568890191054
 21
3.310430109777517
 31
0.0
  0
LINE
  5
EC
100
AcDbEntity
  8
USP-GEO
100
AcDbLine
 10
-0.0000000000000018
 20
1.520750000000031
 30
0.0
 11
2.526986042278174
 21
15.85200000000002
 31
0.0
  0
LINE
  5
ED
100
AcDbEntity
  8
USP-GEO
100
AcDbLine
 10
2.742568890191055
 20
3.310430109777518
 30
0.0
 11
2.742568890191037
 21
16.052
 31
0.0
  0
TEXT
  5
EE
100
AcDbEntity
  8
USP-TXT
100
AcDbText
 10
-1.435911725815556
 20
-2.583760405064855
 30
0.0
 40
0.4375
  1
THO35160 - SIDE VIEW
 72
     1
 11
2.756796607517774
 21
-2.583760405064855
 31
0.0
100
AcDbText
  0
LINE
  5
EF
100
AcDbEntity
  8
USP-HID
100
AcDbLine
 10
2.375
 20
0.0520000000000052
 30
0.0
 11
0.0
 21
0.0520000000000022
 31
0.0
  0
LINE
  5
F0
100
AcDbEntity
  8
USP-GEO
100
AcDbLine
 10
2.375
 20
0.0000000000000082
 30
0.0
 11
0.0
 21
0.0000000000000015
 31
0.0
  0
LINE
  5
F1
100
AcDbEntity
  8
USP-GEO
100
AcDbLine
 10
0.0
 20
0.0
 30
0.0
 11
-0.0000000000000018
 21
1.520750000000031
 31
0.0
  0
CIRCLE
  5
F2
100
AcDbEntity
  8
USP-GEO
100
AcDbCircle
 10
0.2999831903527728
 20
1.34874999999992
 30
0.0
 40
0.2445322064677788
  0
ELLIPSE
  5
F3
100
AcDbEntity
  8
USP-GEO
100
AcDbEllipse
 10
0.2999831903527728
 20
1.516702374201657
 30
0.0
 11
-0.0779999999999994
 21
0.0000000000000006
 31
0.0
210
0.0
220
0.0
230
1.0
 40
0.7071067811865472
 41
0.0
 42
6.283185307179586
  0
ELLIPSE
  5
F4
100
AcDbEntity
  8
USP-GEO
100
AcDbEllipse
 10
0.2999831903527728
 20
1.477435663537085
 30
0.0
 11
-0.0779999999999994
 21
-0.0000000000000008
 31
0.0
210
0.0
220
0.0
230
1.0
 40
0.7071067811865472
 41
3.505545843107642
 42
5.919232117661722
  0
LINE
  5
F5
100
AcDbEntity
  8
USP-GEO
100
AcDbLine
 10
1.750000437522317
 20
0.7944339646860488
 30
0.0
 11
1.926776690877202
 21
0.9475266908772395
 31
0.0
  0
LINE
  5
F6
100
AcDbEntity
  8
USP-GEO
100
AcDbLine
 10
1.573223746645084
 20
0.9475270697826804
 30
0.0
 11
1.750000437522317
 21
0.794433964686048
 31
0.0
  0
LINE
  5
F7
100
AcDbEntity
  8
USP-GEO
100
AcDbLine
 10
1.926776690877204
 20
0.9475266908772374
 30
0.0
 11
1.75
 21
0.7707500000000036
 31
0.0
  0
LINE
  5
F8
100
AcDbEntity
  8
USP-GEO
100
AcDbLine
 10
1.749999999999994
 20
0.7707500000000028
 30
0.0
 11
1.573223309122761
 21
0.9475266908772354
 31
0.0
  0
LINE
  5
F9
100
AcDbEntity
  8
USP-GEO
100
AcDbLine
 10
2.374999999999996
 20
1.520750000000034
 30
0.0
 11
2.375
 21
0.0000000000000082
 31
0.0
  0
LINE
  5
FA
100
AcDbEntity
  8
USP-GEO
100
AcDbLine
 10
2.690568890191055
 20
3.310430109777517
 30
0.0
 11
2.374999999999998
 21
1.520750000000034
 31
0.0
  0
LINE
  5
FB
100
AcDbEntity
  8
USP-GEO
100
AcDbLine
 10
1.573223309122765
 20
0.9475266908772381
 30
0.0
 11
1.926776690877202
 21
0.9475266908772384
 31
0.0
  0
LINE
  5
FC
100
AcDbEntity
  8
USP-GEO
100
AcDbLine
 10
2.742568890191055
 20
3.310430109777518
 30
0.0
 11
2.690568890191054
 21
3.310430109777518
 31
0.0
  0
LINE
  5
FD
100
AcDbEntity
  8
USP-GEO
100
AcDbLine
 10
2.742568890191037
 20
16.05200000000001
 30
0.0
 11
5.242568890191037
 21
16.05200000000001
 31
0.0
  0
LINE
  5
FE
100
AcDbEntity
  8
USP-GEO
100
AcDbLine
 10
5.242568890191037
 20
16.10400000000001
 30
0.0
 11
2.742568890191037
 21
16.104
 31
0.0
  0
LINE
  5
FF
100
AcDbEntity
  8
USP-GEO
100
AcDbLine
 10
3.773818890191037
 20
16.13000000000001
 30
0.0
 11
2.664568890191036
 21
16.13000000000001
 31
0.0
  0
LINE
  5
100
100
AcDbEntity
  8
USP-GEO
100
AcDbLine
 10
2.664568890191036
 20
16.13000000000001
 30
0.0
 11
2.664568890191038
 21
15.02075
 31
0.0
  0
LINE
  5
101
100
AcDbEntity
  8
USP-GEO
100
AcDbLine
 10
2.664568890191038
 20
15.02075
 30
0.0
 11
2.664568890191038
 21
14.802
 31
0.0
  0
LINE
  5
102
100
AcDbEntity
  8
USP-GEO
100
AcDbLine
 10
2.690568890191038
 20
14.80200000000001
 30
0.0
 11
2.664568890191038
 21
14.80200000000001
 31
0.0
  0
LINE
  5
103
100
AcDbEntity
  8
USP-GEO
100
AcDbLine
 10
2.690568890191038
 20
15.02075
 30
0.0
 11
2.664568890191038
 21
15.02075
 31
0.0
  0
LINE
  5
104
100
AcDbEntity
  8
USP-GEO
100
AcDbLine
 10
2.526986042278174
 20
15.85200000000002
 30
0.0
 11
2.66261898916975
 21
15.90136635545433
 31
0.0
  0
LINE
  5
105
100
AcDbEntity
  8
USP-GEO
100
AcDbLine
 10
2.742568890191037
 20
16.104
 30
0.0
 11
2.690568890191038
 21
16.104
 31
0.0
  0
LINE
  5
106
100
AcDbEntity
  8
USP-GEO
100
AcDbLine
 10
2.742568890191037
 20
16.052
 30
0.0
 11
2.690568890191038
 21
16.052
 31
0.0
  0
ARC
  5
107
100
AcDbEntity
  8
USP-GEO
100
AcDbCircle
 10
2.619866471254034
 20
16.01882793305258
 30
0.0
 40
0.125
100
AcDbArc
 50
290.0000000000007
 51
290.9540640387349
  0
LINE
  5
108
100
AcDbEntity
  8
USP-GEO
100
AcDbLine
 10
2.690568890191038
 20
16.104
 30
0.0
 11
2.690568890191038
 21
16.052
 31
0.0
  0
LINE
  5
109
100
AcDbEntity
  8
USP-GEO
100
AcDbLine
 10
2.742568890191037
 20
16.052
 30
0.0
 11
2.742568890191037
 21
16.104
 31
0.0
  0
LINE
  5
10A
100
AcDbEntity
  8
USP-GEO
100
AcDbLine
 10
3.992568890191037
 20
16.13
 30
0.0
 11
3.773818890191037
 21
16.13
 31
0.0
  0
LINE
  5
10B
100
AcDbEntity
  8
USP-GEO
100
AcDbLine
 10
3.773818890191037
 20
16.104
 30
0.0
 11
3.773818890191037
 21
16.13000000000001
 31
0.0
  0
LINE
  5
10C
100
AcDbEntity
  8
USP-GEO
100
AcDbLine
 10
3.992568890191041
 20
16.10400000000001
 30
0.0
 11
3.992568890191041
 21
16.13
 31
0.0
  0
LINE
  5
10D
100
AcDbEntity
  8
USP-GEO
100
AcDbLine
 10
5.242568890191037
 20
16.05200000000001
 30
0.0
 11
5.242568890191037
 21
16.10400000000001
 31
0.0
  0
ENDBLK
  5
10F
100
AcDbEntity
  8
0
100
AcDbBlockEnd
  0
ENDSEC
  0
SECTION
  2
ENTITIES
  0
INSERT
  5
3
100
AcDbEntity
  8
USP
100
AcDbBlockReference
  2
THO35160_F
 10
0.0014162384853629
 20
2.584975406175297
 30
0.0
  0
INSERT
  5
76
100
AcDbEntity
  8
USP
100
AcDbBlockReference
  2
THO35160_T
 10
0.0014162384853629
 20
24.37265348917104
 30
0.0
  0
INSERT
  5
E9
100
AcDbEntity
  8
USP
100
AcDbBlockReference
  2
THO35160_S
 10
13.47396588211264
 20
2.584975406175297
 30
0.0
  0
VIEWPORT
  5
115
102
{ACAD_XDICTIONARY
360
116
102
}
100
AcDbEntity
 67
     1
  8
0
100
AcDbViewport
 10
5.285416850893516
 20
3.968749891115924
 30
0.0
 40
13.50573247017707
 41
8.992999745766947
 68
    -1
 69
     1
1001
ACAD
1000
MVIEW
1002
{
1070
    16
1010
0.0
1020
0.0
1030
0.0
1010
0.0
1020
0.0
1030
1.0
1040
0.0
1040
8.992999745766947
1040
5.285416850893516
1040
3.968749891115924
1040
50.0
1040
0.0
1040
0.0
1070
     0
1070
   100
1070
     1
1070
     1
1070
     0
1070
     0
1070
     0
1070
     0
1040
0.0
1040
0.0
1040
0.0
1040
0.5
1040
0.5
1040
0.5
1040
0.5
1070
     0
1002
{
1002
}
1002
}
  0
ENDSEC
  0
SECTION
  2
OBJECTS
  0
DICTIONARY
  5
12C
102
{ACAD_XDICTIONARY
360
12D
102
}
100
AcDbDictionary
  3
ACAD_GROUP
350
12A
  3
ACAD_MLINESTYLE
350
12B
  0
DICTIONARY
  5
110
100
AcDbDictionary
280
     1
  3
ACAD_LAYOUTSELFREF
360
111
  0
DICTIONARY
  5
11A
100
AcDbDictionary
280
     1
  3
ACAD_LAYOUTSELFREF
360
11B
  0
DICTIONARY
  5
116
100
AcDbDictionary
280
     1
  3
ACAD_XREC_ROUNDTRIP
360
117
  0
DICTIONARY
  5
12D
100
AcDbDictionary
280
     1
  3
ACAD_XREC_ROUNDTRIP
360
12E
  0
DICTIONARY
  5
12A
102
{ACAD_REACTORS
330
12C
102
}
100
AcDbDictionary
  0
DICTIONARY
  5
12B
102
{ACAD_REACTORS
330
12C
102
}
100
AcDbDictionary
  3
STANDARD
350
12F
  0
XRECORD
  5
111
102
{ACAD_REACTORS
330
110
102
}
100
AcDbXrecord
340
18
  0
XRECORD
  5
11B
102
{ACAD_REACTORS
330
11A
102
}
100
AcDbXrecord
340
15
  0
XRECORD
  5
117
102
{ACAD_REACTORS
330
116
102
}
100
AcDbXrecord
102
UCS
 74
     0
 71
     1
 10
0.0
 20
0.0
 30
0.0
 10
1.0
 20
0.0
 30
0.0
 10
0.0
 20
1.0
 30
0.0
146
0.0
 79
     0
102
VIEW
281
     0
102
NEWVIEWCONTROL
280
     4
  0
XRECORD
  5
12E
102
{ACAD_REACTORS
330
12D
102
}
100
AcDbXrecord
102
EXTNAMES
  1
ACDBVARIABLEDICTIONARY
  2
AcDbVariableDictionary
  0
MLINESTYLE
  5
12F
102
{ACAD_REACTORS
330
12B
102
}
100
AcDbMlineStyle
  2
STANDARD
 70
     0
  3

 62
     0
 51
90.0
 52
90.0
 71
     2
 49
0.5
 62
   256
  6
BYLAYER
 49
-0.5
 62
   256
  6
BYLAYER
  0
ENDSEC
  0
EOF
