  0
SECTION
  2
HEADER
  9
$ACADVER
  1
AC1014
  9
$ACADMAINTVER
 70
     9
  9
$DWGCODEPAGE
  3
ANSI_1252
  9
$INSBASE
 10
0.0
 20
0.0
 30
0.0
  9
$EXTMIN
 10
0.000571370866119
 20
0.0000449166924879
 30
0.0
  9
$EXTMAX
 10
18.69665922339289
 20
24.59415157662582
 30
0.0
  9
$LIMMIN
 10
0.0
 20
0.0
  9
$LIMMAX
 10
12.0
 20
9.0
  9
$ORTHOMODE
 70
     0
  9
$REGENMODE
 70
     1
  9
$FILLMODE
 70
     1
  9
$QTEXTMODE
 70
     0
  9
$MIRRTEXT
 70
     0
  9
$DRAGMODE
 70
     2
  9
$LTSCALE
 40
1.5
  9
$OSMODE
 70
    37
  9
$ATTMODE
 70
     1
  9
$TEXTSIZE
 40
0.375
  9
$TRACEWID
 40
0.05
  9
$TEXTSTYLE
  7
STANDARD
  9
$CLAYER
  8
0
  9
$CELTYPE
  6
BYLAYER
  9
$CECOLOR
 62
   256
  9
$CELTSCALE
 40
1.0
  9
$DELOBJ
 70
     1
  9
$DISPSILH
 70
     1
  9
$DIMSCALE
 40
6.0
  9
$DIMASZ
 40
0.125
  9
$DIMEXO
 40
0.0625
  9
$DIMDLI
 40
0.37890625
  9
$DIMRND
 40
0.0
  9
$DIMDLE
 40
0.0
  9
$DIMEXE
 40
0.09375
  9
$DIMTP
 40
0.0
  9
$DIMTM
 40
0.0
  9
$DIMTXT
 40
0.109375
  9
$DIMCEN
 40
0.0
  9
$DIMTSZ
 40
0.0
  9
$DIMTOL
 70
     0
  9
$DIMLIM
 70
     0
  9
$DIMTIH
 70
     1
  9
$DIMTOH
 70
     1
  9
$DIMSE1
 70
     0
  9
$DIMSE2
 70
     0
  9
$DIMTAD
 70
     0
  9
$DIMZIN
 70
     8
  9
$DIMBLK
  1

  9
$DIMASO
 70
     1
  9
$DIMSHO
 70
     1
  9
$DIMPOST
  1

  9
$DIMAPOST
  1

  9
$DIMALT
 70
     0
  9
$DIMALTD
 70
     2
  9
$DIMALTF
 40
25.4
  9
$DIMLFAC
 40
1.0
  9
$DIMTOFL
 70
     0
  9
$DIMTVP
 40
0.0
  9
$DIMTIX
 70
     0
  9
$DIMSOXD
 70
     0
  9
$DIMSAH
 70
     0
  9
$DIMBLK1
  1

  9
$DIMBLK2
  1

  9
$DIMSTYLE
  2
STANDARD
  9
$DIMCLRD
 70
     0
  9
$DIMCLRE
 70
     0
  9
$DIMCLRT
 70
   256
  9
$DIMTFAC
 40
1.0
  9
$DIMGAP
 40
0.08984375
  9
$DIMJUST
 70
     0
  9
$DIMSD1
 70
     0
  9
$DIMSD2
 70
     0
  9
$DIMTOLJ
 70
     1
  9
$DIMTZIN
 70
     0
  9
$DIMALTZ
 70
     0
  9
$DIMALTTZ
 70
     0
  9
$DIMFIT
 70
     3
  9
$DIMUPT
 70
     1
  9
$DIMUNIT
 70
     7
  9
$DIMDEC
 70
     4
  9
$DIMTDEC
 70
     4
  9
$DIMALTU
 70
     2
  9
$DIMALTTD
 70
     2
  9
$DIMTXSTY
  7
STANDARD
  9
$DIMAUNIT
 70
     0
  9
$LUNITS
 70
     5
  9
$LUPREC
 70
     6
  9
$SKETCHINC
 40
0.1
  9
$FILLETRAD
 40
0.0
  9
$AUNITS
 70
     0
  9
$AUPREC
 70
     1
  9
$MENU
  1
CUSTOM
  9
$ELEVATION
 40
0.0
  9
$PELEVATION
 40
0.0
  9
$THICKNESS
 40
0.0
  9
$LIMCHECK
 70
     0
  9
$BLIPMODE
 70
     0
  9
$CHAMFERA
 40
0.0
  9
$CHAMFERB
 40
0.0
  9
$CHAMFERC
 40
0.0
  9
$CHAMFERD
 40
0.0
  9
$SKPOLY
 70
     0
  9
$TDCREATE
 40
2451263.663231366
  9
$TDUPDATE
 40
2452759.747778136
  9
$TDINDWG
 40
0.1330731366
  9
$TDUSRTIMER
 40
0.1330731366
  9
$USRTIMER
 70
     1
  9
$ANGBASE
 50
0.0
  9
$ANGDIR
 70
     0
  9
$PDMODE
 70
     0
  9
$PDSIZE
 40
0.0
  9
$PLINEWID
 40
0.0
  9
$COORDS
 70
     1
  9
$SPLFRAME
 70
     0
  9
$SPLINETYPE
 70
     6
  9
$SPLINESEGS
 70
     8
  9
$ATTDIA
 70
     0
  9
$ATTREQ
 70
     1
  9
$HANDLING
 70
     1
  9
$HANDSEED
  5
105
  9
$SURFTAB1
 70
     6
  9
$SURFTAB2
 70
     6
  9
$SURFTYPE
 70
     6
  9
$SURFU
 70
     6
  9
$SURFV
 70
     6
  9
$UCSNAME
  2

  9
$UCSORG
 10
0.0
 20
0.0
 30
0.0
  9
$UCSXDIR
 10
1.0
 20
0.0
 30
0.0
  9
$UCSYDIR
 10
0.0
 20
1.0
 30
0.0
  9
$PUCSNAME
  2

  9
$PUCSORG
 10
0.0
 20
0.0
 30
0.0
  9
$PUCSXDIR
 10
1.0
 20
0.0
 30
0.0
  9
$PUCSYDIR
 10
0.0
 20
1.0
 30
0.0
  9
$USERI1
 70
     0
  9
$USERI2
 70
     0
  9
$USERI3
 70
     0
  9
$USERI4
 70
     0
  9
$USERI5
 70
     0
  9
$USERR1
 40
0.0
  9
$USERR2
 40
0.0
  9
$USERR3
 40
0.0
  9
$USERR4
 40
0.0
  9
$USERR5
 40
0.0
  9
$WORLDVIEW
 70
     1
  9
$SHADEDGE
 70
     3
  9
$SHADEDIF
 70
    70
  9
$TILEMODE
 70
     1
  9
$MAXACTVP
 70
    16
  9
$PINSBASE
 10
0.0
 20
0.0
 30
0.0
  9
$PLIMCHECK
 70
     0
  9
$PEXTMIN
 10
1.052083323321005
 20
0.7937500251559762
 30
0.0
  9
$PEXTMAX
 10
9.468749909889039
 20
7.143750226403783
 30
0.0
  9
$PLIMMIN
 10
-0.2145830289585384
 20
-0.2812499887361301
  9
$PLIMMAX
 10
10.78541673074557
 20
8.218749770967978
  9
$UNITMODE
 70
     0
  9
$VISRETAIN
 70
     0
  9
$PLINEGEN
 70
     0
  9
$PSLTSCALE
 70
     0
  9
$TREEDEPTH
 70
  3020
  9
$PICKSTYLE
 70
     1
  9
$CMLSTYLE
  2
STANDARD
  9
$CMLJUST
 70
     0
  9
$CMLSCALE
 40
1.0
  9
$PROXYGRAPHICS
 70
     1
  9
$MEASUREMENT
 70
     0
  0
ENDSEC
  0
SECTION
  2
CLASSES
  0
CLASS
  1
ACDBDICTIONARYWDFLT
  2
AcDbDictionaryWithDefault
  3
AutoCAD 2000
 90
        0
280
     0
281
     0
  0
CLASS
  1
ACDBPLACEHOLDER
  2
AcDbPlaceHolder
  3
AutoCAD 2000
 90
        0
280
     0
281
     0
  0
CLASS
  1
LAYOUT
  2
AcDbLayout
  3
AutoCAD 2000
 90
        0
280
     0
281
     0
  0
CLASS
  1
DICTIONARYVAR
  2
AcDbDictionaryVar
  3
"AutoCAD"
 90
        0
280
     0
281
     0
  0
CLASS
  1
LONG_TRANSACTION
  2
AcDbLongTransaction
  3
AutoCAD 2000
 90
        0
280
     0
281
     0
  0
CLASS
  1
LWPOLYLINE
  2
AcDbPolyline
  3
"AutoCAD"
 90
        0
280
     0
281
     1
  0
CLASS
  1
HATCH
  2
AcDbHatch
  3
"ACAD_SEDONA"
 90
        0
280
     0
281
     1
  0
CLASS
  1
XRECORD
  2
AcDbXrecord
  3
"<Built In>"
 90
        0
280
     0
281
     0
  0
CLASS
  1
LONG_TRANSACTION
  2
AcDbLongTransaction
  3
AutoCAD 2000
 90
        0
280
     0
281
     0
  0
CLASS
  1
LWPOLYLINE
  2
AcDbPolyline
  3
"AutoCAD"
 90
        0
280
     0
281
     1
  0
CLASS
  1
HATCH
  2
AcDbHatch
  3
"ACAD_SEDONA"
 90
        0
280
     0
281
     1
  0
CLASS
  1
XRECORD
  2
AcDbXrecord
  3
"<Built In>"
 90
        0
280
     0
281
     0
  0
ENDSEC
  0
SECTION
  2
TABLES
  0
TABLE
  2
VPORT
  5
E7
100
AcDbSymbolTable
 70
     1
  0
VPORT
  5
101
100
AcDbSymbolTableRecord
100
AcDbViewportTableRecord
  2
*ACTIVE
 70
     0
 10
0.0
 20
0.0
 11
1.0
 21
1.0
 12
-13.7469877539745
 22
22.87010249113923
 13
0.0
 23
0.0
 14
1.0
 24
1.0
 15
0.0
 25
0.0
 16
0.0
 26
0.0
 36
1.0
 17
23.09603071721725
 27
-10.27010416511325
 37
-10.44050274849355
 40
25.38341795202973
 41
1.457627118644067
 42
50.0
 43
10.55307667737539
 44
10.55307667737539
 50
0.0
 51
0.0
 71
     0
 72
   100
 73
     1
 74
     1
 75
     0
 76
     0
 77
     0
 78
     0
  0
ENDTAB
  0
TABLE
  2
LTYPE
  5
E2
100
AcDbSymbolTable
 70
     2
  0
LTYPE
  5
E3
100
AcDbSymbolTableRecord
100
AcDbLinetypeTableRecord
  2
BYBLOCK
 70
     0
  3

 72
    65
 73
     0
 40
0.0
  0
LTYPE
  5
E4
100
AcDbSymbolTableRecord
100
AcDbLinetypeTableRecord
  2
BYLAYER
 70
     0
  3

 72
    65
 73
     0
 40
0.0
  0
LTYPE
  5
5
100
AcDbSymbolTableRecord
100
AcDbLinetypeTableRecord
  2
CONTINUOUS
 70
     0
  3
Solid line
 72
    65
 73
     0
 40
0.0
  0
LTYPE
  5
B9
100
AcDbSymbolTableRecord
100
AcDbLinetypeTableRecord
  2
HIDDEN
 70
     0
  3
Hidden __ __ __ __ __ __ __ __ __ __ __ __ __ _
 72
    65
 73
     2
 40
0.375
 49
0.25
 74
     0
 49
-0.125
 74
     0
  0
ENDTAB
  0
TABLE
  2
LAYER
  5
E0
100
AcDbSymbolTable
 70
     5
  0
LAYER
  5
56
100
AcDbSymbolTableRecord
100
AcDbLayerTableRecord
  2
0
 70
     0
 62
     7
  6
CONTINUOUS
  0
LAYER
  5
8
100
AcDbSymbolTableRecord
100
AcDbLayerTableRecord
  2
USP-GEO
 70
     0
 62
     7
  6
CONTINUOUS
  0
LAYER
  5
C
100
AcDbSymbolTableRecord
100
AcDbLayerTableRecord
  2
USP-TXT
 70
     0
 62
     7
  6
CONTINUOUS
  0
LAYER
  5
B8
100
AcDbSymbolTableRecord
100
AcDbLayerTableRecord
  2
USP-HID
 70
     0
 62
     7
  6
HIDDEN
  0
LAYER
  5
4
100
AcDbSymbolTableRecord
100
AcDbLayerTableRecord
  2
USP
 70
     0
 62
     7
  6
CONTINUOUS
  0
ENDTAB
  0
TABLE
  2
STYLE
  5
E1
100
AcDbSymbolTable
 70
     1
  0
STYLE
  5
D
100
AcDbSymbolTableRecord
100
AcDbTextStyleTableRecord
  2
STANDARD
 70
     0
 40
0.0
 41
1.0
 50
0.0
 71
     0
 42
0.375
  3
txt
  4

  0
ENDTAB
  0
TABLE
  2
VIEW
  5
E5
100
AcDbSymbolTable
 70
     0
  0
ENDTAB
  0
TABLE
  2
UCS
  5
E6
100
AcDbSymbolTable
 70
     0
  0
ENDTAB
  0
TABLE
  2
APPID
  5
E9
100
AcDbSymbolTable
 70
     1
  0
APPID
  5
DB
100
AcDbSymbolTableRecord
100
AcDbRegAppTableRecord
  2
ACAD
 70
     0
  0
ENDTAB
  0
TABLE
  2
DIMSTYLE
  5
EA
100
AcDbSymbolTable
 70
     1
  0
DIMSTYLE
105
F2
100
AcDbSymbolTableRecord
100
AcDbDimStyleTableRecord
  2
STANDARD
 70
     0
  3

  4

  5

  6

  7

 40
1.0
 41
0.18
 42
0.0625
 43
0.38
 44
0.18
 45
0.0
 46
0.0
 47
0.0
 48
0.0
140
0.18
141
0.09
142
0.0
143
25.4
144
1.0
145
0.0
146
1.0
147
0.09
 71
     0
 72
     0
 73
     1
 74
     1
 75
     0
 76
     0
 77
     0
 78
     0
170
     0
171
     2
172
     0
173
     0
174
     0
175
     0
176
     0
177
     0
178
     0
270
     2
271
     4
272
     4
273
     2
274
     2
340
D
275
     0
280
     0
281
     0
282
     0
283
     1
284
     0
285
     0
286
     0
287
     3
288
     0
  0
ENDTAB
  0
TABLE
  2
BLOCK_RECORD
  5
1
100
AcDbSymbolTable
 70
     3
  0
BLOCK_RECORD
  5
2
102
{ACAD_XDICTIONARY
360
D2
102
}
100
AcDbSymbolTableRecord
100
AcDbBlockTableRecord
  2
*MODEL_SPACE
  0
BLOCK_RECORD
  5
D6
102
{ACAD_XDICTIONARY
360
DC
102
}
100
AcDbSymbolTableRecord
100
AcDbBlockTableRecord
  2
*PAPER_SPACE
  0
BLOCK_RECORD
  5
6
100
AcDbSymbolTableRecord
100
AcDbBlockTableRecord
  2
THO35118_F
  0
BLOCK_RECORD
  5
59
100
AcDbSymbolTableRecord
100
AcDbBlockTableRecord
  2
THO35118_T
  0
BLOCK_RECORD
  5
AC
100
AcDbSymbolTableRecord
100
AcDbBlockTableRecord
  2
THO35118_S
  0
ENDTAB
  0
ENDSEC
  0
SECTION
  2
BLOCKS
  0
BLOCK
  5
D4
100
AcDbEntity
  8
0
100
AcDbBlockBegin
  2
*MODEL_SPACE
 70
     0
 10
0.0
 20
0.0
 30
0.0
  3
*MODEL_SPACE
  1

  0
ENDBLK
  5
D5
100
AcDbEntity
  8
0
100
AcDbBlockEnd
  0
BLOCK
  5
DE
100
AcDbEntity
 67
     1
  8
0
100
AcDbBlockBegin
  2
*PAPER_SPACE
 70
     0
 10
0.0
 20
0.0
 30
0.0
  3
*PAPER_SPACE
  1

  0
ENDBLK
  5
DF
100
AcDbEntity
 67
     1
  8
0
100
AcDbBlockEnd
  0
BLOCK
  5
55
100
AcDbEntity
  8
0
100
AcDbBlockBegin
  2
THO35118_F
 70
     0
 10
0.0
 20
0.0
 30
0.0
  3
THO35118_F
  1

  0
LINE
  5
7
100
AcDbEntity
  8
USP-GEO
100
AcDbLine
 10
5.942220094768621
 20
11.979
 30
0.0
 11
6.124190189537263
 21
11.97900000000001
 31
0.0
  0
CIRCLE
  5
9
100
AcDbEntity
  8
USP-GEO
100
AcDbCircle
 10
6.155440189537255
 20
9.227000000000007
 30
0.0
 40
0.0900000000000001
  0
ARC
  5
A
100
AcDbEntity
  8
USP-GEO
100
AcDbCircle
 10
5.890220094768578
 20
1.348749999999879
 30
0.0
 40
0.2500000000000013
100
AcDbArc
 50
282.0051728307534
 51
77.99482716924621
  0
TEXT
  5
B
100
AcDbEntity
  8
USP-TXT
100
AcDbText
 10
-0.2881200112466384
 20
-2.462888130033765
 30
0.0
 40
0.421875
  1
THO35118 - FRONT VIEW
 72
     1
 11
4.000942488753361
 21
-2.462888130033765
 31
0.0
100
AcDbText
  0
LINE
  5
E
100
AcDbEntity
  8
USP-GEO
100
AcDbLine
 10
7.777122737766104
 20
11.92699999999999
 30
0.0
 11
5.954491931175393
 21
1.590347042707145
 31
0.0
  0
LINE
  5
F
100
AcDbEntity
  8
USP-GEO
100
AcDbLine
 10
2.263448258361773
 20
1.590347042707212
 30
0.0
 11
0.4408174517711375
 21
11.927
 31
0.0
  0
LINE
  5
10
100
AcDbEntity
  8
USP-GEO
100
AcDbLine
 10
2.327720094768579
 20
1.520749999999997
 30
0.0
 11
2.327720094768616
 21
11.67700000000001
 31
0.0
  0
LINE
  5
11
100
AcDbEntity
  8
USP-GEO
100
AcDbLine
 10
2.275720094768616
 20
11.67700000000001
 30
0.0
 11
2.275720094768579
 21
1.520749999999997
 31
0.0
  0
LINE
  5
12
100
AcDbEntity
  8
USP-GEO
100
AcDbLine
 10
5.890220094768578
 20
1.520749999999989
 30
0.0
 11
5.890220094768613
 21
11.677
 31
0.0
  0
LINE
  5
13
100
AcDbEntity
  8
USP-GEO
100
AcDbLine
 10
5.942220094768577
 20
1.520749999999988
 30
0.0
 11
5.942220094768613
 21
11.67700000000001
 31
0.0
  0
LINE
  5
14
100
AcDbEntity
  8
USP-GEO
100
AcDbLine
 10
2.32772009476857
 20
0.9614596113613561
 30
0.0
 11
2.409141542442817
 21
0.8204335271637495
 31
0.0
  0
LINE
  5
15
100
AcDbEntity
  8
USP-GEO
100
AcDbLine
 10
2.409141542442817
 20
0.8204335271637495
 30
0.0
 11
2.364108221446027
 21
0.7944335271637502
 31
0.0
  0
LINE
  5
16
100
AcDbEntity
  8
USP-GEO
100
AcDbLine
 10
2.275720094768571
 20
0.0000000000000004
 30
0.0
 11
5.942220094768572
 21
-0.0000000000000111
 31
0.0
  0
LINE
  5
17
100
AcDbEntity
  8
USP-GEO
100
AcDbLine
 10
2.327720094768575
 20
0.0520000000000001
 30
0.0
 11
5.890220094768574
 21
0.051999999999989
 31
0.0
  0
ARC
  5
18
100
AcDbEntity
  8
USP-GEO
100
AcDbCircle
 10
2.327720094768581
 20
1.348749999999945
 30
0.0
 40
0.2500000000000013
100
AcDbArc
 50
102.0051728307544
 51
257.9948271692451
  0
LINE
  5
19
100
AcDbEntity
  8
USP-GEO
100
AcDbLine
 10
2.327720094768575
 20
0.0519999999999996
 30
0.0
 11
2.32772009476858
 21
1.520749999999997
 31
0.0
  0
LINE
  5
1A
100
AcDbEntity
  8
USP-GEO
100
AcDbLine
 10
2.275720094768575
 20
1.520749999999997
 30
0.0
 11
2.275720094768571
 21
0.0000000000000004
 31
0.0
  0
LINE
  5
1B
100
AcDbEntity
  8
USP-GEO
100
AcDbLine
 10
2.327720094768578
 20
0.857459611361342
 30
0.0
 11
2.364108221446025
 21
0.7944335271637506
 31
0.0
  0
LINE
  5
1C
100
AcDbEntity
  8
USP-GEO
100
AcDbLine
 10
2.327720094768579
 20
1.520749999999997
 30
0.0
 11
2.275720094768579
 21
1.520749999999997
 31
0.0
  0
LINE
  5
1D
100
AcDbEntity
  8
USP-GEO
100
AcDbLine
 10
5.890220094768578
 20
1.520749999999989
 30
0.0
 11
5.890220094768574
 21
0.0519999999999885
 31
0.0
  0
LINE
  5
1E
100
AcDbEntity
  8
USP-GEO
100
AcDbLine
 10
5.942220094768576
 20
1.520749999999988
 30
0.0
 11
5.942220094768572
 21
-0.0000000000000115
 31
0.0
  0
LINE
  5
1F
100
AcDbEntity
  8
USP-GEO
100
AcDbLine
 10
5.808798647094345
 20
0.8204339646860287
 30
0.0
 11
5.853831968091138
 21
0.7944339646860277
 31
0.0
  0
LINE
  5
20
100
AcDbEntity
  8
USP-GEO
100
AcDbLine
 10
5.8902200947686
 20
0.9614600488836524
 30
0.0
 11
5.808798647094343
 21
0.8204339646860297
 31
0.0
  0
LINE
  5
21
100
AcDbEntity
  8
USP-GEO
100
AcDbLine
 10
5.890220094768576
 20
0.8574600488836058
 30
0.0
 11
5.853831968091137
 21
0.794433964686029
 31
0.0
  0
LINE
  5
22
100
AcDbEntity
  8
USP-GEO
100
AcDbLine
 10
5.890220094768578
 20
1.520749999999989
 30
0.0
 11
5.942220094768577
 21
1.520749999999989
 31
0.0
  0
LINE
  5
23
100
AcDbEntity
  8
USP-GEO
100
AcDbLine
 10
2.061305139759174
 20
7.227000000000014
 30
0.0
 11
1.919883783521857
 21
7.085578643762698
 31
0.0
  0
LINE
  5
24
100
AcDbEntity
  8
USP-GEO
100
AcDbLine
 10
1.919883783521857
 20
7.368421356237334
 30
0.0
 11
2.061305139759173
 21
7.227000000000018
 31
0.0
  0
LINE
  5
25
100
AcDbEntity
  8
USP-GEO
100
AcDbLine
 10
1.919883783521856
 20
7.085578643762698
 30
0.0
 11
1.778462427284568
 21
7.227000000000018
 31
0.0
  0
LINE
  5
26
100
AcDbEntity
  8
USP-GEO
100
AcDbLine
 10
1.778462427284567
 20
7.227000000000014
 30
0.0
 11
1.919883783521856
 21
7.36842135623733
 31
0.0
  0
CIRCLE
  5
27
100
AcDbEntity
  8
USP-GEO
100
AcDbCircle
 10
1.600940586335288
 20
8.227000000000018
 30
0.0
 40
0.09
  0
LINE
  5
28
100
AcDbEntity
  8
USP-GEO
100
AcDbLine
 10
2.093749999999973
 20
12.005
 30
0.0
 11
2.09374999999997
 21
10.89575000000001
 31
0.0
  0
LINE
  5
29
100
AcDbEntity
  8
USP-GEO
100
AcDbLine
 10
1.343749999999973
 20
12.005
 30
0.0
 11
1.343749999999972
 21
11.31140045912199
 31
0.0
  0
LINE
  5
2A
100
AcDbEntity
  8
USP-GEO
100
AcDbLine
 10
1.656249999999969
 20
10.89575000000001
 30
0.0
 11
1.656249999999973
 21
12.005
 31
0.0
  0
LINE
  5
2B
100
AcDbEntity
  8
USP-GEO
100
AcDbLine
 10
0.9062499999999708
 20
10.89575000000001
 30
0.0
 11
0.9062499999999758
 21
12.005
 31
0.0
  0
CIRCLE
  5
2C
100
AcDbEntity
  8
USP-GEO
100
AcDbCircle
 10
2.062499999999967
 20
9.227000000000014
 30
0.0
 40
0.09
  0
ARC
  5
2D
100
AcDbEntity
  8
USP-GEO
100
AcDbCircle
 10
1.12499999999997
 20
10.89575000000001
 30
0.0
 40
0.2187500000000001
100
AcDbArc
 50
180.0
 51
0.0
  0
LINE
  5
2E
100
AcDbEntity
  8
USP-GEO
100
AcDbLine
 10
1.343749999999971
 20
11.14259954087804
 30
0.0
 11
1.34374999999997
 21
10.89575000000001
 31
0.0
  0
ARC
  5
2F
100
AcDbEntity
  8
USP-GEO
100
AcDbCircle
 10
1.312499999999972
 20
11.22700000000001
 30
0.0
 40
0.09
100
AcDbArc
 50
290.3175076348312
 51
69.68249236516822
  0
ARC
  5
30
100
AcDbEntity
  8
USP-GEO
100
AcDbCircle
 10
1.312499999999972
 20
11.22700000000001
 30
0.0
 40
0.09
100
AcDbArc
 50
69.68249236516732
 51
290.3175076348312
  0
ARC
  5
31
100
AcDbEntity
  8
USP-GEO
100
AcDbCircle
 10
1.87499999999997
 20
10.89575000000001
 30
0.0
 40
0.2187500000000001
100
AcDbArc
 50
180.0
 51
0.0
  0
LINE
  5
32
100
AcDbEntity
  8
USP-GEO
100
AcDbLine
 10
0.4408174517711557
 20
11.97900000000001
 30
0.0
 11
0.9062499999999724
 21
11.979
 31
0.0
  0
LINE
  5
33
100
AcDbEntity
  8
USP-GEO
100
AcDbLine
 10
0.4408174517711559
 20
11.927
 30
0.0
 11
0.0000000000000001
 21
11.92700000000001
 31
0.0
  0
LINE
  5
34
100
AcDbEntity
  8
USP-GEO
100
AcDbLine
 10
0.4408174517711566
 20
11.97900000000001
 30
0.0
 11
0.0000000000000001
 21
11.97900000000001
 31
0.0
  0
LINE
  5
35
100
AcDbEntity
  8
USP-GEO
100
AcDbLine
 10
0.0000000000000009
 20
11.92700000000001
 30
0.0
 11
0.0000000000000009
 21
11.97900000000002
 31
0.0
  0
LINE
  5
36
100
AcDbEntity
  8
USP-GEO
100
AcDbLine
 10
0.440817451771138
 20
11.927
 30
0.0
 11
0.4408174517711559
 21
11.97900000000001
 31
0.0
  0
LINE
  5
37
100
AcDbEntity
  8
USP-GEO
100
AcDbLine
 10
1.343749999999972
 20
11.979
 30
0.0
 11
1.656249999999973
 21
11.979
 31
0.0
  0
LINE
  5
38
100
AcDbEntity
  8
USP-GEO
100
AcDbLine
 10
1.343749999999973
 20
12.005
 30
0.0
 11
0.906249999999976
 21
12.00500000000001
 31
0.0
  0
LINE
  5
39
100
AcDbEntity
  8
USP-GEO
100
AcDbLine
 10
2.093749999999973
 20
12.005
 30
0.0
 11
1.656249999999973
 21
12.005
 31
0.0
  0
LINE
  5
3A
100
AcDbEntity
  8
USP-GEO
100
AcDbLine
 10
2.093749999999973
 20
11.979
 30
0.0
 11
2.275720094768617
 21
11.979
 31
0.0
  0
LINE
  5
3B
100
AcDbEntity
  8
USP-GEO
100
AcDbLine
 10
2.327720094768616
 20
11.67700000000001
 30
0.0
 11
2.275720094768618
 21
11.67700000000001
 31
0.0
  0
LINE
  5
3C
100
AcDbEntity
  8
USP-GEO
100
AcDbLine
 10
2.275720094768618
 20
11.979
 30
0.0
 11
2.275720094768617
 21
11.67700000000001
 31
0.0
  0
LINE
  5
3D
100
AcDbEntity
  8
USP-GEO
100
AcDbLine
 10
5.890220094768616
 20
11.677
 30
0.0
 11
5.942220094768617
 21
11.677
 31
0.0
  0
LINE
  5
3E
100
AcDbEntity
  8
USP-GEO
100
AcDbLine
 10
5.942220094768619
 20
11.67700000000001
 30
0.0
 11
5.94222009476862
 21
11.97900000000001
 31
0.0
  0
LINE
  5
3F
100
AcDbEntity
  8
USP-GEO
100
AcDbLine
 10
6.439477762252641
 20
7.227000000000003
 30
0.0
 11
6.298056406015354
 21
7.085578643762691
 31
0.0
  0
LINE
  5
40
100
AcDbEntity
  8
USP-GEO
100
AcDbLine
 10
6.298056406015352
 20
7.36842135623732
 30
0.0
 11
6.439477762252639
 21
7.227000000000003
 31
0.0
  0
LINE
  5
41
100
AcDbEntity
  8
USP-GEO
100
AcDbLine
 10
6.298056406015353
 20
7.085578643762691
 30
0.0
 11
6.156635049778036
 21
7.227000000000007
 31
0.0
  0
LINE
  5
42
100
AcDbEntity
  8
USP-GEO
100
AcDbLine
 10
6.156635049778039
 20
7.227000000000007
 30
0.0
 11
6.298056406015356
 21
7.36842135623732
 31
0.0
  0
CIRCLE
  5
43
100
AcDbEntity
  8
USP-GEO
100
AcDbCircle
 10
6.616999603201927
 20
8.227000000000007
 30
0.0
 40
0.0900000000000001
  0
LINE
  5
44
100
AcDbEntity
  8
USP-GEO
100
AcDbLine
 10
6.874190189537245
 20
11.31140045912197
 30
0.0
 11
6.874190189537246
 21
12.005
 31
0.0
  0
LINE
  5
45
100
AcDbEntity
  8
USP-GEO
100
AcDbLine
 10
7.311690189537245
 20
12.005
 30
0.0
 11
7.311690189537241
 21
10.89575000000001
 31
0.0
  0
LINE
  5
46
100
AcDbEntity
  8
USP-GEO
100
AcDbLine
 10
6.561690189537245
 20
12.005
 30
0.0
 11
6.561690189537242
 21
10.89575000000001
 31
0.0
  0
LINE
  5
47
100
AcDbEntity
  8
USP-GEO
100
AcDbLine
 10
6.124190189537239
 20
10.89575000000001
 30
0.0
 11
6.124190189537245
 21
12.00500000000001
 31
0.0
  0
ARC
  5
48
100
AcDbEntity
  8
USP-GEO
100
AcDbCircle
 10
7.092940189537243
 20
10.89575000000001
 30
0.0
 40
0.2187500000000001
100
AcDbArc
 50
179.999999999999
 51
0.000000000000458
  0
ARC
  5
49
100
AcDbEntity
  8
USP-GEO
100
AcDbCircle
 10
6.342940189537241
 20
10.89575000000001
 30
0.0
 40
0.2187500000000001
100
AcDbArc
 50
179.9999999999986
 51
0.0
  0
LINE
  5
4A
100
AcDbEntity
  8
USP-GEO
100
AcDbLine
 10
6.874190189537243
 20
10.89575000000001
 30
0.0
 11
6.874190189537244
 21
11.14259954087803
 31
0.0
  0
ARC
  5
4B
100
AcDbEntity
  8
USP-GEO
100
AcDbCircle
 10
6.905440189537262
 20
11.227
 30
0.0
 40
0.09
100
AcDbArc
 50
249.682492365155
 51
110.3175076348445
  0
ARC
  5
4C
100
AcDbEntity
  8
USP-GEO
100
AcDbCircle
 10
6.905440189537262
 20
11.227
 30
0.0
 40
0.0900000000000001
100
AcDbArc
 50
110.3175076348319
 51
249.6824923651683
  0
LINE
  5
4D
100
AcDbEntity
  8
USP-GEO
100
AcDbLine
 10
7.777122737766108
 20
11.927
 30
0.0
 11
8.217940189537273
 21
11.927
 31
0.0
  0
LINE
  5
4E
100
AcDbEntity
  8
USP-GEO
100
AcDbLine
 10
8.217940189537271
 20
11.979
 30
0.0
 11
7.777122737766108
 21
11.979
 31
0.0
  0
LINE
  5
4F
100
AcDbEntity
  8
USP-GEO
100
AcDbLine
 10
7.311690189537245
 20
12.005
 30
0.0
 11
6.874190189537246
 21
12.005
 31
0.0
  0
LINE
  5
50
100
AcDbEntity
  8
USP-GEO
100
AcDbLine
 10
6.561690189537245
 20
12.00500000000001
 30
0.0
 11
6.124190189537245
 21
12.00500000000001
 31
0.0
  0
LINE
  5
51
100
AcDbEntity
  8
USP-GEO
100
AcDbLine
 10
6.561690189537264
 20
11.979
 30
0.0
 11
6.874190189537267
 21
11.97899999999999
 31
0.0
  0
LINE
  5
52
100
AcDbEntity
  8
USP-GEO
100
AcDbLine
 10
7.311690189537264
 20
11.97899999999999
 30
0.0
 11
7.777122737766111
 21
11.97899999999999
 31
0.0
  0
LINE
  5
53
100
AcDbEntity
  8
USP-GEO
100
AcDbLine
 10
7.777122737766113
 20
11.97899999999999
 30
0.0
 11
7.777122737766104
 21
11.92699999999999
 31
0.0
  0
LINE
  5
54
100
AcDbEntity
  8
USP-GEO
100
AcDbLine
 10
8.217940189537271
 20
11.927
 30
0.0
 11
8.217940189537271
 21
11.979
 31
0.0
  0
ENDBLK
  5
57
100
AcDbEntity
  8
0
100
AcDbBlockEnd
  0
BLOCK
  5
A9
100
AcDbEntity
  8
0
100
AcDbBlockBegin
  2
THO35118_T
 70
     0
 10
0.0
 20
0.0
 30
0.0
  3
THO35118_T
  1

  0
ELLIPSE
  5
5A
100
AcDbEntity
  8
USP-GEO
100
AcDbEllipse
 10
6.058172468970311
 20
0.2999831903527656
 30
0.0
 11
-0.0000000000000003
 21
-0.0779999999999997
 31
0.0
210
0.0
220
0.0
230
1.0
 40
0.7071067811865496
 41
0.0
 42
6.283185307179586
  0
ARC
  5
5B
100
AcDbEntity
  8
USP-GEO
100
AcDbCircle
 10
5.890220094768574
 20
0.2999831903527692
 30
0.0
 40
0.2500000000000013
100
AcDbArc
 50
282.0051728307534
 51
77.99482716924618
  0
CIRCLE
  5
5C
100
AcDbEntity
  8
USP-GEO
100
AcDbCircle
 10
6.155440189537269
 20
4.676999999999939
 30
0.0
 40
0.09
  0
LINE
  5
5D
100
AcDbEntity
  8
USP-GEO
100
AcDbLine
 10
5.94222009476862
 20
2.37499999999995
 30
0.0
 11
6.124190189537262
 21
2.37499999999995
 31
0.0
  0
LINE
  5
5E
100
AcDbEntity
  8
USP-GEO
100
AcDbLine
 10
5.942220094768625
 20
4.926999999999939
 30
0.0
 11
8.217940189537271
 21
4.926999999999932
 31
0.0
  0
TEXT
  5
5F
100
AcDbEntity
  8
USP-TXT
100
AcDbText
 10
0.1337549887533562
 20
-2.673634895620143
 30
0.0
 40
0.421875
  1
THO35118 - TOP VIEW
 72
     1
 11
4.000942488753356
 21
-2.673634895620143
 31
0.0
100
AcDbText
  0
ARC
  5
60
100
AcDbEntity
  8
USP-GEO
100
AcDbCircle
 10
2.327720094768579
 20
0.6999831903527714
 30
0.0
 40
0.2500000000000013
100
AcDbArc
 50
102.0051728307544
 51
257.9948271692451
  0
LINE
  5
61
100
AcDbEntity
  8
USP-GEO
100
AcDbLine
 10
5.890220094768576
 20
-0.0000000000000107
 30
0.0
 11
5.890220094768613
 21
1.790820897820317
 31
0.0
  0
LINE
  5
62
100
AcDbEntity
  8
USP-GEO
100
AcDbLine
 10
5.942220094768575
 20
-0.0000000000000071
 30
0.0
 11
5.942220094768611
 21
1.790820897820321
 31
0.0
  0
LINE
  5
63
100
AcDbEntity
  8
USP-GEO
100
AcDbLine
 10
2.327720094768578
 20
0.0
 30
0.0
 11
2.327720094768616
 21
1.790820897820328
 31
0.0
  0
LINE
  5
64
100
AcDbEntity
  8
USP-GEO
100
AcDbLine
 10
2.275720094768616
 20
1.790820897820331
 30
0.0
 11
2.275720094768578
 21
0.0000000000000036
 31
0.0
  0
LINE
  5
65
100
AcDbEntity
  8
USP-GEO
100
AcDbLine
 10
2.327720094768574
 20
0.0000000000000036
 30
0.0
 11
5.890220094768572
 21
-0.0000000000000071
 31
0.0
  0
LINE
  5
66
100
AcDbEntity
  8
USP-GEO
100
AcDbLine
 10
2.327720094768578
 20
0.0
 30
0.0
 11
2.275720094768578
 21
0.0
 31
0.0
  0
ELLIPSE
  5
67
100
AcDbEntity
  8
USP-GEO
100
AcDbEllipse
 10
2.199034431231417
 20
0.6999831903527714
 30
0.0
 11
0.0000000000000002
 21
0.0779999999999997
 31
0.0
210
0.0
220
0.0
230
1.0
 40
0.7071067811865453
 41
0.3639531895178969
 42
1.57079632679491
  0
ELLIPSE
  5
68
100
AcDbEntity
  8
USP-GEO
100
AcDbEllipse
 10
2.199034431231417
 20
0.6999831903527714
 30
0.0
 11
0.0000000000000002
 21
0.0779999999999997
 31
0.0
210
0.0
220
0.0
230
1.0
 40
0.7071067811865453
 41
1.570796326794895
 42
2.77763946407192
  0
ELLIPSE
  5
69
100
AcDbEntity
  8
USP-GEO
100
AcDbEllipse
 10
2.159767720566841
 20
0.6999831903527714
 30
0.0
 11
-0.0000000000000002
 21
-0.0779999999999997
 31
0.0
210
0.0
220
0.0
230
1.0
 40
0.7071067811865453
 41
0.0
 42
6.283185307179586
  0
LINE
  5
6A
100
AcDbEntity
  8
USP-GEO
100
AcDbLine
 10
3.608970094768546
 20
0.6767766952966383
 30
0.0
 11
3.785746790065184
 21
0.5000000000000142
 31
0.0
  0
LINE
  5
6B
100
AcDbEntity
  8
USP-GEO
100
AcDbLine
 10
3.785746790065182
 20
0.5000000000000142
 30
0.0
 11
3.608970094768544
 21
0.3232233047033759
 31
0.0
  0
LINE
  5
6C
100
AcDbEntity
  8
USP-GEO
100
AcDbLine
 10
3.432193399471909
 20
0.5000000000000178
 30
0.0
 11
3.608970094768546
 21
0.6767766952966383
 31
0.0
  0
LINE
  5
6D
100
AcDbEntity
  8
USP-GEO
100
AcDbLine
 10
3.608970094768546
 20
0.3232233047033759
 30
0.0
 11
3.432193399471906
 21
0.5000000000000178
 31
0.0
  0
LINE
  5
6E
100
AcDbEntity
  8
USP-GEO
100
AcDbLine
 10
4.608970094768546
 20
0.6767766952966348
 30
0.0
 11
4.785746790065184
 21
0.5000000000000107
 31
0.0
  0
LINE
  5
6F
100
AcDbEntity
  8
USP-GEO
100
AcDbLine
 10
4.785746790065182
 20
0.5000000000000107
 30
0.0
 11
4.608970094768542
 21
0.3232233047033723
 31
0.0
  0
LINE
  5
70
100
AcDbEntity
  8
USP-GEO
100
AcDbLine
 10
4.432193399471906
 20
0.5000000000000142
 30
0.0
 11
4.608970094768542
 21
0.6767766952966383
 31
0.0
  0
LINE
  5
71
100
AcDbEntity
  8
USP-GEO
100
AcDbLine
 10
4.608970094768544
 20
0.3232233047033723
 30
0.0
 11
4.432193399471906
 21
0.5000000000000142
 31
0.0
  0
ELLIPSE
  5
72
100
AcDbEntity
  8
USP-GEO
100
AcDbEllipse
 10
6.018905758305736
 20
0.2999831903527656
 30
0.0
 11
0.0000000000000003
 21
0.0779999999999997
 31
0.0
210
0.0
220
0.0
230
1.0
 40
0.7071067811865496
 41
3.505545843107682
 42
4.712388980384711
  0
LINE
  5
73
100
AcDbEntity
  8
USP-GEO
100
AcDbLine
 10
5.890220094768576
 20
-0.0000000000000107
 30
0.0
 11
5.942220094768575
 21
-0.0000000000000107
 31
0.0
  0
ELLIPSE
  5
74
100
AcDbEntity
  8
USP-GEO
100
AcDbEllipse
 10
6.018905758305736
 20
0.2999831903527656
 30
0.0
 11
0.0000000000000003
 21
0.0779999999999997
 31
0.0
210
0.0
220
0.0
230
1.0
 40
0.7071067811865496
 41
4.712388980384697
 42
5.919232117661715
  0
LINE
  5
75
100
AcDbEntity
  8
USP-GEO
100
AcDbLine
 10
2.327720094768569
 20
1.587157104651495
 30
0.0
 11
2.409141542442816
 21
1.750000000000003
 31
0.0
  0
LINE
  5
76
100
AcDbEntity
  8
USP-GEO
100
AcDbLine
 10
2.409141542442816
 20
1.75
 30
0.0
 11
2.327720094768569
 21
1.912842895348497
 31
0.0
  0
LINE
  5
77
100
AcDbEntity
  8
USP-GEO
100
AcDbLine
 10
2.327720094768582
 20
2.375000000000003
 30
0.0
 11
5.890220094768578
 21
2.374999999999992
 31
0.0
  0
ARC
  5
78
100
AcDbEntity
  8
USP-GEO
100
AcDbCircle
 10
1.124999999999992
 20
3.458249999999974
 30
0.0
 40
0.21875
100
AcDbArc
 50
359.9999999999992
 51
180.000000000001
  0
ARC
  5
79
100
AcDbEntity
  8
USP-GEO
100
AcDbCircle
 10
1.874999999999995
 20
3.458249999999974
 30
0.0
 40
0.21875
100
AcDbArc
 50
0.0000000000002036
 51
180.000000000001
  0
LINE
  5
7A
100
AcDbEntity
  8
USP-GEO
100
AcDbLine
 10
2.275720094768643
 20
4.926999999999974
 30
0.0
 11
2.275720094768635
 21
2.374999999999964
 31
0.0
  0
LINE
  5
7B
100
AcDbEntity
  8
USP-GEO
100
AcDbLine
 10
0.4408174517711565
 20
2.426999999999967
 30
0.0
 11
0.0
 21
4.926999999999974
 31
0.0
  0
LINE
  5
7C
100
AcDbEntity
  8
USP-GEO
100
AcDbLine
 10
0.4408174517711565
 20
2.374999999999968
 30
0.0
 11
0.9062499999999724
 21
2.374999999999968
 31
0.0
  0
LINE
  5
7D
100
AcDbEntity
  8
USP-GEO
100
AcDbLine
 10
0.4408174517711565
 20
2.426999999999967
 30
0.0
 11
0.4408174517711565
 21
2.374999999999968
 31
0.0
  0
LINE
  5
7E
100
AcDbEntity
  8
USP-GEO
100
AcDbLine
 10
2.327720094768618
 20
2.42699999999996
 30
0.0
 11
2.327720094768617
 21
1.790820897820331
 31
0.0
  0
LINE
  5
7F
100
AcDbEntity
  8
USP-GEO
100
AcDbLine
 10
2.27572009476862
 20
2.374999999999964
 30
0.0
 11
2.275720094768618
 21
1.790820897820331
 31
0.0
  0
LINE
  5
80
100
AcDbEntity
  8
USP-GEO
100
AcDbLine
 10
2.327720094768616
 20
1.790820897820331
 30
0.0
 11
2.275720094768617
 21
1.790820897820331
 31
0.0
  0
LINE
  5
81
100
AcDbEntity
  8
USP-GEO
100
AcDbLine
 10
1.343749999999973
 20
2.374999999999968
 30
0.0
 11
1.656249999999972
 21
2.374999999999968
 31
0.0
  0
LINE
  5
82
100
AcDbEntity
  8
USP-GEO
100
AcDbLine
 10
1.343749999999995
 20
3.458249999999971
 30
0.0
 11
1.343749999999974
 21
2.348999999999968
 31
0.0
  0
LINE
  5
83
100
AcDbEntity
  8
USP-GEO
100
AcDbLine
 10
0.9062499999999742
 20
2.348999999999964
 30
0.0
 11
0.9062499999999955
 21
3.458249999999974
 31
0.0
  0
LINE
  5
84
100
AcDbEntity
  8
USP-GEO
100
AcDbLine
 10
1.343749999999973
 20
2.348999999999964
 30
0.0
 11
0.9062499999999751
 21
2.348999999999964
 31
0.0
  0
LINE
  5
85
100
AcDbEntity
  8
USP-GEO
100
AcDbLine
 10
2.093749999999994
 20
3.458249999999974
 30
0.0
 11
2.093749999999972
 21
2.348999999999961
 31
0.0
  0
LINE
  5
86
100
AcDbEntity
  8
USP-GEO
100
AcDbLine
 10
1.656249999999974
 20
2.348999999999964
 30
0.0
 11
1.656249999999995
 21
3.458249999999974
 31
0.0
  0
LINE
  5
87
100
AcDbEntity
  8
USP-GEO
100
AcDbLine
 10
2.093749999999974
 20
2.348999999999964
 30
0.0
 11
1.656249999999973
 21
2.348999999999964
 31
0.0
  0
LINE
  5
88
100
AcDbEntity
  8
USP-GEO
100
AcDbLine
 10
2.275720094768617
 20
2.426999999999964
 30
0.0
 11
2.327720094768618
 21
2.426999999999964
 31
0.0
  0
LINE
  5
89
100
AcDbEntity
  8
USP-GEO
100
AcDbLine
 10
2.093749999999974
 20
2.374999999999964
 30
0.0
 11
2.275720094768617
 21
2.374999999999964
 31
0.0
  0
LINE
  5
8A
100
AcDbEntity
  8
USP-GEO
100
AcDbLine
 10
0.0000000000000027
 20
4.926999999999974
 30
0.0
 11
2.275720094768641
 21
4.926999999999974
 31
0.0
  0
CIRCLE
  5
8B
100
AcDbEntity
  8
USP-GEO
100
AcDbCircle
 10
0.4006634903542193
 20
4.426999999999971
 30
0.0
 40
0.09
  0
LINE
  5
8C
100
AcDbEntity
  8
USP-GEO
100
AcDbLine
 10
1.42107864376268
 20
4.176999999999967
 30
0.0
 11
1.562499999999997
 21
4.318421356237283
 31
0.0
  0
LINE
  5
8D
100
AcDbEntity
  8
USP-GEO
100
AcDbLine
 10
1.562499999999997
 20
4.035578643762651
 30
0.0
 11
1.421078643762681
 21
4.176999999999967
 31
0.0
  0
LINE
  5
8E
100
AcDbEntity
  8
USP-GEO
100
AcDbLine
 10
1.703921356237314
 20
4.176999999999967
 30
0.0
 11
1.562499999999997
 21
4.035578643762651
 31
0.0
  0
LINE
  5
8F
100
AcDbEntity
  8
USP-GEO
100
AcDbLine
 10
1.562499999999998
 20
4.318421356237283
 30
0.0
 11
1.703921356237314
 21
4.176999999999967
 31
0.0
  0
CIRCLE
  5
90
100
AcDbEntity
  8
USP-GEO
100
AcDbCircle
 10
2.062499999999996
 20
4.676999999999967
 30
0.0
 40
0.09
  0
LINE
  5
91
100
AcDbEntity
  8
USP-GEO
100
AcDbLine
 10
5.942220094768629
 20
4.926999999999939
 30
0.0
 11
5.94222009476862
 21
2.374999999999953
 31
0.0
  0
LINE
  5
92
100
AcDbEntity
  8
USP-GEO
100
AcDbLine
 10
5.942220094768616
 20
1.790820897820321
 30
0.0
 11
5.942220094768618
 21
2.374999999999953
 31
0.0
  0
LINE
  5
93
100
AcDbEntity
  8
USP-GEO
100
AcDbLine
 10
5.890220094768617
 20
2.426999999999953
 30
0.0
 11
5.890220094768615
 21
1.790820897820321
 31
0.0
  0
LINE
  5
94
100
AcDbEntity
  8
USP-GEO
100
AcDbLine
 10
5.808798647094343
 20
1.750000437522324
 30
0.0
 11
5.890220094768601
 21
1.912843332870835
 31
0.0
  0
LINE
  5
95
100
AcDbEntity
  8
USP-GEO
100
AcDbLine
 10
5.890220094768615
 20
1.790820897820321
 30
0.0
 11
5.942220094768616
 21
1.790820897820321
 31
0.0
  0
LINE
  5
96
100
AcDbEntity
  8
USP-GEO
100
AcDbLine
 10
5.890220094768597
 20
1.587157542173798
 30
0.0
 11
5.808798647094342
 21
1.750000437522324
 31
0.0
  0
LINE
  5
97
100
AcDbEntity
  8
USP-GEO
100
AcDbLine
 10
5.942220094768618
 20
2.426999999999953
 30
0.0
 11
5.890220094768617
 21
2.426999999999953
 31
0.0
  0
ARC
  5
98
100
AcDbEntity
  8
USP-GEO
100
AcDbCircle
 10
7.092940189537264
 20
3.458249999999932
 30
0.0
 40
0.21875
100
AcDbArc
 50
0.0000000000010178
 51
179.9999999999983
  0
LINE
  5
99
100
AcDbEntity
  8
USP-GEO
100
AcDbLine
 10
8.217940189537271
 20
4.926999999999917
 30
0.0
 11
7.777122737766108
 21
2.426999999999949
 31
0.0
  0
ARC
  5
9A
100
AcDbEntity
  8
USP-GEO
100
AcDbCircle
 10
6.342940189537268
 20
3.458249999999935
 30
0.0
 40
0.21875
100
AcDbArc
 50
359.9999999999992
 51
180.000000000001
  0
LINE
  5
9B
100
AcDbEntity
  8
USP-GEO
100
AcDbLine
 10
7.311690189537245
 20
2.348999999999925
 30
0.0
 11
6.874190189537246
 21
2.348999999999925
 31
0.0
  0
LINE
  5
9C
100
AcDbEntity
  8
USP-GEO
100
AcDbLine
 10
6.874190189537246
 20
2.348999999999925
 30
0.0
 11
6.874190189537268
 21
3.458249999999935
 31
0.0
  0
LINE
  5
9D
100
AcDbEntity
  8
USP-GEO
100
AcDbLine
 10
6.561690189537264
 20
3.458249999999932
 30
0.0
 11
6.561690189537243
 21
2.348999999999925
 31
0.0
  0
LINE
  5
9E
100
AcDbEntity
  8
USP-GEO
100
AcDbLine
 10
6.124190189537245
 20
2.348999999999925
 30
0.0
 11
6.124190189537266
 21
3.458249999999935
 31
0.0
  0
LINE
  5
9F
100
AcDbEntity
  8
USP-GEO
100
AcDbLine
 10
6.561690189537245
 20
2.348999999999925
 30
0.0
 11
6.124190189537245
 21
2.348999999999925
 31
0.0
  0
LINE
  5
A0
100
AcDbEntity
  8
USP-GEO
100
AcDbLine
 10
6.561690189537264
 20
2.37499999999995
 30
0.0
 11
6.874190189537266
 21
2.37499999999995
 31
0.0
  0
LINE
  5
A1
100
AcDbEntity
  8
USP-GEO
100
AcDbLine
 10
7.311690189537264
 20
3.458249999999935
 30
0.0
 11
7.311690189537243
 21
2.348999999999922
 31
0.0
  0
LINE
  5
A2
100
AcDbEntity
  8
USP-GEO
100
AcDbLine
 10
7.311690189537264
 20
2.37499999999995
 30
0.0
 11
7.777122737766111
 21
2.37499999999995
 31
0.0
  0
LINE
  5
A3
100
AcDbEntity
  8
USP-GEO
100
AcDbLine
 10
7.777122737766111
 20
2.426999999999949
 30
0.0
 11
7.777122737766111
 21
2.37499999999995
 31
0.0
  0
LINE
  5
A4
100
AcDbEntity
  8
USP-GEO
100
AcDbLine
 10
6.796861545774584
 20
4.176999999999939
 30
0.0
 11
6.655440189537266
 21
4.035578643762622
 31
0.0
  0
LINE
  5
A5
100
AcDbEntity
  8
USP-GEO
100
AcDbLine
 10
6.655440189537266
 20
4.035578643762615
 30
0.0
 11
6.51401883329995
 21
4.176999999999932
 31
0.0
  0
LINE
  5
A6
100
AcDbEntity
  8
USP-GEO
100
AcDbLine
 10
6.51401883329995
 20
4.176999999999939
 30
0.0
 11
6.655440189537266
 21
4.318421356237255
 31
0.0
  0
LINE
  5
A7
100
AcDbEntity
  8
USP-GEO
100
AcDbLine
 10
6.655440189537268
 20
4.318421356237251
 30
0.0
 11
6.796861545774584
 21
4.176999999999935
 31
0.0
  0
CIRCLE
  5
A8
100
AcDbEntity
  8
USP-GEO
100
AcDbCircle
 10
7.817276699183048
 20
4.426999999999932
 30
0.0
 40
0.09
  0
ENDBLK
  5
AA
100
AcDbEntity
  8
0
100
AcDbBlockEnd
  0
BLOCK
  5
D0
100
AcDbEntity
  8
0
100
AcDbBlockBegin
  2
THO35118_S
 70
     0
 10
0.0
 20
0.0
 30
0.0
  3
THO35118_S
  1

  0
LINE
  5
AD
100
AcDbEntity
  8
USP-GEO
100
AcDbLine
 10
2.426999999999985
 20
1.520750000000007
 30
0.0
 11
2.426999999999956
 21
11.927
 31
0.0
  0
LINE
  5
AE
100
AcDbEntity
  8
USP-GEO
100
AcDbLine
 10
2.374999999999957
 20
11.927
 30
0.0
 11
2.374999999999985
 21
1.520750000000007
 31
0.0
  0
LINE
  5
AF
100
AcDbEntity
  8
USP-GEO
100
AcDbLine
 10
-0.0000000000000018
 20
1.52075
 30
0.0
 11
1.790820897820331
 21
11.67700000000001
 31
0.0
  0
TEXT
  5
B0
100
AcDbEntity
  8
USP-TXT
100
AcDbText
 10
-1.722273981083361
 20
-2.462888130033748
 30
0.0
 40
0.421875
  1
THO35118 - SIDE VIEW
 72
     1
 11
2.285538518916638
 21
-2.462888130033748
 31
0.0
100
AcDbText
  0
CIRCLE
  5
B1
100
AcDbEntity
  8
USP-GEO
100
AcDbCircle
 10
0.2999831903527728
 20
1.348749999999891
 30
0.0
 40
0.2445322064677795
  0
LINE
  5
B2
100
AcDbEntity
  8
USP-GEO
100
AcDbLine
 10
2.374999999999996
 20
1.520750000000007
 30
0.0
 11
2.375
 21
0.0000000000000049
 31
0.0
  0
LINE
  5
B3
100
AcDbEntity
  8
USP-GEO
100
AcDbLine
 10
-0.0000000000000018
 20
1.52075
 30
0.0
 11
0.0000000000000018
 21
0.0000000000000004
 31
0.0
  0
LINE
  5
B4
100
AcDbEntity
  8
USP-GEO
100
AcDbLine
 10
1.750000437522327
 20
0.794433964686041
 30
0.0
 11
1.926776690877215
 21
0.9475266908772095
 31
0.0
  0
LINE
  5
B5
100
AcDbEntity
  8
USP-GEO
100
AcDbLine
 10
1.926776690877218
 20
0.9475266908772091
 30
0.0
 11
1.75
 21
0.7707499999999748
 31
0.0
  0
LINE
  5
B6
100
AcDbEntity
  8
USP-GEO
100
AcDbLine
 10
1.573223309122766
 20
0.9475266908772077
 30
0.0
 11
1.926776690877218
 21
0.9475266908772086
 31
0.0
  0
LINE
  5
B7
100
AcDbEntity
  8
USP-HID
100
AcDbLine
 10
-0.0000000000000018
 20
0.0520000000000009
 30
0.0
 11
2.375
 21
0.0520000000000058
 31
0.0
  0
LINE
  5
BA
100
AcDbEntity
  8
USP-GEO
100
AcDbLine
 10
0.0
 20
0.0
 30
0.0
 11
2.375
 21
0.0000000000000049
 31
0.0
  0
LINE
  5
BB
100
AcDbEntity
  8
USP-GEO
100
AcDbLine
 10
1.573223746645096
 20
0.9475270697826591
 30
0.0
 11
1.750000437522327
 21
0.7944339646860415
 31
0.0
  0
LINE
  5
BC
100
AcDbEntity
  8
USP-GEO
100
AcDbLine
 10
1.75
 20
0.7707499999999721
 30
0.0
 11
1.573223309122765
 21
0.947526690877205
 31
0.0
  0
ELLIPSE
  5
BD
100
AcDbEntity
  8
USP-GEO
100
AcDbEllipse
 10
0.2999831903527728
 20
1.477435663537054
 30
0.0
 11
0.0779999999999996
 21
0.0000000000000001
 31
0.0
210
0.0
220
0.0
230
1.0
 40
0.7071067811865456
 41
0.3639531895178678
 42
2.77763946407192
  0
ELLIPSE
  5
BE
100
AcDbEntity
  8
USP-GEO
100
AcDbEllipse
 10
0.2999831903527728
 20
1.516702374201628
 30
0.0
 11
-0.0779999999999996
 21
-0.0000000000000001
 31
0.0
210
0.0
220
0.0
230
1.0
 40
0.7071067811865456
 41
0.0
 42
6.283185307179586
  0
LINE
  5
BF
100
AcDbEntity
  8
USP-GEO
100
AcDbLine
 10
2.426999999999985
 20
1.520750000000007
 30
0.0
 11
2.374999999999985
 21
1.520750000000007
 31
0.0
  0
LINE
  5
C0
100
AcDbEntity
  8
USP-GEO
100
AcDbLine
 10
3.676999999999942
 20
12.00500000000001
 30
0.0
 11
3.458249999999942
 21
12.00500000000001
 31
0.0
  0
LINE
  5
C1
100
AcDbEntity
  8
USP-GEO
100
AcDbLine
 10
2.426999999999956
 20
11.92700000000001
 30
0.0
 11
4.926999999999924
 21
11.92700000000002
 31
0.0
  0
LINE
  5
C2
100
AcDbEntity
  8
USP-GEO
100
AcDbLine
 10
4.926999999999924
 20
11.97900000000001
 30
0.0
 11
2.426999999999956
 21
11.97900000000001
 31
0.0
  0
LINE
  5
C3
100
AcDbEntity
  8
USP-GEO
100
AcDbLine
 10
2.348999999999929
 20
12.00500000000001
 30
0.0
 11
2.348999999999932
 21
10.89575000000002
 31
0.0
  0
LINE
  5
C4
100
AcDbEntity
  8
USP-GEO
100
AcDbLine
 10
2.348999999999932
 20
10.89575000000002
 30
0.0
 11
2.348999999999932
 21
10.67700000000002
 31
0.0
  0
LINE
  5
C5
100
AcDbEntity
  8
USP-GEO
100
AcDbLine
 10
2.374999999999957
 20
10.67700000000002
 30
0.0
 11
2.348999999999932
 21
10.67700000000002
 31
0.0
  0
LINE
  5
C6
100
AcDbEntity
  8
USP-GEO
100
AcDbLine
 10
2.374999999999957
 20
10.89575000000002
 30
0.0
 11
2.348999999999932
 21
10.89575000000002
 31
0.0
  0
LINE
  5
C7
100
AcDbEntity
  8
USP-GEO
100
AcDbLine
 10
1.790820897820328
 20
11.67700000000001
 30
0.0
 11
2.348999999999932
 21
11.67700000000002
 31
0.0
  0
LINE
  5
C8
100
AcDbEntity
  8
USP-GEO
100
AcDbLine
 10
3.458249999999942
 20
12.00500000000001
 30
0.0
 11
2.348999999999932
 21
12.00500000000001
 31
0.0
  0
LINE
  5
C9
100
AcDbEntity
  8
USP-GEO
100
AcDbLine
 10
2.374999999999957
 20
11.979
 30
0.0
 11
2.374999999999957
 21
11.927
 31
0.0
  0
LINE
  5
CA
100
AcDbEntity
  8
USP-GEO
100
AcDbLine
 10
2.426999999999956
 20
11.927
 30
0.0
 11
2.426999999999956
 21
11.979
 31
0.0
  0
LINE
  5
CB
100
AcDbEntity
  8
USP-GEO
100
AcDbLine
 10
2.426999999999956
 20
11.979
 30
0.0
 11
2.374999999999957
 21
11.979
 31
0.0
  0
LINE
  5
CC
100
AcDbEntity
  8
USP-GEO
100
AcDbLine
 10
2.426999999999956
 20
11.927
 30
0.0
 11
2.374999999999957
 21
11.927
 31
0.0
  0
LINE
  5
CD
100
AcDbEntity
  8
USP-GEO
100
AcDbLine
 10
3.458249999999942
 20
11.97900000000001
 30
0.0
 11
3.458249999999942
 21
12.00500000000001
 31
0.0
  0
LINE
  5
CE
100
AcDbEntity
  8
USP-GEO
100
AcDbLine
 10
3.676999999999942
 20
11.97900000000001
 30
0.0
 11
3.676999999999942
 21
12.00500000000001
 31
0.0
  0
LINE
  5
CF
100
AcDbEntity
  8
USP-GEO
100
AcDbLine
 10
4.926999999999924
 20
11.92700000000001
 30
0.0
 11
4.926999999999924
 21
11.97900000000002
 31
0.0
  0
ENDBLK
  5
D1
100
AcDbEntity
  8
0
100
AcDbBlockEnd
  0
ENDSEC
  0
SECTION
  2
ENTITIES
  0
INSERT
  5
3
100
AcDbEntity
  8
USP
100
AcDbBlockReference
  2
THO35118_F
 10
0.2886913821127575
 20
2.462933046726253
 30
0.0
  0
INSERT
  5
58
100
AcDbEntity
  8
USP
100
AcDbBlockReference
  2
THO35118_T
 10
0.2886913821127575
 20
19.66715157662585
 30
0.0
  0
INSERT
  5
AB
100
AcDbEntity
  8
USP
100
AcDbBlockReference
  2
THO35118_S
 10
12.40330820447625
 20
2.462933046726242
 30
0.0
  0
VIEWPORT
  5
D7
102
{ACAD_XDICTIONARY
360
D8
102
}
100
AcDbEntity
 67
     1
  8
0
100
AcDbViewport
 10
5.285416850893516
 20
3.968749891115924
 30
0.0
 40
13.50573247017707
 41
8.992999745766947
 68
    -1
 69
     1
1001
ACAD
1000
MVIEW
1002
{
1070
    16
1010
0.0
1020
0.0
1030
0.0
1010
0.0
1020
0.0
1030
1.0
1040
0.0
1040
8.992999745766947
1040
5.285416850893516
1040
3.968749891115924
1040
50.0
1040
0.0
1040
0.0
1070
     0
1070
   100
1070
     1
1070
     1
1070
     0
1070
     0
1070
     0
1070
     0
1040
0.0
1040
0.0
1040
0.0
1040
0.5
1040
0.5
1040
0.5
1040
0.5
1070
     0
1002
{
1002
}
1002
}
  0
ENDSEC
  0
SECTION
  2
OBJECTS
  0
DICTIONARY
  5
EE
102
{ACAD_XDICTIONARY
360
EF
102
}
100
AcDbDictionary
  3
ACAD_GROUP
350
EC
  3
ACAD_MLINESTYLE
350
ED
  0
DICTIONARY
  5
D2
100
AcDbDictionary
280
     1
  3
ACAD_LAYOUTSELFREF
360
D3
  0
DICTIONARY
  5
DC
100
AcDbDictionary
280
     1
  3
ACAD_LAYOUTSELFREF
360
DD
  0
DICTIONARY
  5
D8
100
AcDbDictionary
280
     1
  3
ACAD_XREC_ROUNDTRIP
360
D9
  0
DICTIONARY
  5
EF
100
AcDbDictionary
280
     1
  3
ACAD_XREC_ROUNDTRIP
360
F0
  0
DICTIONARY
  5
EC
102
{ACAD_REACTORS
330
EE
102
}
100
AcDbDictionary
  0
DICTIONARY
  5
ED
102
{ACAD_REACTORS
330
EE
102
}
100
AcDbDictionary
  3
STANDARD
350
F1
  0
XRECORD
  5
D3
102
{ACAD_REACTORS
330
D2
102
}
100
AcDbXrecord
340
18
  0
XRECORD
  5
DD
102
{ACAD_REACTORS
330
DC
102
}
100
AcDbXrecord
340
15
  0
XRECORD
  5
D9
102
{ACAD_REACTORS
330
D8
102
}
100
AcDbXrecord
102
UCS
 74
     0
 71
     1
 10
0.0
 20
0.0
 30
0.0
 10
1.0
 20
0.0
 30
0.0
 10
0.0
 20
1.0
 30
0.0
146
0.0
 79
     0
102
VIEW
281
     0
102
NEWVIEWCONTROL
280
     4
  0
XRECORD
  5
F0
102
{ACAD_REACTORS
330
EF
102
}
100
AcDbXrecord
102
EXTNAMES
  1
ACDBVARIABLEDICTIONARY
  2
AcDbVariableDictionary
  0
MLINESTYLE
  5
F1
102
{ACAD_REACTORS
330
ED
102
}
100
AcDbMlineStyle
  2
STANDARD
 70
     0
  3

 62
     0
 51
90.0
 52
90.0
 71
     2
 49
0.5
 62
   256
  6
BYLAYER
 49
-0.5
 62
   256
  6
BYLAYER
  0
ENDSEC
  0
EOF
