  0
SECTION
  2
HEADER
  9
$ACADVER
  1
AC1014
  9
$ACADMAINTVER
 70
     9
  9
$DWGCODEPAGE
  3
ANSI_1252
  9
$INSBASE
 10
0.0
 20
0.0
 30
0.0
  9
$EXTMIN
 10
0.0007443724286702
 20
0.0008129993814521
 30
0.0
  9
$EXTMAX
 10
24.3388088033911
 20
26.64098592788274
 30
0.0
  9
$LIMMIN
 10
0.0
 20
0.0
  9
$LIMMAX
 10
12.0
 20
9.0
  9
$ORTHOMODE
 70
     0
  9
$REGENMODE
 70
     1
  9
$FILLMODE
 70
     1
  9
$QTEXTMODE
 70
     0
  9
$MIRRTEXT
 70
     0
  9
$DRAGMODE
 70
     2
  9
$LTSCALE
 40
1.5
  9
$OSMODE
 70
    37
  9
$ATTMODE
 70
     1
  9
$TEXTSIZE
 40
0.5
  9
$TRACEWID
 40
0.05
  9
$TEXTSTYLE
  7
STANDARD
  9
$CLAYER
  8
0
  9
$CELTYPE
  6
BYLAYER
  9
$CECOLOR
 62
   256
  9
$CELTSCALE
 40
1.0
  9
$DELOBJ
 70
     1
  9
$DISPSILH
 70
     1
  9
$DIMSCALE
 40
6.0
  9
$DIMASZ
 40
0.125
  9
$DIMEXO
 40
0.0625
  9
$DIMDLI
 40
0.37890625
  9
$DIMRND
 40
0.0
  9
$DIMDLE
 40
0.0
  9
$DIMEXE
 40
0.09375
  9
$DIMTP
 40
0.0
  9
$DIMTM
 40
0.0
  9
$DIMTXT
 40
0.109375
  9
$DIMCEN
 40
0.0
  9
$DIMTSZ
 40
0.0
  9
$DIMTOL
 70
     0
  9
$DIMLIM
 70
     0
  9
$DIMTIH
 70
     1
  9
$DIMTOH
 70
     1
  9
$DIMSE1
 70
     0
  9
$DIMSE2
 70
     0
  9
$DIMTAD
 70
     0
  9
$DIMZIN
 70
     8
  9
$DIMBLK
  1

  9
$DIMASO
 70
     1
  9
$DIMSHO
 70
     1
  9
$DIMPOST
  1

  9
$DIMAPOST
  1

  9
$DIMALT
 70
     0
  9
$DIMALTD
 70
     2
  9
$DIMALTF
 40
25.4
  9
$DIMLFAC
 40
1.0
  9
$DIMTOFL
 70
     0
  9
$DIMTVP
 40
0.0
  9
$DIMTIX
 70
     0
  9
$DIMSOXD
 70
     0
  9
$DIMSAH
 70
     0
  9
$DIMBLK1
  1

  9
$DIMBLK2
  1

  9
$DIMSTYLE
  2
STANDARD
  9
$DIMCLRD
 70
     0
  9
$DIMCLRE
 70
     0
  9
$DIMCLRT
 70
   256
  9
$DIMTFAC
 40
1.0
  9
$DIMGAP
 40
0.08984375
  9
$DIMJUST
 70
     0
  9
$DIMSD1
 70
     0
  9
$DIMSD2
 70
     0
  9
$DIMTOLJ
 70
     1
  9
$DIMTZIN
 70
     0
  9
$DIMALTZ
 70
     0
  9
$DIMALTTZ
 70
     0
  9
$DIMFIT
 70
     3
  9
$DIMUPT
 70
     1
  9
$DIMUNIT
 70
     7
  9
$DIMDEC
 70
     4
  9
$DIMTDEC
 70
     4
  9
$DIMALTU
 70
     2
  9
$DIMALTTD
 70
     2
  9
$DIMTXSTY
  7
STANDARD
  9
$DIMAUNIT
 70
     0
  9
$LUNITS
 70
     5
  9
$LUPREC
 70
     6
  9
$SKETCHINC
 40
0.1
  9
$FILLETRAD
 40
0.0
  9
$AUNITS
 70
     0
  9
$AUPREC
 70
     1
  9
$MENU
  1
CUSTOM
  9
$ELEVATION
 40
0.0
  9
$PELEVATION
 40
0.0
  9
$THICKNESS
 40
0.0
  9
$LIMCHECK
 70
     0
  9
$BLIPMODE
 70
     0
  9
$CHAMFERA
 40
0.0
  9
$CHAMFERB
 40
0.0
  9
$CHAMFERC
 40
0.0
  9
$CHAMFERD
 40
0.0
  9
$SKPOLY
 70
     0
  9
$TDCREATE
 40
2451263.663231366
  9
$TDUPDATE
 40
2452759.747696030
  9
$TDINDWG
 40
0.1275875347
  9
$TDUSRTIMER
 40
0.1275875347
  9
$USRTIMER
 70
     1
  9
$ANGBASE
 50
0.0
  9
$ANGDIR
 70
     0
  9
$PDMODE
 70
     0
  9
$PDSIZE
 40
0.0
  9
$PLINEWID
 40
0.0
  9
$COORDS
 70
     1
  9
$SPLFRAME
 70
     0
  9
$SPLINETYPE
 70
     6
  9
$SPLINESEGS
 70
     8
  9
$ATTDIA
 70
     0
  9
$ATTREQ
 70
     1
  9
$HANDLING
 70
     1
  9
$HANDSEED
  5
C4
  9
$SURFTAB1
 70
     6
  9
$SURFTAB2
 70
     6
  9
$SURFTYPE
 70
     6
  9
$SURFU
 70
     6
  9
$SURFV
 70
     6
  9
$UCSNAME
  2

  9
$UCSORG
 10
0.0
 20
0.0
 30
0.0
  9
$UCSXDIR
 10
1.0
 20
0.0
 30
0.0
  9
$UCSYDIR
 10
0.0
 20
1.0
 30
0.0
  9
$PUCSNAME
  2

  9
$PUCSORG
 10
0.0
 20
0.0
 30
0.0
  9
$PUCSXDIR
 10
1.0
 20
0.0
 30
0.0
  9
$PUCSYDIR
 10
0.0
 20
1.0
 30
0.0
  9
$USERI1
 70
     0
  9
$USERI2
 70
     0
  9
$USERI3
 70
     0
  9
$USERI4
 70
     0
  9
$USERI5
 70
     0
  9
$USERR1
 40
0.0
  9
$USERR2
 40
0.0
  9
$USERR3
 40
0.0
  9
$USERR4
 40
0.0
  9
$USERR5
 40
0.0
  9
$WORLDVIEW
 70
     1
  9
$SHADEDGE
 70
     3
  9
$SHADEDIF
 70
    70
  9
$TILEMODE
 70
     1
  9
$MAXACTVP
 70
    16
  9
$PINSBASE
 10
0.0
 20
0.0
 30
0.0
  9
$PLIMCHECK
 70
     0
  9
$PEXTMIN
 10
1.052083323321005
 20
0.7937500251559762
 30
0.0
  9
$PEXTMAX
 10
9.468749909889039
 20
7.143750226403783
 30
0.0
  9
$PLIMMIN
 10
-0.2145830289585384
 20
-0.2812499887361301
  9
$PLIMMAX
 10
10.78541673074557
 20
8.218749770967978
  9
$UNITMODE
 70
     0
  9
$VISRETAIN
 70
     0
  9
$PLINEGEN
 70
     0
  9
$PSLTSCALE
 70
     0
  9
$TREEDEPTH
 70
  3020
  9
$PICKSTYLE
 70
     1
  9
$CMLSTYLE
  2
STANDARD
  9
$CMLJUST
 70
     0
  9
$CMLSCALE
 40
1.0
  9
$PROXYGRAPHICS
 70
     1
  9
$MEASUREMENT
 70
     0
  0
ENDSEC
  0
SECTION
  2
CLASSES
  0
CLASS
  1
ACDBDICTIONARYWDFLT
  2
AcDbDictionaryWithDefault
  3
AutoCAD 2000
 90
        0
280
     0
281
     0
  0
CLASS
  1
ACDBPLACEHOLDER
  2
AcDbPlaceHolder
  3
AutoCAD 2000
 90
        0
280
     0
281
     0
  0
CLASS
  1
LAYOUT
  2
AcDbLayout
  3
AutoCAD 2000
 90
        0
280
     0
281
     0
  0
CLASS
  1
DICTIONARYVAR
  2
AcDbDictionaryVar
  3
"AutoCAD"
 90
        0
280
     0
281
     0
  0
CLASS
  1
LONG_TRANSACTION
  2
AcDbLongTransaction
  3
AutoCAD 2000
 90
        0
280
     0
281
     0
  0
CLASS
  1
LWPOLYLINE
  2
AcDbPolyline
  3
"AutoCAD"
 90
        0
280
     0
281
     1
  0
CLASS
  1
HATCH
  2
AcDbHatch
  3
"ACAD_SEDONA"
 90
        0
280
     0
281
     1
  0
CLASS
  1
XRECORD
  2
AcDbXrecord
  3
"<Built In>"
 90
        0
280
     0
281
     0
  0
CLASS
  1
LONG_TRANSACTION
  2
AcDbLongTransaction
  3
AutoCAD 2000
 90
        0
280
     0
281
     0
  0
CLASS
  1
LWPOLYLINE
  2
AcDbPolyline
  3
"AutoCAD"
 90
        0
280
     0
281
     1
  0
CLASS
  1
HATCH
  2
AcDbHatch
  3
"ACAD_SEDONA"
 90
        0
280
     0
281
     1
  0
CLASS
  1
XRECORD
  2
AcDbXrecord
  3
"<Built In>"
 90
        0
280
     0
281
     0
  0
ENDSEC
  0
SECTION
  2
TABLES
  0
TABLE
  2
VPORT
  5
A6
100
AcDbSymbolTable
 70
     1
  0
VPORT
  5
C0
100
AcDbSymbolTableRecord
100
AcDbViewportTableRecord
  2
*ACTIVE
 70
     0
 10
0.0
 20
0.0
 11
1.0
 21
1.0
 12
-10.92569769363864
 22
23.91972152555604
 13
0.0
 23
0.0
 14
1.0
 24
1.0
 15
0.0
 25
0.0
 16
0.0
 26
0.0
 36
1.0
 17
23.09603071721725
 27
-10.27010416511325
 37
-10.44050274849355
 40
27.49384090526168
 41
1.457627118644067
 42
50.0
 43
10.55307667737539
 44
10.55307667737539
 50
0.0
 51
0.0
 71
     0
 72
   100
 73
     1
 74
     1
 75
     0
 76
     0
 77
     0
 78
     0
  0
ENDTAB
  0
TABLE
  2
LTYPE
  5
A1
100
AcDbSymbolTable
 70
     2
  0
LTYPE
  5
A2
100
AcDbSymbolTableRecord
100
AcDbLinetypeTableRecord
  2
BYBLOCK
 70
     0
  3

 72
    65
 73
     0
 40
0.0
  0
LTYPE
  5
A3
100
AcDbSymbolTableRecord
100
AcDbLinetypeTableRecord
  2
BYLAYER
 70
     0
  3

 72
    65
 73
     0
 40
0.0
  0
LTYPE
  5
5
100
AcDbSymbolTableRecord
100
AcDbLinetypeTableRecord
  2
CONTINUOUS
 70
     0
  3
Solid line
 72
    65
 73
     0
 40
0.0
  0
LTYPE
  5
17
100
AcDbSymbolTableRecord
100
AcDbLinetypeTableRecord
  2
HIDDEN
 70
     0
  3
Hidden __ __ __ __ __ __ __ __ __ __ __ __ __ _
 72
    65
 73
     2
 40
0.375
 49
0.25
 74
     0
 49
-0.125
 74
     0
  0
ENDTAB
  0
TABLE
  2
LAYER
  5
9F
100
AcDbSymbolTable
 70
     5
  0
LAYER
  5
3C
100
AcDbSymbolTableRecord
100
AcDbLayerTableRecord
  2
0
 70
     0
 62
     7
  6
CONTINUOUS
  0
LAYER
  5
8
100
AcDbSymbolTableRecord
100
AcDbLayerTableRecord
  2
USP-GEO
 70
     0
 62
     7
  6
CONTINUOUS
  0
LAYER
  5
B
100
AcDbSymbolTableRecord
100
AcDbLayerTableRecord
  2
USP-TXT
 70
     0
 62
     7
  6
CONTINUOUS
  0
LAYER
  5
16
100
AcDbSymbolTableRecord
100
AcDbLayerTableRecord
  2
USP-HID
 70
     0
 62
     7
  6
HIDDEN
  0
LAYER
  5
4
100
AcDbSymbolTableRecord
100
AcDbLayerTableRecord
  2
USP
 70
     0
 62
     7
  6
CONTINUOUS
  0
ENDTAB
  0
TABLE
  2
STYLE
  5
A0
100
AcDbSymbolTable
 70
     1
  0
STYLE
  5
C
100
AcDbSymbolTableRecord
100
AcDbTextStyleTableRecord
  2
STANDARD
 70
     0
 40
0.0
 41
1.0
 50
0.0
 71
     0
 42
0.5
  3
txt
  4

  0
ENDTAB
  0
TABLE
  2
VIEW
  5
A4
100
AcDbSymbolTable
 70
     0
  0
ENDTAB
  0
TABLE
  2
UCS
  5
A5
100
AcDbSymbolTable
 70
     0
  0
ENDTAB
  0
TABLE
  2
APPID
  5
A8
100
AcDbSymbolTable
 70
     1
  0
APPID
  5
9A
100
AcDbSymbolTableRecord
100
AcDbRegAppTableRecord
  2
ACAD
 70
     0
  0
ENDTAB
  0
TABLE
  2
DIMSTYLE
  5
A9
100
AcDbSymbolTable
 70
     1
  0
DIMSTYLE
105
B1
100
AcDbSymbolTableRecord
100
AcDbDimStyleTableRecord
  2
STANDARD
 70
     0
  3

  4

  5

  6

  7

 40
1.0
 41
0.18
 42
0.0625
 43
0.38
 44
0.18
 45
0.0
 46
0.0
 47
0.0
 48
0.0
140
0.18
141
0.09
142
0.0
143
25.4
144
1.0
145
0.0
146
1.0
147
0.09
 71
     0
 72
     0
 73
     1
 74
     1
 75
     0
 76
     0
 77
     0
 78
     0
170
     0
171
     2
172
     0
173
     0
174
     0
175
     0
176
     0
177
     0
178
     0
270
     2
271
     4
272
     4
273
     2
274
     2
340
C
275
     0
280
     0
281
     0
282
     0
283
     1
284
     0
285
     0
286
     0
287
     3
288
     0
  0
ENDTAB
  0
TABLE
  2
BLOCK_RECORD
  5
1
100
AcDbSymbolTable
 70
     3
  0
BLOCK_RECORD
  5
2
102
{ACAD_XDICTIONARY
360
91
102
}
100
AcDbSymbolTableRecord
100
AcDbBlockTableRecord
  2
*MODEL_SPACE
  0
BLOCK_RECORD
  5
95
102
{ACAD_XDICTIONARY
360
9B
102
}
100
AcDbSymbolTableRecord
100
AcDbBlockTableRecord
  2
*PAPER_SPACE
  0
BLOCK_RECORD
  5
6
100
AcDbSymbolTableRecord
100
AcDbBlockTableRecord
  2
THO23118-2_F
  0
BLOCK_RECORD
  5
3F
100
AcDbSymbolTableRecord
100
AcDbBlockTableRecord
  2
THO23118-2_T
  0
BLOCK_RECORD
  5
7A
100
AcDbSymbolTableRecord
100
AcDbBlockTableRecord
  2
THO23118-2_S
  0
ENDTAB
  0
ENDSEC
  0
SECTION
  2
BLOCKS
  0
BLOCK
  5
93
100
AcDbEntity
  8
0
100
AcDbBlockBegin
  2
*MODEL_SPACE
 70
     0
 10
0.0
 20
0.0
 30
0.0
  3
*MODEL_SPACE
  1

  0
ENDBLK
  5
94
100
AcDbEntity
  8
0
100
AcDbBlockEnd
  0
BLOCK
  5
9D
100
AcDbEntity
 67
     1
  8
0
100
AcDbBlockBegin
  2
*PAPER_SPACE
 70
     0
 10
0.0
 20
0.0
 30
0.0
  3
*PAPER_SPACE
  1

  0
ENDBLK
  5
9E
100
AcDbEntity
 67
     1
  8
0
100
AcDbBlockEnd
  0
BLOCK
  5
3B
100
AcDbEntity
  8
0
100
AcDbBlockBegin
  2
THO23118-2_F
 70
     0
 10
0.0
 20
0.0
 30
0.0
  3
THO23118-2_F
  1

  0
LINE
  5
7
100
AcDbEntity
  8
USP-GEO
100
AcDbLine
 10
11.71992230190036
 20
11.93480000000001
 30
0.0
 11
12.3696
 21
11.93480000000001
 31
0.0
  0
LINE
  5
9
100
AcDbEntity
  8
USP-GEO
100
AcDbLine
 10
12.3696
 20
11.99460000000001
 30
0.0
 11
11.71992230190036
 21
11.99460000000001
 31
0.0
  0
TEXT
  5
A
100
AcDbEntity
  8
USP-TXT
100
AcDbText
 10
0.6097941317152831
 20
-2.763610226531952
 30
0.0
 40
0.5
  1
THO23118-2 - FRONT VIEW
 72
     1
 11
6.193127465048615
 21
-2.763610226531952
 31
0.0
100
AcDbText
  0
LINE
  5
D
100
AcDbEntity
  8
USP-GEO
100
AcDbLine
 10
3.75
 20
-0.0000000000000018
 30
0.0
 11
8.619600000000001
 21
-0.0000000000000018
 31
0.0
  0
LINE
  5
E
100
AcDbEntity
  8
USP-GEO
100
AcDbLine
 10
3.809799999999999
 20
0.0597999999999974
 30
0.0
 11
8.559799999999995
 21
0.0597999999999974
 31
0.0
  0
LINE
  5
F
100
AcDbEntity
  8
USP-GEO
100
AcDbLine
 10
3.750000000000003
 20
1.794102680684693
 30
0.0
 11
0.6496776980996551
 21
11.93480000000011
 31
0.0
  0
LINE
  5
10
100
AcDbEntity
  8
USP-GEO
100
AcDbLine
 10
3.750000000000001
 20
11.60666053613699
 30
0.0
 11
3.75
 21
0.4347999999999974
 31
0.0
  0
LINE
  5
11
100
AcDbEntity
  8
USP-GEO
100
AcDbLine
 10
3.809799999999999
 20
0.4347999999999974
 30
0.0
 11
3.8098
 21
11.60666053613699
 31
0.0
  0
LINE
  5
12
100
AcDbEntity
  8
USP-GEO
100
AcDbLine
 10
3.809799999999999
 20
0.0597999999999974
 30
0.0
 11
3.809799999999999
 21
0.4347999999999974
 31
0.0
  0
LINE
  5
13
100
AcDbEntity
  8
USP-GEO
100
AcDbLine
 10
3.75
 20
0.4347999999999974
 30
0.0
 11
3.75
 21
-0.0000000000000018
 31
0.0
  0
LINE
  5
14
100
AcDbEntity
  8
USP-GEO
100
AcDbLine
 10
3.809799999999999
 20
0.4347999999999974
 30
0.0
 11
3.75
 21
0.4347999999999974
 31
0.0
  0
LINE
  5
15
100
AcDbEntity
  8
USP-HID
100
AcDbLine
 10
0.6496776980996231
 20
11.9348000000001
 30
0.0
 11
3.649677698099655
 21
11.9348000000001
 31
0.0
  0
LINE
  5
18
100
AcDbEntity
  8
USP-GEO
100
AcDbLine
 10
0.6496776980996231
 20
11.99460000000009
 30
0.0
 11
3.649677698099626
 21
11.99460000000009
 31
0.0
  0
LINE
  5
19
100
AcDbEntity
  8
USP-GEO
100
AcDbLine
 10
0.6496776980996231
 20
11.9348000000001
 30
0.0
 11
0.0
 21
11.9348000000001
 31
0.0
  0
LINE
  5
1A
100
AcDbEntity
  8
USP-GEO
100
AcDbLine
 10
0.6496776980996231
 20
11.99460000000009
 30
0.0
 11
0.0
 21
11.99460000000009
 31
0.0
  0
LINE
  5
1B
100
AcDbEntity
  8
USP-GEO
100
AcDbLine
 10
0.0
 20
11.9348000000001
 30
0.0
 11
0.0
 21
11.99460000000009
 31
0.0
  0
LINE
  5
1C
100
AcDbEntity
  8
USP-GEO
100
AcDbLine
 10
0.6496776980996231
 20
11.9348000000001
 30
0.0
 11
0.6496776980996231
 21
11.99460000000009
 31
0.0
  0
LINE
  5
1D
100
AcDbEntity
  8
USP-GEO
100
AcDbLine
 10
2.760527317377567
 20
8.449352421735174
 30
0.0
 11
2.956085713924935
 21
8.226415374871326
 31
0.0
  0
LINE
  5
1E
100
AcDbEntity
  8
USP-GEO
100
AcDbLine
 10
2.537590270513749
 20
8.253794025187779
 30
0.0
 11
2.760527317377569
 21
8.449352421735177
 31
0.0
  0
LINE
  5
1F
100
AcDbEntity
  8
USP-GEO
100
AcDbLine
 10
2.733148667061117
 20
8.030856978323928
 30
0.0
 11
2.537590270513748
 21
8.253794025187776
 31
0.0
  0
CIRCLE
  5
20
100
AcDbEntity
  8
USP-GEO
100
AcDbCircle
 10
2.484478759915322
 20
7.216050000000086
 30
0.0
 40
0.109
  0
LINE
  5
21
100
AcDbEntity
  8
USP-GEO
100
AcDbLine
 10
2.956085713924936
 20
8.226415374871329
 30
0.0
 11
2.733148667061117
 21
8.030856978323932
 31
0.0
  0
CIRCLE
  5
22
100
AcDbEntity
  8
USP-GEO
100
AcDbCircle
 10
1.911233732180349
 20
9.091050000000086
 30
0.0
 40
0.109
  0
CIRCLE
  5
23
100
AcDbEntity
  8
USP-GEO
100
AcDbCircle
 10
2.484478759915322
 20
11.05980000000008
 30
0.0
 40
0.109
  0
LINE
  5
24
100
AcDbEntity
  8
USP-GEO
100
AcDbLine
 10
3.64967769809966
 20
11.9348000000001
 30
0.0
 11
3.750000000000003
 21
11.606660536137
 31
0.0
  0
LINE
  5
25
100
AcDbEntity
  8
USP-GEO
100
AcDbLine
 10
3.750000000000003
 20
11.606660536137
 30
0.0
 11
3.809799999999999
 21
11.606660536137
 31
0.0
  0
LINE
  5
26
100
AcDbEntity
  8
USP-GEO
100
AcDbLine
 10
3.649677698099626
 20
11.99460000000009
 30
0.0
 11
3.649677698099626
 21
11.9348000000001
 31
0.0
  0
LINE
  5
27
100
AcDbEntity
  8
USP-GEO
100
AcDbLine
 10
11.71992230190033
 20
11.93480000000002
 30
0.0
 11
8.619599999999994
 21
1.794102680684622
 31
0.0
  0
LINE
  5
28
100
AcDbEntity
  8
USP-GEO
100
AcDbLine
 10
8.619599999999998
 20
0.4348000000000152
 30
0.0
 11
8.619599999999998
 21
11.60666053613693
 31
0.0
  0
LINE
  5
29
100
AcDbEntity
  8
USP-GEO
100
AcDbLine
 10
8.559799999999995
 20
0.4348000000000152
 30
0.0
 11
8.559799999999995
 21
11.60666053613693
 31
0.0
  0
LINE
  5
2A
100
AcDbEntity
  8
USP-GEO
100
AcDbLine
 10
8.559799999999995
 20
0.4348000000000152
 30
0.0
 11
8.619599999999998
 21
0.4348000000000152
 31
0.0
  0
LINE
  5
2B
100
AcDbEntity
  8
USP-GEO
100
AcDbLine
 10
8.559799999999995
 20
0.0597999999999974
 30
0.0
 11
8.559799999999995
 21
0.4348000000000152
 31
0.0
  0
LINE
  5
2C
100
AcDbEntity
  8
USP-GEO
100
AcDbLine
 10
8.619599999999998
 20
-0.0000000000000018
 30
0.0
 11
8.619599999999998
 21
0.4348000000000152
 31
0.0
  0
LINE
  5
2D
100
AcDbEntity
  8
USP-GEO
100
AcDbLine
 10
9.609072682622556
 20
8.449352421734991
 30
0.0
 11
9.832009729486376
 21
8.253794025187593
 31
0.0
  0
LINE
  5
2E
100
AcDbEntity
  8
USP-GEO
100
AcDbLine
 10
9.413514286075187
 20
8.226415374871143
 30
0.0
 11
9.609072682622556
 21
8.449352421734991
 31
0.0
  0
CIRCLE
  5
2F
100
AcDbEntity
  8
USP-GEO
100
AcDbCircle
 10
9.885121240084689
 20
7.216049999999901
 30
0.0
 40
0.109
  0
LINE
  5
30
100
AcDbEntity
  8
USP-GEO
100
AcDbLine
 10
9.636451332939007
 20
8.030856978323747
 30
0.0
 11
9.413514286075187
 21
8.226415374871145
 31
0.0
  0
LINE
  5
31
100
AcDbEntity
  8
USP-GEO
100
AcDbLine
 10
9.832009729486378
 20
8.253794025187591
 30
0.0
 11
9.636451332939007
 21
8.030856978323743
 31
0.0
  0
LINE
  5
32
100
AcDbEntity
  8
USP-HID
100
AcDbLine
 10
8.719922301900485
 20
11.93480000000001
 30
0.0
 11
11.71992230190037
 21
11.93480000000001
 31
0.0
  0
LINE
  5
33
100
AcDbEntity
  8
USP-GEO
100
AcDbLine
 10
8.719922301900485
 20
11.99460000000001
 30
0.0
 11
11.71992230190037
 21
11.99460000000001
 31
0.0
  0
LINE
  5
34
100
AcDbEntity
  8
USP-GEO
100
AcDbLine
 10
8.559799999999992
 20
11.60666053613693
 30
0.0
 11
8.619599999999994
 21
11.60666053613693
 31
0.0
  0
LINE
  5
35
100
AcDbEntity
  8
USP-GEO
100
AcDbLine
 10
8.619599999999994
 20
11.60666053613693
 30
0.0
 11
8.719922301900485
 21
11.93480000000001
 31
0.0
  0
LINE
  5
36
100
AcDbEntity
  8
USP-GEO
100
AcDbLine
 10
8.719922301900485
 20
11.93480000000001
 30
0.0
 11
8.719922301900485
 21
11.99460000000001
 31
0.0
  0
CIRCLE
  5
37
100
AcDbEntity
  8
USP-GEO
100
AcDbCircle
 10
9.885121240084803
 20
11.05980000000001
 30
0.0
 40
0.109
  0
CIRCLE
  5
38
100
AcDbEntity
  8
USP-GEO
100
AcDbCircle
 10
10.45836626781966
 20
9.091049999999901
 30
0.0
 40
0.109
  0
LINE
  5
39
100
AcDbEntity
  8
USP-GEO
100
AcDbLine
 10
11.71992230190037
 20
11.99460000000001
 30
0.0
 11
11.71992230190037
 21
11.93480000000001
 31
0.0
  0
LINE
  5
3A
100
AcDbEntity
  8
USP-GEO
100
AcDbLine
 10
12.3696
 20
11.93480000000001
 30
0.0
 11
12.3696
 21
11.99460000000001
 31
0.0
  0
ENDBLK
  5
3D
100
AcDbEntity
  8
0
100
AcDbBlockEnd
  0
BLOCK
  5
77
100
AcDbEntity
  8
0
100
AcDbBlockBegin
  2
THO23118-2_T
 70
     0
 10
0.0
 20
0.0
 30
0.0
  3
THO23118-2_T
  1

  0
LINE
  5
40
100
AcDbEntity
  8
USP-GEO
100
AcDbLine
 10
9.369599999999996
 20
5.600380534874293
 30
0.0
 11
12.36960000000001
 21
5.600380534874293
 31
0.0
  0
LINE
  5
41
100
AcDbEntity
  8
USP-GEO
100
AcDbLine
 10
12.36960000000001
 20
5.600380534874293
 30
0.0
 11
11.71992230190037
 21
3.475380534874286
 31
0.0
  0
TEXT
  5
42
100
AcDbEntity
  8
USP-TXT
100
AcDbText
 10
1.109794131715286
 20
-2.475979004017927
 30
0.0
 40
0.5
  1
THO23118-2 - TOP VIEW
 72
     1
 11
6.193127465048616
 21
-2.475979004017927
 31
0.0
100
AcDbText
  0
LINE
  5
43
100
AcDbEntity
  8
USP-GEO
100
AcDbLine
 10
3.8098
 20
-0.0000000000000009
 30
0.0
 11
8.559799999999997
 21
-0.0000000000000009
 31
0.0
  0
LINE
  5
44
100
AcDbEntity
  8
USP-GEO
100
AcDbLine
 10
8.559799999999997
 20
3.0
 30
0.0
 11
3.8098
 21
3.0
 31
0.0
  0
LINE
  5
45
100
AcDbEntity
  8
USP-GEO
100
AcDbLine
 10
3.750000000000003
 20
3.415580534874315
 30
0.0
 11
3.750000000000001
 21
-0.0000000000000018
 31
0.0
  0
LINE
  5
46
100
AcDbEntity
  8
USP-GEO
100
AcDbLine
 10
3.8098
 20
-0.0000000000000018
 30
0.0
 11
3.809800000000002
 21
3.415580534874315
 31
0.0
  0
LINE
  5
47
100
AcDbEntity
  8
USP-GEO
100
AcDbLine
 10
3.8098
 20
-0.0000000000000018
 30
0.0
 11
3.750000000000001
 21
-0.0000000000000018
 31
0.0
  0
LINE
  5
48
100
AcDbEntity
  8
USP-HID
100
AcDbLine
 10
0.6496776980996249
 20
3.475380534874293
 30
0.0
 11
3.649677698099656
 21
3.475380534874293
 31
0.0
  0
CIRCLE
  5
49
100
AcDbEntity
  8
USP-GEO
100
AcDbCircle
 10
0.7821476690878644
 20
4.975380534874279
 30
0.0
 40
0.109
  0
LINE
  5
4A
100
AcDbEntity
  8
USP-GEO
100
AcDbLine
 10
0.0000000000000018
 20
5.600380534874279
 30
0.0
 11
3.000000000000005
 21
5.600380534874279
 31
0.0
  0
LINE
  5
4B
100
AcDbEntity
  8
USP-GEO
100
AcDbLine
 10
0.6496776980996249
 20
3.41558053487429
 30
0.0
 11
3.649677698099628
 21
3.41558053487429
 31
0.0
  0
LINE
  5
4C
100
AcDbEntity
  8
USP-GEO
100
AcDbLine
 10
0.6496776980996249
 20
3.475380534874293
 30
0.0
 11
0.0000000000000018
 21
5.600380534874279
 31
0.0
  0
LINE
  5
4D
100
AcDbEntity
  8
USP-GEO
100
AcDbLine
 10
0.6496776980996249
 20
3.475380534874293
 30
0.0
 11
0.6496776980996249
 21
3.41558053487429
 31
0.0
  0
LINE
  5
4E
100
AcDbEntity
  8
USP-GEO
100
AcDbLine
 10
3.0
 20
5.600380534874279
 30
0.0
 11
3.649677698099655
 21
3.4753805348743
 31
0.0
  0
LINE
  5
4F
100
AcDbEntity
  8
USP-GEO
100
AcDbLine
 10
1.806895006554414
 20
4.727659755487852
 30
0.0
 11
1.934174227167988
 21
4.600380534874265
 31
0.0
  0
LINE
  5
50
100
AcDbEntity
  8
USP-GEO
100
AcDbLine
 10
1.934174227167988
 20
4.600380534874265
 30
0.0
 11
1.806895006554414
 21
4.473101314260691
 31
0.0
  0
LINE
  5
51
100
AcDbEntity
  8
USP-GEO
100
AcDbLine
 10
1.679615785940827
 20
4.600380534874279
 30
0.0
 11
1.806895006554414
 21
4.727659755487852
 31
0.0
  0
LINE
  5
52
100
AcDbEntity
  8
USP-GEO
100
AcDbLine
 10
1.806895006554414
 20
4.473101314260691
 30
0.0
 11
1.679615785940827
 21
4.600380534874279
 31
0.0
  0
LINE
  5
53
100
AcDbEntity
  8
USP-GEO
100
AcDbLine
 10
3.649677698099628
 20
3.475380534874293
 30
0.0
 11
3.649677698099628
 21
3.41558053487429
 31
0.0
  0
LINE
  5
54
100
AcDbEntity
  8
USP-GEO
100
AcDbLine
 10
3.750000000000005
 20
3.475380534874293
 30
0.0
 11
3.750000000000005
 21
3.41558053487429
 31
0.0
  0
LINE
  5
55
100
AcDbEntity
  8
USP-GEO
100
AcDbLine
 10
3.8098
 20
3.475380534874293
 30
0.0
 11
3.8098
 21
3.41558053487429
 31
0.0
  0
LINE
  5
56
100
AcDbEntity
  8
USP-GEO
100
AcDbLine
 10
3.750000000000005
 20
3.41558053487429
 30
0.0
 11
3.8098
 21
3.41558053487429
 31
0.0
  0
LINE
  5
57
100
AcDbEntity
  8
USP-GEO
100
AcDbLine
 10
3.649677698099662
 20
3.41558053487429
 30
0.0
 11
3.750000000000005
 21
3.41558053487429
 31
0.0
  0
LINE
  5
58
100
AcDbEntity
  8
USP-GEO
100
AcDbLine
 10
3.750000000000005
 20
3.475380534874293
 30
0.0
 11
3.8098
 21
3.475380534874293
 31
0.0
  0
LINE
  5
59
100
AcDbEntity
  8
USP-GEO
100
AcDbLine
 10
3.750000000000005
 20
3.475380534874293
 30
0.0
 11
3.649677698099662
 21
3.475380534874293
 31
0.0
  0
CIRCLE
  5
5A
100
AcDbEntity
  8
USP-GEO
100
AcDbCircle
 10
2.627185655080571
 20
5.225380534874393
 30
0.0
 40
0.109
  0
LINE
  5
5B
100
AcDbEntity
  8
USP-GEO
100
AcDbLine
 10
8.6196
 20
-0.0000000000000018
 30
0.0
 11
8.619600000000001
 21
3.41558053487429
 31
0.0
  0
LINE
  5
5C
100
AcDbEntity
  8
USP-GEO
100
AcDbLine
 10
8.559799999999997
 20
-0.0000000000000018
 30
0.0
 11
8.559799999999999
 21
3.41558053487429
 31
0.0
  0
LINE
  5
5D
100
AcDbEntity
  8
USP-GEO
100
AcDbLine
 10
5.557520779386412
 20
0.3000000000000114
 30
0.0
 11
5.6848
 21
0.4272792206135705
 31
0.0
  0
LINE
  5
5E
100
AcDbEntity
  8
USP-GEO
100
AcDbLine
 10
5.6848
 20
0.1727207793864229
 30
0.0
 11
5.557520779386413
 21
0.3000000000000105
 31
0.0
  0
LINE
  5
5F
100
AcDbEntity
  8
USP-GEO
100
AcDbLine
 10
5.684800000000002
 20
0.4272792206135714
 30
0.0
 11
5.81207922061359
 21
0.3000000000000123
 31
0.0
  0
LINE
  5
60
100
AcDbEntity
  8
USP-GEO
100
AcDbLine
 10
5.812079220613588
 20
0.3000000000000105
 30
0.0
 11
5.6848
 21
0.1727207793864229
 31
0.0
  0
LINE
  5
61
100
AcDbEntity
  8
USP-GEO
100
AcDbLine
 10
6.684800000000001
 20
0.4272792206135705
 30
0.0
 11
6.812079220613589
 21
0.3000000000000114
 31
0.0
  0
LINE
  5
62
100
AcDbEntity
  8
USP-GEO
100
AcDbLine
 10
6.812079220613588
 20
0.3000000000000105
 30
0.0
 11
6.6848
 21
0.1727207793864229
 31
0.0
  0
LINE
  5
63
100
AcDbEntity
  8
USP-GEO
100
AcDbLine
 10
6.557520779386411
 20
0.3000000000000123
 30
0.0
 11
6.684799999999999
 21
0.4272792206135714
 31
0.0
  0
LINE
  5
64
100
AcDbEntity
  8
USP-GEO
100
AcDbLine
 10
6.6848
 20
0.1727207793864229
 30
0.0
 11
6.557520779386413
 21
0.3000000000000105
 31
0.0
  0
LINE
  5
65
100
AcDbEntity
  8
USP-GEO
100
AcDbLine
 10
8.559799999999997
 20
-0.0000000000000018
 30
0.0
 11
8.6196
 21
-0.0000000000000018
 31
0.0
  0
LINE
  5
66
100
AcDbEntity
  8
USP-GEO
100
AcDbLine
 10
8.719922301900485
 20
3.475380534874286
 30
0.0
 11
9.369599999999998
 21
5.600380534874293
 31
0.0
  0
LINE
  5
67
100
AcDbEntity
  8
USP-HID
100
AcDbLine
 10
8.719922301900487
 20
3.475380534874286
 30
0.0
 11
11.71992230190037
 21
3.475380534874286
 31
0.0
  0
LINE
  5
68
100
AcDbEntity
  8
USP-GEO
100
AcDbLine
 10
8.719922301900487
 20
3.41558053487429
 30
0.0
 11
11.71992230190037
 21
3.41558053487429
 31
0.0
  0
LINE
  5
69
100
AcDbEntity
  8
USP-GEO
100
AcDbLine
 10
8.559799999999993
 20
3.41558053487429
 30
0.0
 11
8.619599999999996
 21
3.41558053487429
 31
0.0
  0
LINE
  5
6A
100
AcDbEntity
  8
USP-GEO
100
AcDbLine
 10
8.619599999999996
 20
3.475380534874286
 30
0.0
 11
8.559799999999993
 21
3.475380534874286
 31
0.0
  0
LINE
  5
6B
100
AcDbEntity
  8
USP-GEO
100
AcDbLine
 10
8.559799999999993
 20
3.475380534874286
 30
0.0
 11
8.559799999999993
 21
3.41558053487429
 31
0.0
  0
LINE
  5
6C
100
AcDbEntity
  8
USP-GEO
100
AcDbLine
 10
8.619599999999996
 20
3.475380534874286
 30
0.0
 11
8.619599999999996
 21
3.41558053487429
 31
0.0
  0
LINE
  5
6D
100
AcDbEntity
  8
USP-GEO
100
AcDbLine
 10
8.719922301900487
 20
3.475380534874286
 30
0.0
 11
8.719922301900487
 21
3.41558053487429
 31
0.0
  0
LINE
  5
6E
100
AcDbEntity
  8
USP-GEO
100
AcDbLine
 10
8.619599999999996
 20
3.41558053487429
 30
0.0
 11
8.719922301900489
 21
3.41558053487429
 31
0.0
  0
LINE
  5
6F
100
AcDbEntity
  8
USP-GEO
100
AcDbLine
 10
8.619599999999996
 20
3.475380534874286
 30
0.0
 11
8.719922301900489
 21
3.475380534874286
 31
0.0
  0
LINE
  5
70
100
AcDbEntity
  8
USP-GEO
100
AcDbLine
 10
10.43542577283216
 20
4.600380534874238
 30
0.0
 11
10.56270499344575
 21
4.727659755487795
 31
0.0
  0
LINE
  5
71
100
AcDbEntity
  8
USP-GEO
100
AcDbLine
 10
10.56270499344575
 20
4.473101314260649
 30
0.0
 11
10.43542577283216
 21
4.600380534874236
 31
0.0
  0
LINE
  5
72
100
AcDbEntity
  8
USP-GEO
100
AcDbLine
 10
10.56270499344575
 20
4.727659755487795
 30
0.0
 11
10.68998421405931
 21
4.600380534874236
 31
0.0
  0
LINE
  5
73
100
AcDbEntity
  8
USP-GEO
100
AcDbLine
 10
10.68998421405931
 20
4.600380534874235
 30
0.0
 11
10.56270499344575
 21
4.473101314260647
 31
0.0
  0
LINE
  5
74
100
AcDbEntity
  8
USP-GEO
100
AcDbLine
 10
11.71992230190037
 20
3.475380534874286
 30
0.0
 11
11.71992230190037
 21
3.41558053487429
 31
0.0
  0
CIRCLE
  5
75
100
AcDbEntity
  8
USP-GEO
100
AcDbCircle
 10
9.742414344919444
 20
5.225380534874407
 30
0.0
 40
0.109
  0
CIRCLE
  5
76
100
AcDbEntity
  8
USP-GEO
100
AcDbCircle
 10
11.58745233091216
 20
4.975380534874293
 30
0.0
 40
0.109
  0
ENDBLK
  5
78
100
AcDbEntity
  8
0
100
AcDbBlockEnd
  0
BLOCK
  5
8F
100
AcDbEntity
  8
0
100
AcDbBlockBegin
  2
THO23118-2_S
 70
     0
 10
0.0
 20
0.0
 30
0.0
  3
THO23118-2_S
  1

  0
TEXT
  5
7B
100
AcDbEntity
  8
USP-TXT
100
AcDbText
 10
-2.752114448321107
 20
-2.76361022653195
 30
0.0
 40
0.5
  1
THO23118-2 - SIDE VIEW
 72
     1
 11
2.497885551678891
 21
-2.76361022653195
 31
0.0
100
AcDbText
  0
CIRCLE
  5
7C
100
AcDbEntity
  8
USP-GEO
100
AcDbCircle
 10
1.592903263348887
 20
3.934800000000002
 30
0.0
 40
0.109
  0
LINE
  5
7D
100
AcDbEntity
  8
USP-GEO
100
AcDbLine
 10
0.0
 20
0.434800000000017
 30
0.0
 11
3.415580534874294
 21
11.60666053613693
 31
0.0
  0
LINE
  5
7E
100
AcDbEntity
  8
USP-GEO
100
AcDbLine
 10
0.0
 20
0.0
 30
0.0
 11
3.0
 21
0.0
 31
0.0
  0
LINE
  5
7F
100
AcDbEntity
  8
USP-HID
100
AcDbLine
 10
0.0
 20
0.0597999999999992
 30
0.0
 11
3.0
 21
0.0597999999999992
 31
0.0
  0
LINE
  5
80
100
AcDbEntity
  8
USP-GEO
100
AcDbLine
 10
0.0
 20
0.0
 30
0.0
 11
0.0
 21
0.434800000000017
 31
0.0
  0
CIRCLE
  5
81
100
AcDbEntity
  8
USP-GEO
100
AcDbCircle
 10
1.096090905978542
 20
2.309800000000002
 30
0.0
 40
0.109
  0
LINE
  5
82
100
AcDbEntity
  8
USP-GEO
100
AcDbLine
 10
3.475380534874297
 20
1.794102680684623
 30
0.0
 11
3.475380534874295
 21
11.93480000000003
 31
0.0
  0
LINE
  5
83
100
AcDbEntity
  8
USP-GEO
100
AcDbLine
 10
3.415580534874292
 20
11.93480000000003
 30
0.0
 11
3.415580534874294
 21
1.794102680684623
 31
0.0
  0
LINE
  5
84
100
AcDbEntity
  8
USP-GEO
100
AcDbLine
 10
3.415580534874496
 20
1.794102680684561
 30
0.0
 11
3.0
 21
0.4348000000000028
 31
0.0
  0
LINE
  5
85
100
AcDbEntity
  8
USP-GEO
100
AcDbLine
 10
3.0
 20
0.4348000000000028
 30
0.0
 11
3.0
 21
0.0
 31
0.0
  0
LINE
  5
86
100
AcDbEntity
  8
USP-GEO
100
AcDbLine
 10
3.475380534874297
 20
1.794102680684623
 30
0.0
 11
3.415580534874294
 21
1.794102680684623
 31
0.0
  0
LINE
  5
87
100
AcDbEntity
  8
USP-GEO
100
AcDbLine
 10
5.600380534874297
 20
11.99460000000001
 30
0.0
 11
3.47538053487429
 21
11.99460000000001
 31
0.0
  0
LINE
  5
88
100
AcDbEntity
  8
USP-GEO
100
AcDbLine
 10
3.47538053487429
 20
11.93480000000002
 30
0.0
 11
5.600380534874297
 21
11.93480000000002
 31
0.0
  0
CIRCLE
  5
89
100
AcDbEntity
  8
USP-GEO
100
AcDbCircle
 10
2.089715620719175
 20
5.559800000000002
 30
0.0
 40
0.109
  0
LINE
  5
8A
100
AcDbEntity
  8
USP-GEO
100
AcDbLine
 10
3.47538053487429
 20
11.93480000000001
 30
0.0
 11
3.415580534874294
 21
11.93480000000001
 31
0.0
  0
LINE
  5
8B
100
AcDbEntity
  8
USP-GEO
100
AcDbLine
 10
3.47538053487429
 20
11.99460000000001
 30
0.0
 11
3.415580534874294
 21
11.99460000000001
 31
0.0
  0
LINE
  5
8C
100
AcDbEntity
  8
USP-GEO
100
AcDbLine
 10
3.415580534874294
 20
11.99460000000001
 30
0.0
 11
3.415580534874294
 21
11.93480000000001
 31
0.0
  0
LINE
  5
8D
100
AcDbEntity
  8
USP-GEO
100
AcDbLine
 10
3.47538053487429
 20
11.99460000000001
 30
0.0
 11
3.47538053487429
 21
11.93480000000001
 31
0.0
  0
LINE
  5
8E
100
AcDbEntity
  8
USP-GEO
100
AcDbLine
 10
5.600380534874297
 20
11.93480000000002
 30
0.0
 11
5.600380534874297
 21
11.99460000000001
 31
0.0
  0
ENDBLK
  5
90
100
AcDbEntity
  8
0
100
AcDbBlockEnd
  0
ENDSEC
  0
SECTION
  2
ENTITIES
  0
INSERT
  5
3
100
AcDbEntity
  8
USP
100
AcDbBlockReference
  2
THO23118-2_F
 10
0.0007443724286702
 20
2.764423225913404
 30
0.0
  0
INSERT
  5
3E
100
AcDbEntity
  8
USP
100
AcDbBlockReference
  2
THO23118-2_T
 10
0.0007443724286702
 20
21.04060539300845
 30
0.0
  0
INSERT
  5
79
100
AcDbEntity
  8
USP
100
AcDbBlockReference
  2
THO23118-2_S
 10
16.59092325171219
 20
2.764423225913402
 30
0.0
  0
VIEWPORT
  5
96
102
{ACAD_XDICTIONARY
360
97
102
}
100
AcDbEntity
 67
     1
  8
0
100
AcDbViewport
 10
5.285416850893516
 20
3.968749891115924
 30
0.0
 40
13.50573247017707
 41
8.992999745766947
 68
    -1
 69
     1
1001
ACAD
1000
MVIEW
1002
{
1070
    16
1010
0.0
1020
0.0
1030
0.0
1010
0.0
1020
0.0
1030
1.0
1040
0.0
1040
8.992999745766947
1040
5.285416850893516
1040
3.968749891115924
1040
50.0
1040
0.0
1040
0.0
1070
     0
1070
   100
1070
     1
1070
     1
1070
     0
1070
     0
1070
     0
1070
     0
1040
0.0
1040
0.0
1040
0.0
1040
0.5
1040
0.5
1040
0.5
1040
0.5
1070
     0
1002
{
1002
}
1002
}
  0
ENDSEC
  0
SECTION
  2
OBJECTS
  0
DICTIONARY
  5
AD
102
{ACAD_XDICTIONARY
360
AE
102
}
100
AcDbDictionary
  3
ACAD_GROUP
350
AB
  3
ACAD_MLINESTYLE
350
AC
  0
DICTIONARY
  5
91
100
AcDbDictionary
280
     1
  3
ACAD_LAYOUTSELFREF
360
92
  0
DICTIONARY
  5
9B
100
AcDbDictionary
280
     1
  3
ACAD_LAYOUTSELFREF
360
9C
  0
DICTIONARY
  5
97
100
AcDbDictionary
280
     1
  3
ACAD_XREC_ROUNDTRIP
360
98
  0
DICTIONARY
  5
AE
100
AcDbDictionary
280
     1
  3
ACAD_XREC_ROUNDTRIP
360
AF
  0
DICTIONARY
  5
AB
102
{ACAD_REACTORS
330
AD
102
}
100
AcDbDictionary
  0
DICTIONARY
  5
AC
102
{ACAD_REACTORS
330
AD
102
}
100
AcDbDictionary
  3
STANDARD
350
B0
  0
XRECORD
  5
92
102
{ACAD_REACTORS
330
91
102
}
100
AcDbXrecord
340
18
  0
XRECORD
  5
9C
102
{ACAD_REACTORS
330
9B
102
}
100
AcDbXrecord
340
15
  0
XRECORD
  5
98
102
{ACAD_REACTORS
330
97
102
}
100
AcDbXrecord
102
UCS
 74
     0
 71
     1
 10
0.0
 20
0.0
 30
0.0
 10
1.0
 20
0.0
 30
0.0
 10
0.0
 20
1.0
 30
0.0
146
0.0
 79
     0
102
VIEW
281
     0
102
NEWVIEWCONTROL
280
     4
  0
XRECORD
  5
AF
102
{ACAD_REACTORS
330
AE
102
}
100
AcDbXrecord
102
EXTNAMES
  1
ACDBVARIABLEDICTIONARY
  2
AcDbVariableDictionary
  0
MLINESTYLE
  5
B0
102
{ACAD_REACTORS
330
AC
102
}
100
AcDbMlineStyle
  2
STANDARD
 70
     0
  3

 62
     0
 51
90.0
 52
90.0
 71
     2
 49
0.5
 62
   256
  6
BYLAYER
 49
-0.5
 62
   256
  6
BYLAYER
  0
ENDSEC
  0
EOF
