  0
SECTION
  2
HEADER
  9
$ACADVER
  1
AC1014
  9
$ACADMAINTVER
 70
     9
  9
$DWGCODEPAGE
  3
ANSI_1252
  9
$INSBASE
 10
0.0
 20
0.0
 30
0.0
  9
$EXTMIN
 10
0.0003661829982491
 20
0.0004911962494276
 30
-0.0000000000000077
  9
$EXTMAX
 10
11.29606089247135
 20
16.09599978879402
 30
-0.0000000000000021
  9
$LIMMIN
 10
0.0
 20
0.0
  9
$LIMMAX
 10
12.0
 20
9.0
  9
$ORTHOMODE
 70
     0
  9
$REGENMODE
 70
     1
  9
$FILLMODE
 70
     1
  9
$QTEXTMODE
 70
     0
  9
$MIRRTEXT
 70
     1
  9
$DRAGMODE
 70
     2
  9
$LTSCALE
 40
1.0
  9
$OSMODE
 70
    37
  9
$ATTMODE
 70
     1
  9
$TEXTSIZE
 40
0.2
  9
$TRACEWID
 40
0.05
  9
$TEXTSTYLE
  7
STANDARD
  9
$CLAYER
  8
0
  9
$CELTYPE
  6
BYLAYER
  9
$CECOLOR
 62
   256
  9
$CELTSCALE
 40
1.0
  9
$DELOBJ
 70
     1
  9
$DISPSILH
 70
     0
  9
$DIMSCALE
 40
1.0
  9
$DIMASZ
 40
0.18
  9
$DIMEXO
 40
0.0625
  9
$DIMDLI
 40
0.38
  9
$DIMRND
 40
0.0
  9
$DIMDLE
 40
0.0
  9
$DIMEXE
 40
0.18
  9
$DIMTP
 40
0.0
  9
$DIMTM
 40
0.0
  9
$DIMTXT
 40
0.18
  9
$DIMCEN
 40
0.09
  9
$DIMTSZ
 40
0.0
  9
$DIMTOL
 70
     0
  9
$DIMLIM
 70
     0
  9
$DIMTIH
 70
     1
  9
$DIMTOH
 70
     1
  9
$DIMSE1
 70
     0
  9
$DIMSE2
 70
     0
  9
$DIMTAD
 70
     0
  9
$DIMZIN
 70
     0
  9
$DIMBLK
  1

  9
$DIMASO
 70
     1
  9
$DIMSHO
 70
     1
  9
$DIMPOST
  1

  9
$DIMAPOST
  1

  9
$DIMALT
 70
     0
  9
$DIMALTD
 70
     2
  9
$DIMALTF
 40
25.4
  9
$DIMLFAC
 40
1.0
  9
$DIMTOFL
 70
     0
  9
$DIMTVP
 40
0.0
  9
$DIMTIX
 70
     0
  9
$DIMSOXD
 70
     0
  9
$DIMSAH
 70
     0
  9
$DIMBLK1
  1

  9
$DIMBLK2
  1

  9
$DIMSTYLE
  2
STANDARD
  9
$DIMCLRD
 70
     0
  9
$DIMCLRE
 70
     0
  9
$DIMCLRT
 70
     0
  9
$DIMTFAC
 40
1.0
  9
$DIMGAP
 40
0.09
  9
$DIMJUST
 70
     0
  9
$DIMSD1
 70
     0
  9
$DIMSD2
 70
     0
  9
$DIMTOLJ
 70
     1
  9
$DIMTZIN
 70
     0
  9
$DIMALTZ
 70
     0
  9
$DIMALTTZ
 70
     0
  9
$DIMFIT
 70
     3
  9
$DIMUPT
 70
     0
  9
$DIMUNIT
 70
     2
  9
$DIMDEC
 70
     4
  9
$DIMTDEC
 70
     4
  9
$DIMALTU
 70
     2
  9
$DIMALTTD
 70
     2
  9
$DIMTXSTY
  7
STANDARD
  9
$DIMAUNIT
 70
     0
  9
$LUNITS
 70
     2
  9
$LUPREC
 70
     4
  9
$SKETCHINC
 40
0.1
  9
$FILLETRAD
 40
0.5
  9
$AUNITS
 70
     0
  9
$AUPREC
 70
     0
  9
$MENU
  1
.
  9
$ELEVATION
 40
0.0
  9
$PELEVATION
 40
0.0
  9
$THICKNESS
 40
0.0
  9
$LIMCHECK
 70
     0
  9
$BLIPMODE
 70
     0
  9
$CHAMFERA
 40
0.5
  9
$CHAMFERB
 40
0.5
  9
$CHAMFERC
 40
1.0
  9
$CHAMFERD
 40
0.0
  9
$SKPOLY
 70
     0
  9
$TDCREATE
 40
2451667.537949421
  9
$TDUPDATE
 40
2452759.747674329
  9
$TDINDWG
 40
0.0171144213
  9
$TDUSRTIMER
 40
0.0171144213
  9
$USRTIMER
 70
     1
  9
$ANGBASE
 50
0.0
  9
$ANGDIR
 70
     0
  9
$PDMODE
 70
     0
  9
$PDSIZE
 40
0.0
  9
$PLINEWID
 40
0.0
  9
$COORDS
 70
     1
  9
$SPLFRAME
 70
     0
  9
$SPLINETYPE
 70
     6
  9
$SPLINESEGS
 70
     8
  9
$ATTDIA
 70
     0
  9
$ATTREQ
 70
     1
  9
$HANDLING
 70
     1
  9
$HANDSEED
  5
13F
  9
$SURFTAB1
 70
     6
  9
$SURFTAB2
 70
     6
  9
$SURFTYPE
 70
     6
  9
$SURFU
 70
     6
  9
$SURFV
 70
     6
  9
$UCSNAME
  2

  9
$UCSORG
 10
0.0
 20
0.0
 30
0.0
  9
$UCSXDIR
 10
1.0
 20
0.0
 30
0.0
  9
$UCSYDIR
 10
0.0
 20
1.0
 30
0.0
  9
$PUCSNAME
  2

  9
$PUCSORG
 10
0.0
 20
0.0
 30
0.0
  9
$PUCSXDIR
 10
1.0
 20
0.0
 30
0.0
  9
$PUCSYDIR
 10
0.0
 20
1.0
 30
0.0
  9
$USERI1
 70
     0
  9
$USERI2
 70
     0
  9
$USERI3
 70
     0
  9
$USERI4
 70
     0
  9
$USERI5
 70
     0
  9
$USERR1
 40
0.0
  9
$USERR2
 40
0.0
  9
$USERR3
 40
0.0
  9
$USERR4
 40
0.0
  9
$USERR5
 40
0.0
  9
$WORLDVIEW
 70
     1
  9
$SHADEDGE
 70
     3
  9
$SHADEDIF
 70
    70
  9
$TILEMODE
 70
     1
  9
$MAXACTVP
 70
    48
  9
$PINSBASE
 10
0.0
 20
0.0
 30
0.0
  9
$PLIMCHECK
 70
     0
  9
$PEXTMIN
 10
1.000000000000000E+20
 20
1.000000000000000E+20
 30
1.000000000000000E+20
  9
$PEXTMAX
 10
-1.000000000000000E+20
 20
-1.000000000000000E+20
 30
-1.000000000000000E+20
  9
$PLIMMIN
 10
0.0
 20
0.0
  9
$PLIMMAX
 10
12.0
 20
9.0
  9
$UNITMODE
 70
     0
  9
$VISRETAIN
 70
     1
  9
$PLINEGEN
 70
     0
  9
$PSLTSCALE
 70
     1
  9
$TREEDEPTH
 70
  3020
  9
$PICKSTYLE
 70
     1
  9
$CMLSTYLE
  2
STANDARD
  9
$CMLJUST
 70
     0
  9
$CMLSCALE
 40
1.0
  9
$PROXYGRAPHICS
 70
     1
  9
$MEASUREMENT
 70
     0
  0
ENDSEC
  0
SECTION
  2
CLASSES
  0
CLASS
  1
ACDBDICTIONARYWDFLT
  2
AcDbDictionaryWithDefault
  3
AutoCAD 2000
 90
        0
280
     1
281
     0
  0
CLASS
  1
ACDBPLACEHOLDER
  2
AcDbPlaceHolder
  3
AutoCAD 2000
 90
        0
280
     1
281
     0
  0
CLASS
  1
LAYOUT
  2
AcDbLayout
  3
AutoCAD 2000
 90
        0
280
     1
281
     0
  0
CLASS
  1
LONG_TRANSACTION
  2
AcDbLongTransaction
  3
AutoCAD 2000
 90
        0
280
     1
281
     0
  0
CLASS
  1
LWPOLYLINE
  2
AcDbPolyline
  3
"AutoCAD"
 90
        0
280
     1
281
     1
  0
CLASS
  1
HATCH
  2
AcDbHatch
  3
"ACAD_SEDONA"
 90
        0
280
     1
281
     1
  0
CLASS
  1
XRECORD
  2
AcDbXrecord
  3
"<Built In>"
 90
        0
280
     0
281
     0
  0
CLASS
  1
LONG_TRANSACTION
  2
AcDbLongTransaction
  3
AutoCAD 2000
 90
        0
280
     1
281
     0
  0
CLASS
  1
LWPOLYLINE
  2
AcDbPolyline
  3
"AutoCAD"
 90
        0
280
     1
281
     1
  0
CLASS
  1
HATCH
  2
AcDbHatch
  3
"ACAD_SEDONA"
 90
        0
280
     1
281
     1
  0
CLASS
  1
XRECORD
  2
AcDbXrecord
  3
"<Built In>"
 90
        0
280
     0
281
     0
  0
CLASS
  1
LONG_TRANSACTION
  2
AcDbLongTransaction
  3
AutoCAD 2000
 90
        0
280
     1
281
     0
  0
CLASS
  1
LWPOLYLINE
  2
AcDbPolyline
  3
"AutoCAD"
 90
        0
280
     1
281
     1
  0
CLASS
  1
HATCH
  2
AcDbHatch
  3
"ACAD_SEDONA"
 90
        0
280
     1
281
     1
  0
CLASS
  1
XRECORD
  2
AcDbXrecord
  3
"<Built In>"
 90
        0
280
     0
281
     0
  0
CLASS
  1
LONG_TRANSACTION
  2
AcDbLongTransaction
  3
AutoCAD 2000
 90
        0
280
     1
281
     0
  0
CLASS
  1
LWPOLYLINE
  2
AcDbPolyline
  3
"AutoCAD"
 90
        0
280
     1
281
     1
  0
CLASS
  1
HATCH
  2
AcDbHatch
  3
"ACAD_SEDONA"
 90
        0
280
     1
281
     1
  0
CLASS
  1
XRECORD
  2
AcDbXrecord
  3
"<Built In>"
 90
        0
280
     0
281
     0
  0
CLASS
  1
DICTIONARYVAR
  2
AcDbDictionaryVar
  3
"AutoCAD"
 90
        0
280
     0
281
     0
  0
CLASS
  1
LONG_TRANSACTION
  2
AcDbLongTransaction
  3
AutoCAD 2000
 90
        0
280
     0
281
     0
  0
CLASS
  1
LWPOLYLINE
  2
AcDbPolyline
  3
"AutoCAD"
 90
        0
280
     0
281
     1
  0
CLASS
  1
HATCH
  2
AcDbHatch
  3
"ACAD_SEDONA"
 90
        0
280
     0
281
     1
  0
CLASS
  1
XRECORD
  2
AcDbXrecord
  3
"<Built In>"
 90
        0
280
     0
281
     0
  0
CLASS
  1
LONG_TRANSACTION
  2
AcDbLongTransaction
  3
AutoCAD 2000
 90
        0
280
     0
281
     0
  0
CLASS
  1
LWPOLYLINE
  2
AcDbPolyline
  3
"AutoCAD"
 90
        0
280
     0
281
     1
  0
CLASS
  1
HATCH
  2
AcDbHatch
  3
"ACAD_SEDONA"
 90
        0
280
     0
281
     1
  0
CLASS
  1
XRECORD
  2
AcDbXrecord
  3
"<Built In>"
 90
        0
280
     0
281
     0
  0
ENDSEC
  0
SECTION
  2
TABLES
  0
TABLE
  2
VPORT
  5
11F
100
AcDbSymbolTable
 70
     1
  0
VPORT
  5
13B
100
AcDbSymbolTableRecord
100
AcDbViewportTableRecord
  2
*ACTIVE
 70
     0
 10
0.0
 20
0.0
 11
1.0
 21
1.0
 12
5.648243708014595
 22
8.246850876523344
 13
0.0
 23
0.0
 14
0.5
 24
0.5
 15
0.5
 25
0.5
 16
0.0
 26
0.0
 36
1.0
 17
0.0
 27
0.0
 37
0.0
 40
16.61127927480567
 41
1.457627118644067
 42
50.0
 43
0.0
 44
0.0
 50
0.0
 51
0.0
 71
     0
 72
   100
 73
     1
 74
     3
 75
     0
 76
     0
 77
     0
 78
     0
  0
ENDTAB
  0
TABLE
  2
LTYPE
  5
118
100
AcDbSymbolTable
 70
     2
  0
LTYPE
  5
119
102
{ACAD_XDICTIONARY
360
11A
102
}
100
AcDbSymbolTableRecord
100
AcDbLinetypeTableRecord
  2
BYBLOCK
 70
     0
  3

 72
    65
 73
     0
 40
0.0
  0
LTYPE
  5
11B
102
{ACAD_XDICTIONARY
360
11C
102
}
100
AcDbSymbolTableRecord
100
AcDbLinetypeTableRecord
  2
BYLAYER
 70
     0
  3

 72
    65
 73
     0
 40
0.0
  0
LTYPE
  5
5
102
{ACAD_XDICTIONARY
360
6
102
}
100
AcDbSymbolTableRecord
100
AcDbLinetypeTableRecord
  2
CONTINUOUS
 70
     0
  3
Solid line
 72
    65
 73
     0
 40
0.0
  0
LTYPE
  5
89
100
AcDbSymbolTableRecord
100
AcDbLinetypeTableRecord
  2
HIDDEN
 70
     0
  3
Hidden __ __ __ __ __ __ __ __ __ __ __ __ __ _
 72
    65
 73
     2
 40
0.375
 49
0.25
 74
     0
 49
-0.125
 74
     0
  0
ENDTAB
  0
TABLE
  2
LAYER
  5
116
100
AcDbSymbolTable
 70
     5
  0
LAYER
  5
70
100
AcDbSymbolTableRecord
100
AcDbLayerTableRecord
  2
0
 70
     0
 62
     7
  6
CONTINUOUS
  0
LAYER
  5
4
100
AcDbSymbolTableRecord
100
AcDbLayerTableRecord
  2
USP
 70
     0
 62
     7
  6
CONTINUOUS
  0
LAYER
  5
88
100
AcDbSymbolTableRecord
100
AcDbLayerTableRecord
  2
USP-HID
 70
     0
 62
     7
  6
HIDDEN
  0
LAYER
  5
D
100
AcDbSymbolTableRecord
100
AcDbLayerTableRecord
  2
USP-GEO
 70
     0
 62
     7
  6
CONTINUOUS
  0
LAYER
  5
9
100
AcDbSymbolTableRecord
100
AcDbLayerTableRecord
  2
USP-TXT
 70
     0
 62
     7
  6
CONTINUOUS
  0
ENDTAB
  0
TABLE
  2
STYLE
  5
117
100
AcDbSymbolTable
 70
     1
  0
STYLE
  5
A
102
{ACAD_XDICTIONARY
360
B
102
}
100
AcDbSymbolTableRecord
100
AcDbTextStyleTableRecord
  2
STANDARD
 70
     0
 40
0.0
 41
1.0
 50
0.0
 71
     0
 42
0.2
  3
txt
  4

  0
ENDTAB
  0
TABLE
  2
VIEW
  5
11D
100
AcDbSymbolTable
 70
     0
  0
ENDTAB
  0
TABLE
  2
UCS
  5
11E
100
AcDbSymbolTable
 70
     0
  0
ENDTAB
  0
TABLE
  2
APPID
  5
121
100
AcDbSymbolTable
 70
     1
  0
APPID
  5
122
100
AcDbSymbolTableRecord
100
AcDbRegAppTableRecord
  2
ACAD
 70
     0
  0
ENDTAB
  0
TABLE
  2
DIMSTYLE
  5
123
100
AcDbSymbolTable
 70
     1
  0
DIMSTYLE
105
12C
102
{ACAD_XDICTIONARY
360
12D
102
}
100
AcDbSymbolTableRecord
100
AcDbDimStyleTableRecord
  2
STANDARD
 70
     0
  3

  4

  5

  6

  7

 40
1.0
 41
0.18
 42
0.0625
 43
0.38
 44
0.18
 45
0.0
 46
0.0
 47
0.0
 48
0.0
140
0.18
141
0.09
142
0.0
143
25.4
144
1.0
145
0.0
146
1.0
147
0.09
 71
     0
 72
     0
 73
     1
 74
     1
 75
     0
 76
     0
 77
     0
 78
     0
170
     0
171
     2
172
     0
173
     0
174
     0
175
     0
176
     0
177
     0
178
     0
270
     2
271
     4
272
     4
273
     2
274
     2
340
A
275
     0
280
     0
281
     0
282
     0
283
     1
284
     0
285
     0
286
     0
287
     3
288
     0
  0
ENDTAB
  0
TABLE
  2
BLOCK_RECORD
  5
1
100
AcDbSymbolTable
 70
     3
  0
BLOCK_RECORD
  5
2
102
{ACAD_XDICTIONARY
360
10D
102
}
100
AcDbSymbolTableRecord
100
AcDbBlockTableRecord
  2
*MODEL_SPACE
  0
BLOCK_RECORD
  5
111
102
{ACAD_XDICTIONARY
360
112
102
}
100
AcDbSymbolTableRecord
100
AcDbBlockTableRecord
  2
*PAPER_SPACE
  0
BLOCK_RECORD
  5
7
100
AcDbSymbolTableRecord
100
AcDbBlockTableRecord
  2
THO17950_T
  0
BLOCK_RECORD
  5
73
100
AcDbSymbolTableRecord
100
AcDbBlockTableRecord
  2
THO17950_F
  0
BLOCK_RECORD
  5
D4
100
AcDbSymbolTableRecord
100
AcDbBlockTableRecord
  2
THO17950_S
  0
ENDTAB
  0
ENDSEC
  0
SECTION
  2
BLOCKS
  0
BLOCK
  5
10F
100
AcDbEntity
  8
0
100
AcDbBlockBegin
  2
*MODEL_SPACE
 70
     0
 10
0.0
 20
0.0
 30
0.0
  3
*MODEL_SPACE
  1

  0
ENDBLK
  5
110
100
AcDbEntity
  8
0
100
AcDbBlockEnd
  0
BLOCK
  5
114
100
AcDbEntity
 67
     1
  8
0
100
AcDbBlockBegin
  2
*PAPER_SPACE
 70
     0
 10
0.0
 20
0.0
 30
0.0
  3
*PAPER_SPACE
  1

  0
ENDBLK
  5
115
100
AcDbEntity
 67
     1
  8
0
100
AcDbBlockEnd
  0
BLOCK
  5
6F
100
AcDbEntity
  8
0
100
AcDbBlockBegin
  2
THO17950_T
 70
     0
 10
0.0
 20
0.0
 30
0.0
  3
THO17950_T
  1

  0
TEXT
  5
8
100
AcDbEntity
  8
USP-TXT
100
AcDbText
 10
0.7257500000000033
 20
-0.6693656203607646
 30
0.0
 40
0.23
  1
THO17950 - TOP VIEW
 72
     1
 11
2.853250000000002
 21
-0.6693656203607646
 31
0.0
100
AcDbText
  0
LINE
  5
C
100
AcDbEntity
  8
USP-GEO
100
AcDbLine
 10
3.211828643762693
 20
0.375
 30
0.0
 11
3.353250000000002
 21
0.5164213562373093
 31
0.0
  0
LINE
  5
E
100
AcDbEntity
  8
USP-GEO
100
AcDbLine
 10
3.353250000000002
 20
0.2335786437626837
 30
0.0
 11
3.211828643762693
 21
0.375
 31
0.0
  0
LINE
  5
F
100
AcDbEntity
  8
USP-GEO
100
AcDbLine
 10
1.947000000000002
 20
0.0
 30
0.0
 11
3.759500000000002
 21
0.0
 31
0.0
  0
LINE
  5
10
100
AcDbEntity
  8
USP-GEO
100
AcDbLine
 10
3.759500000000002
 20
2.0
 30
0.0
 11
1.947000000000002
 21
2.0
 31
0.0
  0
CIRCLE
  5
11
100
AcDbEntity
  8
USP-GEO
100
AcDbCircle
 10
0.3991037531965702
 20
3.347155818447799
 30
0.0
 40
0.09
  0
ARC
  5
12
100
AcDbEntity
  8
USP-GEO
100
AcDbCircle
 10
0.3991037531965844
 20
2.741155818447786
 30
0.0
 40
0.1560000000000106
100
AcDbArc
 50
0.000000000001832
 51
179.9999999999991
  0
LINE
  5
13
100
AcDbEntity
  8
USP-GEO
100
AcDbLine
 10
0.0
 20
3.647155818447817
 30
0.0
 11
1.789999999999999
 21
3.647155818447817
 31
0.0
  0
LINE
  5
14
100
AcDbEntity
  8
USP-GEO
100
AcDbLine
 10
0.2431037531965678
 20
2.043155818447829
 30
0.0
 11
0.5551037531965904
 21
2.043155818447839
 31
0.0
  0
LINE
  5
15
100
AcDbEntity
  8
USP-GEO
100
AcDbLine
 10
0.0
 20
2.095155818447818
 30
0.0
 11
0.0
 21
3.647155818447817
 31
0.0
  0
LINE
  5
16
100
AcDbEntity
  8
USP-GEO
100
AcDbLine
 10
0.2431037531965678
 20
2.043155818447829
 30
0.0
 11
0.2431037531965607
 21
2.741155818447786
 31
0.0
  0
LINE
  5
17
100
AcDbEntity
  8
USP-GEO
100
AcDbLine
 10
0.2431037531965643
 20
2.095155818447832
 30
0.0
 11
0.0
 21
2.095155818447818
 31
0.0
  0
LINE
  5
18
100
AcDbEntity
  8
USP-GEO
100
AcDbLine
 10
0.0000000000000036
 20
2.147155818447831
 30
0.0
 11
-0.0310042088734939
 21
2.147155818447831
 31
0.0
  0
LINE
  5
19
100
AcDbEntity
  8
USP-GEO
100
AcDbLine
 10
-0.0310042088734903
 20
2.095155818447832
 30
0.0
 11
0.0000000000000036
 21
2.095155818447832
 31
0.0
  0
LINE
  5
1A
100
AcDbEntity
  8
USP-GEO
100
AcDbLine
 10
-0.0310042088734903
 20
2.147155818447831
 30
0.0
 11
-0.0310042088734903
 21
2.095155818447832
 31
0.0
  0
LINE
  5
1B
100
AcDbEntity
  8
USP-GEO
100
AcDbLine
 10
1.789999999999999
 20
3.647155818447817
 30
0.0
 11
1.789999999999999
 21
2.095155818447835
 31
0.0
  0
LINE
  5
1C
100
AcDbEntity
  8
USP-GEO
100
AcDbLine
 10
1.894999999999996
 20
2.147155818447831
 30
0.0
 11
1.790000000000002
 21
2.147155818447831
 31
0.0
  0
LINE
  5
1D
100
AcDbEntity
  8
USP-GEO
100
AcDbLine
 10
1.790000000000002
 20
2.095155818447832
 30
0.0
 11
1.894999999999996
 21
2.095155818447832
 31
0.0
  0
ELLIPSE
  5
1E
100
AcDbEntity
  8
USP-GEO
100
AcDbEllipse
 10
1.857222835433084
 20
0.9999999999999964
 30
0.0
 11
0.0000000000000009
 21
0.077999999999997
 31
0.0
210
0.0
220
0.0
230
1.0
 40
0.7071067811865488
 41
0.3829787927802821
 42
0.7853981633974821
  0
ELLIPSE
  5
1F
100
AcDbEntity
  8
USP-GEO
100
AcDbEllipse
 10
1.857222835433084
 20
0.9999999999999964
 30
0.0
 11
0.0000000000000009
 21
0.077999999999997
 31
0.0
210
0.0
220
0.0
230
1.0
 40
0.7071067811865488
 41
0.7853981633974771
 42
2.758613860809472
  0
ELLIPSE
  5
20
100
AcDbEntity
  8
USP-GEO
100
AcDbEllipse
 10
1.81600213146908
 20
0.9999999999999964
 30
0.0
 11
-0.0000000000000002
 21
-0.0779999999999986
 31
0.0
210
0.0
220
0.0
230
1.0
 40
0.7071067811865529
 41
0.0000000000000001
 42
6.283185307179586
  0
ARC
  5
21
100
AcDbEntity
  8
USP-GEO
100
AcDbCircle
 10
1.946999999999952
 20
1.0
 30
0.0
 40
0.2010096592685704
100
AcDbArc
 50
104.9925849599274
 51
255.0074150400726
  0
ARC
  5
22
100
AcDbEntity
  8
USP-GEO
100
AcDbCircle
 10
1.164999999999995
 20
2.541155818447791
 30
0.0
 40
0.1560000000000094
100
AcDbArc
 50
0.0000000000030533
 51
179.9999999999981
  0
LINE
  5
23
100
AcDbEntity
  8
USP-GEO
100
AcDbLine
 10
1.008999999999993
 20
2.043155818447814
 30
0.0
 11
1.321000000000019
 21
2.043155818447825
 31
0.0
  0
LINE
  5
24
100
AcDbEntity
  8
USP-GEO
100
AcDbLine
 10
1.008999999999989
 20
2.095155818447818
 30
0.0
 11
0.5551037531965797
 21
2.095155818447832
 31
0.0
  0
LINE
  5
25
100
AcDbEntity
  8
USP-GEO
100
AcDbLine
 10
0.5551037531965904
 20
2.043155818447839
 30
0.0
 11
0.5551037531965833
 21
2.74115581844779
 31
0.0
  0
LINE
  5
26
100
AcDbEntity
  8
USP-GEO
100
AcDbLine
 10
1.008999999999993
 20
2.043155818447814
 30
0.0
 11
1.008999999999986
 21
2.541155818447794
 31
0.0
  0
LINE
  5
27
100
AcDbEntity
  8
USP-GEO
100
AcDbLine
 10
1.789999999999999
 20
2.095155818447835
 30
0.0
 11
1.320999999999997
 21
2.095155818447828
 31
0.0
  0
LINE
  5
28
100
AcDbEntity
  8
USP-GEO
100
AcDbLine
 10
1.321000000000019
 20
2.043155818447822
 30
0.0
 11
1.321000000000012
 21
2.541155818447798
 31
0.0
  0
LINE
  5
29
100
AcDbEntity
  8
USP-GEO
100
AcDbLine
 10
1.895000000000003
 20
0.9994058184478262
 30
0.0
 11
1.895000000000003
 21
0.0
 31
0.0
  0
LINE
  5
2A
100
AcDbEntity
  8
USP-GEO
100
AcDbLine
 10
1.947000000000002
 20
0.0
 30
0.0
 11
1.947000000000002
 21
0.9994058184478262
 31
0.0
  0
LINE
  5
2B
100
AcDbEntity
  8
USP-GEO
100
AcDbLine
 10
1.947000000000002
 20
0.0
 30
0.0
 11
1.895000000000003
 21
0.0
 31
0.0
  0
LINE
  5
2C
100
AcDbEntity
  8
USP-GEO
100
AcDbLine
 10
1.842999999999999
 20
0.7810000000000024
 30
0.0
 11
1.895000000000003
 21
0.781000000000006
 31
0.0
  0
LINE
  5
2D
100
AcDbEntity
  8
USP-GEO
100
AcDbLine
 10
1.842999999999999
 20
0.4690000000000048
 30
0.0
 11
1.895000000000003
 21
0.4690000000000048
 31
0.0
  0
LINE
  5
2E
100
AcDbEntity
  8
USP-GEO
100
AcDbLine
 10
1.842999999999999
 20
0.4690000000000012
 30
0.0
 11
1.842999999999999
 21
0.7810000000000024
 31
0.0
  0
LINE
  5
2F
100
AcDbEntity
  8
USP-GEO
100
AcDbLine
 10
2.353250000000002
 20
0.5164213562373093
 30
0.0
 11
2.494671356237319
 21
0.375
 31
0.0
  0
LINE
  5
30
100
AcDbEntity
  8
USP-GEO
100
AcDbLine
 10
2.211828643762689
 20
0.375
 30
0.0
 11
2.353249999999999
 21
0.5164213562373093
 31
0.0
  0
LINE
  5
31
100
AcDbEntity
  8
USP-GEO
100
AcDbLine
 10
2.494671356237319
 20
0.375
 30
0.0
 11
2.353250000000002
 21
0.2335786437626837
 31
0.0
  0
LINE
  5
32
100
AcDbEntity
  8
USP-GEO
100
AcDbLine
 10
2.353250000000002
 20
0.2335786437626837
 30
0.0
 11
2.211828643762693
 21
0.3749999999999964
 31
0.0
  0
LINE
  5
33
100
AcDbEntity
  8
USP-GEO
100
AcDbLine
 10
1.895000000000003
 20
2.021160027321332
 30
0.0
 11
1.895000000000003
 21
0.9994058184478262
 31
0.0
  0
LINE
  5
34
100
AcDbEntity
  8
USP-GEO
100
AcDbLine
 10
1.947000000000002
 20
0.9994058184478262
 30
0.0
 11
1.947000000000002
 21
2.021160027321329
 31
0.0
  0
LINE
  5
35
100
AcDbEntity
  8
USP-GEO
100
AcDbLine
 10
1.843000000000003
 20
1.218999999999997
 30
0.0
 11
1.843000000000003
 21
1.530999999999995
 31
0.0
  0
LINE
  5
36
100
AcDbEntity
  8
USP-GEO
100
AcDbLine
 10
1.843000000000003
 20
1.218999999999997
 30
0.0
 11
1.895000000000003
 21
1.218999999999994
 31
0.0
  0
LINE
  5
37
100
AcDbEntity
  8
USP-GEO
100
AcDbLine
 10
1.947000000000002
 20
0.9994058184478262
 30
0.0
 11
1.895000000000003
 21
0.9994058184478262
 31
0.0
  0
LINE
  5
38
100
AcDbEntity
  8
USP-GEO
100
AcDbLine
 10
1.989209909277363
 20
0.9996011750513211
 30
0.0
 11
1.947000000000002
 21
0.8761876565756949
 31
0.0
  0
LINE
  5
39
100
AcDbEntity
  8
USP-GEO
100
AcDbLine
 10
1.947000000000006
 20
1.123014693526947
 30
0.0
 11
1.989209909277363
 21
0.9996011750513211
 31
0.0
  0
LINE
  5
3A
100
AcDbEntity
  8
USP-GEO
100
AcDbLine
 10
1.843000000000007
 20
1.530999999999995
 30
0.0
 11
1.895000000000003
 21
1.530999999999995
 31
0.0
  0
LINE
  5
3B
100
AcDbEntity
  8
USP-GEO
100
AcDbLine
 10
1.946999999999995
 20
2.147155818447831
 30
0.0
 11
1.894999999999996
 21
2.147155818447831
 31
0.0
  0
LINE
  5
3C
100
AcDbEntity
  8
USP-GEO
100
AcDbLine
 10
1.947000000000002
 20
2.021160027321329
 30
0.0
 11
1.895000000000003
 21
2.021160027321329
 31
0.0
  0
LINE
  5
3D
100
AcDbEntity
  8
USP-GEO
100
AcDbLine
 10
1.895000000000003
 20
2.095155818447832
 30
0.0
 11
1.895000000000003
 21
2.021160027321336
 31
0.0
  0
LINE
  5
3E
100
AcDbEntity
  8
USP-GEO
100
AcDbLine
 10
1.947000000000002
 20
2.021160027321332
 30
0.0
 11
1.947000000000002
 21
2.095155818447832
 31
0.0
  0
LINE
  5
3F
100
AcDbEntity
  8
USP-GEO
100
AcDbLine
 10
1.946999999999995
 20
2.147155818447831
 30
0.0
 11
1.946999999999995
 21
2.095155818447832
 31
0.0
  0
CIRCLE
  5
40
100
AcDbEntity
  8
USP-GEO
100
AcDbCircle
 10
1.39
 20
3.147155818447796
 30
0.0
 40
0.09
  0
LINE
  5
41
100
AcDbEntity
  8
USP-GEO
100
AcDbLine
 10
5.706500000000001
 20
3.647155818447838
 30
0.0
 11
5.706500000000009
 21
2.095155818447835
 31
0.0
  0
LINE
  5
42
100
AcDbEntity
  8
USP-GEO
100
AcDbLine
 10
3.916500000000006
 20
2.095155818447835
 30
0.0
 11
3.916499999999999
 21
3.647155818447828
 31
0.0
  0
ARC
  5
43
100
AcDbEntity
  8
USP-GEO
100
AcDbCircle
 10
5.307396246803431
 20
2.741155818447818
 30
0.0
 40
0.1560000000000107
100
AcDbArc
 50
0.0000000000028498
 51
179.9999999999973
  0
LINE
  5
44
100
AcDbEntity
  8
USP-GEO
100
AcDbLine
 10
4.697500000000012
 20
2.095155818447832
 30
0.0
 11
5.151396246803432
 21
2.095155818447832
 31
0.0
  0
LINE
  5
45
100
AcDbEntity
  8
USP-GEO
100
AcDbLine
 10
3.759500000000002
 20
0.0000000000000071
 30
0.0
 11
3.759500000000002
 21
0.9994058184478262
 31
0.0
  0
LINE
  5
46
100
AcDbEntity
  8
USP-GEO
100
AcDbLine
 10
3.811500000000002
 20
0.0000000000000036
 30
0.0
 11
3.811500000000002
 21
0.9994058184478227
 31
0.0
  0
ARC
  5
47
100
AcDbEntity
  8
USP-GEO
100
AcDbCircle
 10
3.759500000000006
 20
1.000000000000003
 30
0.0
 40
0.2010096592685704
100
AcDbArc
 50
284.9925849599419
 51
75.00741504005798
  0
LINE
  5
48
100
AcDbEntity
  8
USP-GEO
100
AcDbLine
 10
3.353250000000002
 20
0.5164213562373093
 30
0.0
 11
3.494671356237319
 21
0.375
 31
0.0
  0
LINE
  5
49
100
AcDbEntity
  8
USP-GEO
100
AcDbLine
 10
3.494671356237319
 20
0.375
 30
0.0
 11
3.353250000000002
 21
0.2335786437626837
 31
0.0
  0
LINE
  5
4A
100
AcDbEntity
  8
USP-GEO
100
AcDbLine
 10
3.759500000000002
 20
0.0000000000000071
 30
0.0
 11
3.811500000000002
 21
0.0000000000000071
 31
0.0
  0
LINE
  5
4B
100
AcDbEntity
  8
USP-GEO
100
AcDbLine
 10
3.863499999999998
 20
0.4690000000000012
 30
0.0
 11
3.863499999999998
 21
0.7810000000000024
 31
0.0
  0
LINE
  5
4C
100
AcDbEntity
  8
USP-GEO
100
AcDbLine
 10
3.811500000000002
 20
0.7810000000000024
 30
0.0
 11
3.86349999999998
 21
0.781000000000006
 31
0.0
  0
LINE
  5
4D
100
AcDbEntity
  8
USP-GEO
100
AcDbLine
 10
3.811500000000002
 20
0.4690000000000048
 30
0.0
 11
3.86349999999998
 21
0.4690000000000048
 31
0.0
  0
LINE
  5
4E
100
AcDbEntity
  8
USP-GEO
100
AcDbLine
 10
3.916500000000006
 20
2.095155818447835
 30
0.0
 11
4.385500000000007
 21
2.095155818447835
 31
0.0
  0
LINE
  5
4F
100
AcDbEntity
  8
USP-GEO
100
AcDbLine
 10
3.759500000000002
 20
0.9994058184478262
 30
0.0
 11
3.759500000000002
 21
2.021160027321336
 31
0.0
  0
LINE
  5
50
100
AcDbEntity
  8
USP-GEO
100
AcDbLine
 10
3.811500000000002
 20
0.9994058184478227
 30
0.0
 11
3.811500000000002
 21
2.021160027321332
 31
0.0
  0
LINE
  5
51
100
AcDbEntity
  8
USP-GEO
100
AcDbLine
 10
3.863500000000005
 20
1.219000000000008
 30
0.0
 11
3.863500000000005
 21
1.531000000000005
 31
0.0
  0
ELLIPSE
  5
52
100
AcDbEntity
  8
USP-GEO
100
AcDbEllipse
 10
3.890497868530879
 20
1.0
 30
0.0
 11
0.0000000000000003
 21
-0.0779999999999986
 31
0.0
210
0.0
220
0.0
230
1.0
 40
0.7071067811865457
 41
0.000000000000002
 42
6.283185307179588
  0
ELLIPSE
  5
53
100
AcDbEntity
  8
USP-GEO
100
AcDbEllipse
 10
3.849277164566878
 20
1.0
 30
0.0
 11
-0.000000000000001
 21
0.077999999999997
 31
0.0
210
0.0
220
0.0
230
1.0
 40
0.7071067811865416
 41
-2.758613860809475
 42
-0.7853981633974624
  0
ELLIPSE
  5
54
100
AcDbEntity
  8
USP-GEO
100
AcDbEllipse
 10
3.849277164566878
 20
1.0
 30
0.0
 11
-0.000000000000001
 21
0.077999999999997
 31
0.0
210
0.0
220
0.0
230
1.0
 40
0.7071067811865416
 41
-0.7853981633974643
 42
-0.3829787927802943
  0
LINE
  5
55
100
AcDbEntity
  8
USP-GEO
100
AcDbLine
 10
3.759499999999999
 20
1.12301469352695
 30
0.0
 11
3.717290090722638
 21
0.999601175051314
 31
0.0
  0
LINE
  5
56
100
AcDbEntity
  8
USP-GEO
100
AcDbLine
 10
3.811500000000002
 20
1.219000000000004
 30
0.0
 11
3.863499999999994
 21
1.219000000000004
 31
0.0
  0
LINE
  5
57
100
AcDbEntity
  8
USP-GEO
100
AcDbLine
 10
3.759500000000002
 20
0.9994058184478262
 30
0.0
 11
3.811500000000002
 21
0.9994058184478262
 31
0.0
  0
LINE
  5
58
100
AcDbEntity
  8
USP-GEO
100
AcDbLine
 10
3.717290090722634
 20
0.999601175051314
 30
0.0
 11
3.759499999999999
 21
0.8761876565756878
 31
0.0
  0
LINE
  5
59
100
AcDbEntity
  8
USP-GEO
100
AcDbLine
 10
3.811500000000002
 20
1.531000000000005
 30
0.0
 11
3.863499999999998
 21
1.531000000000005
 31
0.0
  0
LINE
  5
5A
100
AcDbEntity
  8
USP-GEO
100
AcDbLine
 10
3.916500000000002
 20
2.147155818447835
 30
0.0
 11
3.811500000000005
 21
2.147155818447835
 31
0.0
  0
LINE
  5
5B
100
AcDbEntity
  8
USP-GEO
100
AcDbLine
 10
3.811500000000002
 20
2.095155818447835
 30
0.0
 11
3.916500000000006
 21
2.095155818447835
 31
0.0
  0
LINE
  5
5C
100
AcDbEntity
  8
USP-GEO
100
AcDbLine
 10
3.759500000000006
 20
2.147155818447842
 30
0.0
 11
3.811500000000005
 21
2.147155818447842
 31
0.0
  0
LINE
  5
5D
100
AcDbEntity
  8
USP-GEO
100
AcDbLine
 10
3.759500000000002
 20
2.095155818447842
 30
0.0
 11
3.759500000000002
 21
2.021160027321336
 31
0.0
  0
LINE
  5
5E
100
AcDbEntity
  8
USP-GEO
100
AcDbLine
 10
3.759500000000002
 20
2.021160027321332
 30
0.0
 11
3.811500000000002
 21
2.021160027321332
 31
0.0
  0
LINE
  5
5F
100
AcDbEntity
  8
USP-GEO
100
AcDbLine
 10
3.811500000000005
 20
2.021160027321339
 30
0.0
 11
3.811500000000005
 21
2.095155818447839
 31
0.0
  0
LINE
  5
60
100
AcDbEntity
  8
USP-GEO
100
AcDbLine
 10
3.759500000000002
 20
2.095155818447839
 30
0.0
 11
3.759500000000002
 21
2.147155818447842
 31
0.0
  0
ARC
  5
61
100
AcDbEntity
  8
USP-GEO
100
AcDbCircle
 10
4.54150000000002
 20
2.541155818447812
 30
0.0
 40
0.1560000000000094
100
AcDbArc
 50
0.0000000000028498
 51
179.9999999999963
  0
LINE
  5
62
100
AcDbEntity
  8
USP-GEO
100
AcDbLine
 10
4.697500000000026
 20
2.043155818447843
 30
0.0
 11
4.385500000000003
 21
2.043155818447846
 31
0.0
  0
LINE
  5
63
100
AcDbEntity
  8
USP-GEO
100
AcDbLine
 10
4.385500000000003
 20
2.043155818447843
 30
0.0
 11
4.385500000000003
 21
2.541155818447823
 31
0.0
  0
LINE
  5
64
100
AcDbEntity
  8
USP-GEO
100
AcDbLine
 10
4.697500000000026
 20
2.043155818447843
 30
0.0
 11
4.697500000000026
 21
2.541155818447819
 31
0.0
  0
LINE
  5
65
100
AcDbEntity
  8
USP-GEO
100
AcDbLine
 10
5.463396246803458
 20
2.095155818447835
 30
0.0
 11
5.706500000000009
 21
2.095155818447835
 31
0.0
  0
LINE
  5
66
100
AcDbEntity
  8
USP-GEO
100
AcDbLine
 10
5.463396246803458
 20
2.043155818447868
 30
0.0
 11
5.151396246803432
 21
2.043155818447875
 31
0.0
  0
LINE
  5
67
100
AcDbEntity
  8
USP-GEO
100
AcDbLine
 10
5.151396246803432
 20
2.043155818447871
 30
0.0
 11
5.151396246803429
 21
2.741155818447825
 31
0.0
  0
LINE
  5
68
100
AcDbEntity
  8
USP-GEO
100
AcDbLine
 10
5.463396246803458
 20
2.043155818447868
 30
0.0
 11
5.463396246803455
 21
2.741155818447825
 31
0.0
  0
LINE
  5
69
100
AcDbEntity
  8
USP-GEO
100
AcDbLine
 10
5.737504208873502
 20
2.147155818447835
 30
0.0
 11
5.706500000000001
 21
2.147155818447835
 31
0.0
  0
LINE
  5
6A
100
AcDbEntity
  8
USP-GEO
100
AcDbLine
 10
5.706500000000005
 20
2.095155818447835
 30
0.0
 11
5.737504208873502
 21
2.095155818447835
 31
0.0
  0
LINE
  5
6B
100
AcDbEntity
  8
USP-GEO
100
AcDbLine
 10
5.737504208873502
 20
2.147155818447835
 30
0.0
 11
5.737504208873502
 21
2.095155818447839
 31
0.0
  0
LINE
  5
6C
100
AcDbEntity
  8
USP-GEO
100
AcDbLine
 10
3.916500000000002
 20
3.647155818447828
 30
0.0
 11
5.706500000000001
 21
3.647155818447842
 31
0.0
  0
CIRCLE
  5
6D
100
AcDbEntity
  8
USP-GEO
100
AcDbCircle
 10
4.316499999999997
 20
3.147155818447838
 30
0.0
 40
0.09
  0
CIRCLE
  5
6E
100
AcDbEntity
  8
USP-GEO
100
AcDbCircle
 10
5.307396246803428
 20
3.347155818447841
 30
0.0
 40
0.09
  0
ENDBLK
  5
71
100
AcDbEntity
  8
0
100
AcDbBlockEnd
  0
BLOCK
  5
D1
100
AcDbEntity
  8
0
100
AcDbBlockBegin
  2
THO17950_F
 70
     0
 10
0.0
 20
0.0
 30
0.0
  3
THO17950_F
  1

  0
TEXT
  5
74
100
AcDbEntity
  8
USP-TXT
100
AcDbText
 10
0.526754208873494
 20
-0.669365620360761
 30
-0.0000000000000007
 40
0.23
  1
THO17950 - FRONT VIEW
 72
     1
 11
2.884254208873493
 21
-0.669365620360761
 31
-0.0000000000000007
100
AcDbText
  0
LINE
  5
75
100
AcDbEntity
  8
USP-GEO
100
AcDbLine
 10
3.842504208873492
 20
0.0000000000000036
 30
-0.0000000000000015
 11
1.926004208873493
 21
0.0000000000000036
 31
0.0
210
0.0
220
1.0
230
0.0000000000000002
  0
LINE
  5
76
100
AcDbEntity
  8
USP-GEO
100
AcDbLine
 10
1.978004208873493
 20
0.0519999999999996
 30
0.0
 11
3.790504208873493
 21
0.0519999999999996
 31
-0.0000000000000014
210
0.0
220
1.0
230
0.0000000000000002
  0
LINE
  5
77
100
AcDbEntity
  8
USP-GEO
100
AcDbLine
 10
1.87400420887349
 20
2.7085
 30
0.0000000000000006
 11
1.87400420887349
 21
2.864500000000003
 31
0.0000000000000007
210
0.0
220
1.0
230
0.0000000000000002
  0
LINE
  5
78
100
AcDbEntity
  8
USP-GEO
100
AcDbLine
 10
1.926004208873493
 20
8.45575000000003
 30
0.0000000000000019
 11
1.926004208873493
 21
2.145750000000003
 31
0.0000000000000005
210
0.0
220
1.0
230
0.0000000000000002
  0
LINE
  5
79
100
AcDbEntity
  8
USP-GEO
100
AcDbLine
 10
1.978004208873493
 20
2.145749999999999
 30
0.0000000000000004
 11
1.978004208873493
 21
8.45575000000003
 31
0.0000000000000018
210
0.0
220
1.0
230
0.0000000000000002
  0
LINE
  5
7A
100
AcDbEntity
  8
USP-GEO
100
AcDbLine
 10
1.87400420887349
 20
1.581245737061802
 30
0.0000000000000004
 11
1.791852011410021
 21
1.499093539598334
 31
0.0000000000000004
210
0.0
220
1.0
230
0.0000000000000002
  0
ARC
  5
7B
100
AcDbEntity
  8
USP-GEO
100
AcDbCircle
 10
1.978004208873443
 20
1.423250000000003
 30
0.0000000000000003
 40
0.2010096592685704
100
AcDbArc
 50
157.8326628402831
 51
238.8427889741529
  0
LINE
  5
7C
100
AcDbEntity
  8
USP-GEO
100
AcDbLine
 10
1.87400420887349
 20
2.7085
 30
0.0000000000000006
 11
1.87400420887349
 21
0.5204999999999913
 31
0.0000000000000002
210
0.0
220
1.0
230
0.0000000000000002
  0
LINE
  5
7D
100
AcDbEntity
  8
USP-GEO
100
AcDbLine
 10
1.926004208873493
 20
2.145750000000003
 30
0.0000000000000005
 11
1.926004208873493
 21
0.0
 31
0.0
210
0.0
220
1.0
230
0.0000000000000002
  0
LINE
  5
7E
100
AcDbEntity
  8
USP-GEO
100
AcDbLine
 10
1.978004208873493
 20
2.145749999999999
 30
0.0000000000000004
 11
1.978004208873493
 21
0.0520000000000032
 31
0.0
210
0.0
220
1.0
230
0.0000000000000002
  0
LINE
  5
7F
100
AcDbEntity
  8
USP-GEO
100
AcDbLine
 10
1.874004208873486
 20
0.3645000000000031
 30
0.0000000000000001
 11
1.874004208873486
 21
0.5204999999999913
 31
0.0000000000000002
210
0.0
220
1.0
230
0.0000000000000002
  0
LINE
  5
80
100
AcDbEntity
  8
USP-GEO
100
AcDbLine
 10
1.874004208873486
 20
0.3644999999999996
 30
0.0000000000000001
 11
1.926004208873493
 21
0.3644999999999996
 31
0.0000000000000001
210
0.0
220
1.0
230
0.0000000000000002
  0
LINE
  5
81
100
AcDbEntity
  8
USP-GEO
100
AcDbLine
 10
1.978004208873493
 20
0.8620187763358195
 30
0.0000000000000002
 11
2.020214118150853
 21
0.8773819269038583
 31
0.0000000000000001
210
0.0
220
1.0
230
0.0000000000000002
  0
LINE
  5
82
100
AcDbEntity
  8
USP-GEO
100
AcDbLine
 10
2.020214118150853
 20
0.8773819269038583
 30
0.0000000000000001
 11
1.978004208873493
 21
0.9933526995206314
 31
0.0000000000000002
210
0.0
220
1.0
230
0.0000000000000002
  0
LINE
  5
83
100
AcDbEntity
  8
USP-GEO
100
AcDbLine
 10
1.978004208873493
 20
2.145749999999999
 30
0.0000000000000004
 11
1.926004208873493
 21
2.145749999999999
 31
0.0000000000000005
210
0.0
220
1.0
230
0.0000000000000002
  0
LINE
  5
84
100
AcDbEntity
  8
USP-GEO
100
AcDbLine
 10
0.2741079620700582
 20
9.65600000000002
 30
0.0000000000000034
 11
0.5861079620700807
 21
9.65600000000003
 31
0.0000000000000032
210
0.0
220
1.0
230
0.0000000000000002
  0
ARC
  5
85
100
AcDbEntity
  8
USP-GEO
100
AcDbCircle
 10
0.4301079620700712
 20
9.357999999999982
 30
0.0000000000000032
 40
0.1560000000000099
100
AcDbArc
 50
180.0000000000026
 51
359.9999999999987
  0
LINE
  5
86
100
AcDbEntity
  8
USP-GEO
100
AcDbLine
 10
1.021754208873502
 20
8.455750000000026
 30
0.0000000000000026
 11
0.0
 21
9.47750420887354
 31
0.0000000000000036
210
0.0
220
1.0
230
0.0000000000000002
  0
LINE
  5
87
100
AcDbEntity
  8
USP-HID
100
AcDbLine
 10
0.0310042088734939
 20
9.552000000000045
 30
-0.000000000000002
 11
1.821004208873489
 21
9.552000000000045
 31
-0.000000000000002
  0
LINE
  5
8A
100
AcDbEntity
  8
USP-GEO
100
AcDbLine
 10
0.2741079620700546
 20
9.604000000000041
 30
0.0000000000000034
 11
0.0310042088734903
 21
9.604000000000041
 31
0.0000000000000036
210
0.0
220
1.0
230
0.0000000000000002
  0
LINE
  5
8B
100
AcDbEntity
  8
USP-GEO
100
AcDbLine
 10
0.0310042088734903
 20
9.552000000000042
 30
0.0000000000000036
 11
0.0310042088734903
 21
9.604000000000041
 31
0.0000000000000036
210
0.0
220
1.0
230
0.0000000000000002
  0
ARC
  5
8C
100
AcDbEntity
  8
USP-GEO
100
AcDbCircle
 10
-0.0739957911265066
 20
9.552000000000035
 30
0.0000000000000037
 40
0.105
100
AcDbArc
 50
314.8070747105522
 51
0.0000000000038676
  0
LINE
  5
8D
100
AcDbEntity
  8
USP-GEO
100
AcDbLine
 10
0.2741079620700653
 20
9.65600000000002
 30
0.0000000000000034
 11
0.2741079620700688
 21
9.357999999999975
 31
0.0000000000000033
210
0.0
220
1.0
230
0.0000000000000002
  0
LINE
  5
8E
100
AcDbEntity
  8
USP-GEO
100
AcDbLine
 10
1.874004208873493
 20
3.07485527161825
 30
0.0000000000000007
 11
1.021754208873502
 21
8.455750000000026
 31
0.0000000000000026
210
0.0
220
1.0
230
0.0000000000000002
  0
LINE
  5
8F
100
AcDbEntity
  8
USP-GEO
100
AcDbLine
 10
1.862581383558634
 20
6.39575000000002
 30
0.0000000000000015
 11
1.721160027321328
 21
6.254328643762701
 31
0.0000000000000015
210
0.0
220
1.0
230
0.0000000000000002
  0
LINE
  5
90
100
AcDbEntity
  8
USP-GEO
100
AcDbLine
 10
1.721160027321321
 20
6.537171356237323
 30
0.0000000000000016
 11
1.86258138355863
 21
6.395750000000013
 31
0.0000000000000015
210
0.0
220
1.0
230
0.0000000000000002
  0
LINE
  5
91
100
AcDbEntity
  8
USP-GEO
100
AcDbLine
 10
1.579738671084019
 20
6.395750000000017
 30
0.0000000000000017
 11
1.721160027321328
 21
6.537171356237326
 31
0.0000000000000016
210
0.0
220
1.0
230
0.0000000000000002
  0
LINE
  5
92
100
AcDbEntity
  8
USP-GEO
100
AcDbLine
 10
1.721160027321335
 20
6.254328643762704
 30
0.0000000000000015
 11
1.579738671084015
 21
6.39575000000002
 31
0.0000000000000017
210
0.0
220
1.0
230
0.0000000000000002
  0
LINE
  5
93
100
AcDbEntity
  8
USP-GEO
100
AcDbLine
 10
1.874004208873493
 20
3.7085
 30
0.0000000000000009
 11
1.874004208873493
 21
3.864500000000006
 31
0.0000000000000009
210
0.0
220
1.0
230
0.0000000000000002
  0
LINE
  5
94
100
AcDbEntity
  8
USP-GEO
100
AcDbLine
 10
1.874004208873497
 20
3.7085
 30
0.0000000000000009
 11
1.874004208873497
 21
2.864500000000003
 31
0.0000000000000007
210
0.0
220
1.0
230
0.0000000000000002
  0
LINE
  5
95
100
AcDbEntity
  8
USP-GEO
100
AcDbLine
 10
1.87400420887349
 20
2.864500000000003
 30
0.0000000000000007
 11
1.926004208873493
 21
2.864500000000003
 31
0.0000000000000006
210
0.0
220
1.0
230
0.0000000000000002
  0
LINE
  5
96
100
AcDbEntity
  8
USP-GEO
100
AcDbLine
 10
1.874004208873493
 20
3.864500000000006
 30
0.0000000000000009
 11
1.926004208873493
 21
3.864500000000006
 31
0.0000000000000009
210
0.0
220
1.0
230
0.0000000000000002
  0
ARC
  5
97
100
AcDbEntity
  8
USP-GEO
100
AcDbCircle
 10
1.926004208873493
 20
9.552000000000038
 30
0.0000000000000021
 40
0.105
100
AcDbArc
 50
179.9999999999991
 51
269.9999999999961
  0
LINE
  5
98
100
AcDbEntity
  8
USP-GEO
100
AcDbLine
 10
1.040004208873483
 20
9.656000000000048
 30
0.0000000000000028
 11
1.352004208873509
 21
9.656000000000048
 31
0.0000000000000026
210
0.0
220
1.0
230
0.0000000000000002
  0
ARC
  5
99
100
AcDbEntity
  8
USP-GEO
100
AcDbCircle
 10
1.196004208873517
 20
9.158000000000029
 30
0.0000000000000026
 40
0.1559999999999987
100
AcDbArc
 50
180.0000000000026
 51
0.0
  0
LINE
  5
9A
100
AcDbEntity
  8
USP-GEO
100
AcDbLine
 10
1.040004208873479
 20
9.604000000000041
 30
0.0000000000000028
 11
0.58610796207007
 21
9.604000000000041
 31
0.0000000000000032
210
0.0
220
1.0
230
0.0000000000000002
  0
LINE
  5
9B
100
AcDbEntity
  8
USP-GEO
100
AcDbLine
 10
0.5861079620700807
 20
9.656000000000027
 30
0.0000000000000032
 11
0.5861079620700771
 21
9.357999999999975
 31
0.0000000000000031
210
0.0
220
1.0
230
0.0000000000000002
  0
LINE
  5
9C
100
AcDbEntity
  8
USP-GEO
100
AcDbLine
 10
1.04000420887349
 20
9.656000000000048
 30
0.0000000000000028
 11
1.040004208873497
 21
9.158000000000022
 31
0.0000000000000027
210
0.0
220
1.0
230
0.0000000000000002
  0
LINE
  5
9D
100
AcDbEntity
  8
USP-GEO
100
AcDbLine
 10
1.821004208873489
 20
9.604000000000041
 30
0.0000000000000022
 11
1.352004208873488
 21
9.604000000000041
 31
0.0000000000000026
210
0.0
220
1.0
230
0.0000000000000002
  0
LINE
  5
9E
100
AcDbEntity
  8
USP-GEO
100
AcDbLine
 10
1.352004208873509
 20
9.158000000000029
 30
0.0000000000000025
 11
1.352004208873509
 21
9.656000000000048
 31
0.0000000000000026
210
0.0
220
1.0
230
0.0000000000000002
  0
CIRCLE
  5
9F
100
AcDbEntity
  8
USP-GEO
100
AcDbCircle
 10
1.386107962070063
 20
8.802000000000028
 30
0.0000000000000024
 40
0.0900000000000001
  0
LINE
  5
A0
100
AcDbEntity
  8
USP-GEO
100
AcDbLine
 10
1.821004208873489
 20
9.552000000000038
 30
0.0000000000000022
 11
1.821004208873489
 21
9.604000000000041
 31
0.0000000000000022
210
0.0
220
1.0
230
0.0000000000000002
  0
LINE
  5
A1
100
AcDbEntity
  8
USP-GEO
100
AcDbLine
 10
1.926004208873493
 20
9.477504208873526
 30
0.0000000000000021
 11
1.926004208873493
 21
8.455750000000026
 31
0.0000000000000019
210
0.0
220
1.0
230
0.0000000000000002
  0
LINE
  5
A2
100
AcDbEntity
  8
USP-GEO
100
AcDbLine
 10
1.978004208873493
 20
8.455750000000026
 30
0.0000000000000018
 11
1.978004208873493
 21
9.477504208873522
 31
0.0000000000000021
210
0.0
220
1.0
230
0.0000000000000002
  0
LINE
  5
A3
100
AcDbEntity
  8
USP-GEO
100
AcDbLine
 10
1.978004208873493
 20
8.455750000000026
 30
0.0000000000000018
 11
1.926004208873493
 21
8.455750000000026
 31
0.0000000000000019
210
0.0
220
1.0
230
0.0000000000000002
  0
LINE
  5
A4
100
AcDbEntity
  8
USP-GEO
100
AcDbLine
 10
1.978004208873493
 20
9.477504208873522
 30
0.0000000000000021
 11
1.926004208873493
 21
9.477504208873522
 31
0.0000000000000021
210
0.0
220
1.0
230
0.0000000000000002
  0
LINE
  5
A5
100
AcDbEntity
  8
USP-GEO
100
AcDbLine
 10
3.894504208873488
 20
2.708500000000011
 30
-0.0000000000000009
 11
3.894504208873488
 21
2.864500000000013
 31
-0.0000000000000009
210
0.0
220
1.0
230
0.0000000000000002
  0
LINE
  5
A6
100
AcDbEntity
  8
USP-GEO
100
AcDbLine
 10
3.790504208873493
 20
2.14575000000001
 30
-0.000000000000001
 11
3.790504208873493
 21
8.455750000000016
 31
0.0000000000000004
210
0.0
220
1.0
230
0.0000000000000002
  0
LINE
  5
A7
100
AcDbEntity
  8
USP-GEO
100
AcDbLine
 10
3.842504208873492
 20
2.145750000000006
 30
-0.000000000000001
 11
3.842504208873492
 21
8.455750000000016
 31
0.0000000000000004
210
0.0
220
1.0
230
0.0000000000000002
  0
LINE
  5
A8
100
AcDbEntity
  8
USP-GEO
100
AcDbLine
 10
3.894504208873488
 20
0.5205000000000056
 30
-0.0000000000000014
 11
3.894504208873488
 21
2.708500000000011
 31
-0.0000000000000009
210
0.0
220
1.0
230
0.0000000000000002
  0
LINE
  5
A9
100
AcDbEntity
  8
USP-GEO
100
AcDbLine
 10
3.790504208873493
 20
0.0519999999999996
 30
-0.0000000000000014
 11
3.790504208873493
 21
2.14575000000001
 31
-0.000000000000001
210
0.0
220
1.0
230
0.0000000000000002
  0
LINE
  5
AA
100
AcDbEntity
  8
USP-GEO
100
AcDbLine
 10
3.842504208873492
 20
0.0000000000000036
 30
-0.0000000000000015
 11
3.842504208873492
 21
2.145750000000006
 31
-0.000000000000001
210
0.0
220
1.0
230
0.0000000000000002
  0
LINE
  5
AB
100
AcDbEntity
  8
USP-GEO
100
AcDbLine
 10
3.894504208873485
 20
0.3645000000000174
 30
-0.0000000000000014
 11
3.894504208873485
 21
0.5205000000000056
 31
-0.0000000000000014
210
0.0
220
1.0
230
0.0000000000000002
  0
LINE
  5
AC
100
AcDbEntity
  8
USP-GEO
100
AcDbLine
 10
3.842504208873492
 20
0.3645000000000138
 30
-0.0000000000000014
 11
3.894504208873485
 21
0.3645000000000138
 31
-0.0000000000000014
210
0.0
220
1.0
230
0.0000000000000002
  0
ARC
  5
AD
100
AcDbEntity
  8
USP-GEO
100
AcDbCircle
 10
3.790504208873496
 20
1.423250000000006
 30
-0.0000000000000011
 40
0.2010096592685704
100
AcDbArc
 50
301.1572110258603
 51
22.16733715971683
  0
LINE
  5
AE
100
AcDbEntity
  8
USP-GEO
100
AcDbLine
 10
3.790504208873493
 20
0.8620187763358266
 30
-0.0000000000000012
 11
3.748294299596125
 21
0.8773819269038654
 31
-0.0000000000000012
210
0.0
220
1.0
230
0.0000000000000002
  0
LINE
  5
AF
100
AcDbEntity
  8
USP-GEO
100
AcDbLine
 10
3.748294299596125
 20
0.8773819269038654
 30
-0.0000000000000012
 11
3.790504208873489
 21
0.9933526995206385
 31
-0.0000000000000012
210
0.0
220
1.0
230
0.0000000000000002
  0
LINE
  5
B0
100
AcDbEntity
  8
USP-GEO
100
AcDbLine
 10
3.894504208873488
 20
1.58124573706177
 30
-0.0000000000000012
 11
3.976656406336918
 21
1.499093539598341
 31
-0.0000000000000012
210
0.0
220
1.0
230
0.0000000000000002
  0
LINE
  5
B1
100
AcDbEntity
  8
USP-GEO
100
AcDbLine
 10
3.790504208873493
 20
2.14575000000001
 30
-0.000000000000001
 11
3.842504208873492
 21
2.14575000000001
 31
-0.000000000000001
210
0.0
220
1.0
230
0.0000000000000002
  0
LINE
  5
B2
100
AcDbEntity
  8
USP-GEO
100
AcDbLine
 10
4.746754208873483
 20
8.455750000000001
 30
-0.0000000000000003
 11
3.894504208873488
 21
3.074855271618229
 31
-0.0000000000000008
210
0.0
220
1.0
230
0.0000000000000002
  0
LINE
  5
B3
100
AcDbEntity
  8
USP-GEO
100
AcDbLine
 10
3.894504208873495
 20
3.708500000000011
 30
-0.0000000000000007
 11
3.894504208873495
 21
3.864500000000013
 31
-0.0000000000000006
210
0.0
220
1.0
230
0.0000000000000002
  0
LINE
  5
B4
100
AcDbEntity
  8
USP-GEO
100
AcDbLine
 10
3.894504208873495
 20
2.864500000000017
 30
-0.0000000000000009
 11
3.894504208873495
 21
3.708500000000011
 31
-0.0000000000000007
210
0.0
220
1.0
230
0.0000000000000002
  0
LINE
  5
B5
100
AcDbEntity
  8
USP-GEO
100
AcDbLine
 10
3.842504208873492
 20
2.864500000000017
 30
-0.0000000000000008
 11
3.894504208873488
 21
2.864500000000017
 31
-0.0000000000000009
210
0.0
220
1.0
230
0.0000000000000002
  0
LINE
  5
B6
100
AcDbEntity
  8
USP-GEO
100
AcDbLine
 10
3.842504208873492
 20
3.864500000000013
 30
-0.0000000000000006
 11
3.894504208873495
 21
3.864500000000013
 31
-0.0000000000000006
210
0.0
220
1.0
230
0.0000000000000002
  0
LINE
  5
B7
100
AcDbEntity
  8
USP-GEO
100
AcDbLine
 10
4.18876974666297
 20
6.395750000000006
 30
-0.0000000000000003
 11
4.047348390425653
 21
6.25432864376269
 31
-0.0000000000000002
210
0.0
220
1.0
230
0.0000000000000002
  0
LINE
  5
B8
100
AcDbEntity
  8
USP-GEO
100
AcDbLine
 10
4.047348390425668
 20
6.537171356237312
 30
-0.0000000000000002
 11
4.188769746662973
 21
6.395750000000006
 31
-0.0000000000000003
210
0.0
220
1.0
230
0.0000000000000002
  0
LINE
  5
B9
100
AcDbEntity
  8
USP-GEO
100
AcDbLine
 10
4.047348390425653
 20
6.254328643762686
 30
-0.0000000000000002
 11
3.905927034188351
 21
6.395750000000006
 31
-0.0000000000000001
210
0.0
220
1.0
230
0.0000000000000002
  0
LINE
  5
BA
100
AcDbEntity
  8
USP-GEO
100
AcDbLine
 10
3.905927034188351
 20
6.395750000000003
 30
-0.0000000000000001
 11
4.047348390425661
 21
6.537171356237312
 31
-0.0000000000000002
210
0.0
220
1.0
230
0.0000000000000002
  0
LINE
  5
BB
100
AcDbEntity
  8
USP-GEO
100
AcDbLine
 10
4.728504208873502
 20
9.604000000000002
 30
0.0
 11
5.182400455676923
 21
9.604000000000016
 31
-0.0000000000000004
210
0.0
220
1.0
230
0.0000000000000002
  0
LINE
  5
BC
100
AcDbEntity
  8
USP-GEO
100
AcDbLine
 10
5.768508417746993
 20
9.477504208873511
 30
-0.0000000000000008
 11
4.746754208873486
 21
8.455750000000001
 31
-0.0000000000000003
210
0.0
220
1.0
230
0.0000000000000002
  0
LINE
  5
BD
100
AcDbEntity
  8
USP-HID
100
AcDbLine
 10
3.947504208873489
 20
9.552000000000045
 30
-0.000000000000002
 11
5.737504208873495
 21
9.552000000000045
 31
-0.000000000000002
  0
LINE
  5
BE
100
AcDbEntity
  8
USP-GEO
100
AcDbLine
 10
3.790504208873493
 20
8.455750000000016
 30
0.0000000000000004
 11
3.790504208873493
 21
9.477504208873519
 31
0.0000000000000007
210
0.0
220
1.0
230
0.0000000000000002
  0
LINE
  5
BF
100
AcDbEntity
  8
USP-GEO
100
AcDbLine
 10
3.842504208873492
 20
8.455750000000012
 30
0.0000000000000004
 11
3.842504208873492
 21
9.477504208873511
 31
0.0000000000000006
210
0.0
220
1.0
230
0.0000000000000002
  0
LINE
  5
C0
100
AcDbEntity
  8
USP-GEO
100
AcDbLine
 10
3.790504208873493
 20
8.455750000000016
 30
0.0000000000000004
 11
3.842504208873492
 21
8.455750000000016
 31
0.0000000000000004
210
0.0
220
1.0
230
0.0000000000000002
  0
LINE
  5
C1
100
AcDbEntity
  8
USP-GEO
100
AcDbLine
 10
3.947504208873496
 20
9.604000000000013
 30
0.0000000000000006
 11
4.416504208873497
 21
9.604000000000013
 31
0.0000000000000002
210
0.0
220
1.0
230
0.0000000000000002
  0
ARC
  5
C2
100
AcDbEntity
  8
USP-GEO
100
AcDbCircle
 10
3.842504208873496
 20
9.552000000000013
 30
0.0000000000000007
 40
0.105
100
AcDbArc
 50
269.999999999998
 51
359.9999999999992
  0
LINE
  5
C3
100
AcDbEntity
  8
USP-GEO
100
AcDbLine
 10
3.790504208873493
 20
9.477504208873519
 30
0.0000000000000007
 11
3.842504208873492
 21
9.477504208873519
 31
0.0000000000000006
210
0.0
220
1.0
230
0.0000000000000002
  0
LINE
  5
C4
100
AcDbEntity
  8
USP-GEO
100
AcDbLine
 10
3.947504208873489
 20
9.552000000000013
 30
0.0000000000000006
 11
3.947504208873496
 21
9.604000000000013
 31
0.0000000000000006
210
0.0
220
1.0
230
0.0000000000000002
  0
CIRCLE
  5
C5
100
AcDbEntity
  8
USP-GEO
100
AcDbCircle
 10
4.382400455676926
 20
8.802000000000006
 30
0.0000000000000001
 40
0.0900000000000001
  0
ARC
  5
C6
100
AcDbEntity
  8
USP-GEO
100
AcDbCircle
 10
4.572504208873482
 20
9.158000000000033
 30
0.0
 40
0.1559999999999987
100
AcDbArc
 50
180.0
 51
359.9999999999947
  0
LINE
  5
C7
100
AcDbEntity
  8
USP-GEO
100
AcDbLine
 10
4.728504208873516
 20
9.656000000000044
 30
0.0
 11
4.416504208873494
 21
9.656000000000044
 31
0.0000000000000002
210
0.0
220
1.0
230
0.0000000000000002
  0
LINE
  5
C8
100
AcDbEntity
  8
USP-GEO
100
AcDbLine
 10
4.41650420887349
 20
9.158000000000029
 30
0.0000000000000001
 11
4.41650420887349
 21
9.656000000000048
 31
0.0000000000000002
210
0.0
220
1.0
230
0.0000000000000002
  0
LINE
  5
C9
100
AcDbEntity
  8
USP-GEO
100
AcDbLine
 10
4.728504208873513
 20
9.656000000000044
 30
0.0
 11
4.728504208873506
 21
9.158000000000019
 31
-0.0000000000000001
210
0.0
220
1.0
230
0.0000000000000002
  0
LINE
  5
CA
100
AcDbEntity
  8
USP-GEO
100
AcDbLine
 10
5.494400455676949
 20
9.604000000000013
 30
-0.0000000000000006
 11
5.737504208873499
 21
9.604000000000006
 31
-0.0000000000000008
210
0.0
220
1.0
230
0.0000000000000002
  0
ARC
  5
CB
100
AcDbEntity
  8
USP-GEO
100
AcDbCircle
 10
5.338400455676932
 20
9.357999999999979
 30
-0.0000000000000005
 40
0.15600000000001
100
AcDbArc
 50
180.0000000000012
 51
0.0
  0
LINE
  5
CC
100
AcDbEntity
  8
USP-GEO
100
AcDbLine
 10
5.494400455676949
 20
9.65600000000002
 30
-0.0000000000000006
 11
5.182400455676923
 21
9.65600000000003
 31
-0.0000000000000003
210
0.0
220
1.0
230
0.0000000000000002
  0
LINE
  5
CD
100
AcDbEntity
  8
USP-GEO
100
AcDbLine
 10
5.182400455676923
 20
9.656000000000027
 30
-0.0000000000000003
 11
5.182400455676926
 21
9.357999999999975
 31
-0.0000000000000004
210
0.0
220
1.0
230
0.0000000000000002
  0
LINE
  5
CE
100
AcDbEntity
  8
USP-GEO
100
AcDbLine
 10
5.494400455676938
 20
9.65600000000002
 30
-0.0000000000000006
 11
5.494400455676935
 21
9.357999999999979
 31
-0.0000000000000007
210
0.0
220
1.0
230
0.0000000000000002
  0
LINE
  5
CF
100
AcDbEntity
  8
USP-GEO
100
AcDbLine
 10
5.737504208873499
 20
9.604000000000006
 30
-0.0000000000000008
 11
5.737504208873499
 21
9.552000000000013
 31
-0.0000000000000008
210
0.0
220
1.0
230
0.0000000000000002
  0
ARC
  5
D0
100
AcDbEntity
  8
USP-GEO
100
AcDbCircle
 10
5.842504208873496
 20
9.552000000000013
 30
-0.0000000000000009
 40
0.105
100
AcDbArc
 50
180.0
 51
225.1929252894518
  0
ENDBLK
  5
D2
100
AcDbEntity
  8
0
100
AcDbBlockEnd
  0
BLOCK
  5
10B
100
AcDbEntity
  8
0
100
AcDbBlockBegin
  2
THO17950_S
 70
     0
 10
0.0
 20
0.0
 30
0.0
  3
THO17950_S
  1

  0
LINE
  5
D5
100
AcDbEntity
  8
USP-GEO
100
AcDbLine
 10
1.647155818447817
 20
2.145750000000003
 30
0.0
 11
1.55199999999998
 21
2.74654019285516
 31
0.0
210
0.0000000000000002
220
1.0
230
0.0
  0
LINE
  5
D6
100
AcDbEntity
  8
USP-GEO
100
AcDbLine
 10
2.11615581844782
 20
0.5204999999999984
 30
0.0000000000000001
 11
2.116155818447824
 21
3.7085
 31
0.0000000000000001
210
0.0000000000000002
220
1.0
230
0.0
  0
LINE
  5
D7
100
AcDbEntity
  8
USP-GEO
100
AcDbLine
 10
2.428155818447825
 20
3.7085
 30
0.0000000000000001
 11
2.428155818447821
 21
0.5204999999999984
 31
0.0000000000000001
210
0.0000000000000002
220
1.0
230
0.0
  0
ARC
  5
D8
100
AcDbEntity
  8
USP-GEO
100
AcDbCircle
 10
3.022155818447815
 20
2.7085
 30
0.0000000000000003
 40
0.1560000000000019
100
AcDbArc
 50
0.0
 51
180.0000000000013
  0
LINE
  5
D9
100
AcDbEntity
  8
USP-GEO
100
AcDbLine
 10
2.647749999999989
 20
8.45575000000003
 30
0.0000000000000002
 11
3.647155818447815
 21
2.145750000000003
 31
0.0000000000000004
210
0.0000000000000002
220
1.0
230
0.0
  0
TEXT
  5
DA
100
AcDbEntity
  8
USP-TXT
100
AcDbText
 10
-0.3805887574427578
 20
-0.6693656203607646
 30
0.0
 40
0.23
  1
THO17950 - SIDE VIEW
 72
     1
 11
1.823577909223907
 21
-0.6693656203607646
 31
0.0
100
AcDbText
  0
LINE
  5
DB
100
AcDbEntity
  8
USP-GEO
100
AcDbLine
 10
2.514972121924033
 20
0.9841836965237824
 30
0.0000000000000002
 11
2.780137164868976
 21
0.9841836965237824
 31
0.0000000000000002
210
0.0000000000000002
220
1.0
230
0.0
  0
LINE
  5
DC
100
AcDbEntity
  8
USP-GEO
100
AcDbLine
 10
2.647554643396505
 20
0.8516011750513108
 30
0.0000000000000002
 11
2.514972121924037
 21
0.9841836965237789
 31
0.0000000000000002
210
0.0000000000000002
220
1.0
230
0.0
  0
LINE
  5
DD
100
AcDbEntity
  8
USP-GEO
100
AcDbLine
 10
2.514972121924033
 20
0.9841836965237824
 30
0.0000000000000002
 11
2.647554643396498
 21
0.8595968794509225
 31
0.0000000000000002
210
0.0000000000000002
220
1.0
230
0.0
  0
CIRCLE
  5
DE
100
AcDbEntity
  8
USP-GEO
100
AcDbCircle
 10
2.647155818447815
 20
1.423250000000003
 30
0.0000000000000002
 40
0.1941671525239842
  0
LINE
  5
DF
100
AcDbEntity
  8
USP-GEO
100
AcDbLine
 10
3.647155818447819
 20
0.0
 30
0.0000000000000004
 11
1.647155818447819
 21
0.0
 31
0.0
210
0.0000000000000002
220
1.0
230
0.0
  0
LINE
  5
E0
100
AcDbEntity
  8
USP-HID
100
AcDbLine
 10
3.647155818447815
 20
0.0519999999999907
 30
0.0000000000000006
 11
1.647155818447819
 21
0.0519999999999854
 31
0.0
  0
LINE
  5
E1
100
AcDbEntity
  8
USP-GEO
100
AcDbLine
 10
1.647155818447819
 20
0.0000000000000036
 30
0.0
 11
1.647155818447815
 21
2.145750000000003
 31
0.0
210
0.0000000000000002
220
1.0
230
0.0
  0
ARC
  5
E2
100
AcDbEntity
  8
USP-GEO
100
AcDbCircle
 10
2.272155818447822
 20
0.520500000000002
 30
0.0000000000000001
 40
0.1559999999999981
100
AcDbArc
 50
180.0000000000013
 51
359.9999999999987
  0
LINE
  5
E3
100
AcDbEntity
  8
USP-GEO
100
AcDbLine
 10
3.178155818447811
 20
2.7085
 30
0.0000000000000003
 11
3.178155818447814
 21
0.5204999999999913
 31
0.0000000000000003
210
0.0000000000000002
220
1.0
230
0.0
  0
LINE
  5
E4
100
AcDbEntity
  8
USP-GEO
100
AcDbLine
 10
2.866155818447817
 20
0.5204999999999949
 30
0.0000000000000002
 11
2.866155818447817
 21
2.7085
 31
0.0000000000000002
210
0.0000000000000002
220
1.0
230
0.0
  0
LINE
  5
E5
100
AcDbEntity
  8
USP-GEO
100
AcDbLine
 10
3.647155818447815
 20
2.145750000000003
 30
0.0000000000000004
 11
3.647155818447815
 21
0.0
 31
0.0000000000000004
210
0.0000000000000002
220
1.0
230
0.0
  0
ARC
  5
E6
100
AcDbEntity
  8
USP-GEO
100
AcDbCircle
 10
3.022155818447808
 20
0.5204999999999949
 30
0.0000000000000003
 40
0.1559999999999943
100
AcDbArc
 50
180.0
 51
359.9999999999987
  0
LINE
  5
E7
100
AcDbEntity
  8
USP-GEO
100
AcDbLine
 10
2.780137164868976
 20
0.9841836965237789
 30
0.0000000000000002
 11
2.647554643396505
 21
0.8516011750513072
 31
0.0000000000000002
210
0.0000000000000002
220
1.0
230
0.0
  0
LINE
  5
E8
100
AcDbEntity
  8
USP-GEO
100
AcDbLine
 10
2.647554643396494
 20
0.8595968794509225
 30
0.0000000000000002
 11
2.780137164868966
 21
0.9841836965237931
 31
0.0000000000000002
210
0.0000000000000002
220
1.0
230
0.0
  0
ELLIPSE
  5
E9
100
AcDbEntity
  8
USP-GEO
100
AcDbEllipse
 10
2.647155818447822
 20
1.513027164566878
 30
0.0000000000000002
 11
-0.077999999999997
 21
-0.0000000000000009
 31
0.0
210
-0.0000000000000002
220
0.0
230
1.0
 40
0.7071067811865462
 41
-2.758613860809414
 42
-0.3829787927803393
  0
ELLIPSE
  5
EA
100
AcDbEntity
  8
USP-GEO
100
AcDbEllipse
 10
2.647155818447819
 20
1.554247868530882
 30
0.0000000000000002
 11
0.0779999999999986
 21
0.0000000000000002
 31
0.0
210
-0.0000000000000002
220
0.0
230
1.0
 40
0.7071067811865418
 41
0.0000000000000012
 42
6.283185307179587
  0
ARC
  5
EB
100
AcDbEntity
  8
USP-GEO
100
AcDbCircle
 10
2.647155818447815
 20
1.423250000000003
 30
0.0000000000000002
 40
0.1490096592685705
100
AcDbArc
 50
72.39451088577038
 51
107.6054891142236
  0
ELLIPSE
  5
EC
100
AcDbEntity
  8
USP-GEO
100
AcDbEllipse
 10
2.647155818447819
 20
1.475249999999956
 30
0.0000000000000002
 11
-0.0000000000000003
 21
0.1103086578651024
 31
0.0
210
-0.0000000000000002
220
0.0
230
1.0
 40
0.7071067811865423
 41
-0.616050123817976
 42
0.61605012381792
  0
CIRCLE
  5
ED
100
AcDbEntity
  8
USP-GEO
100
AcDbCircle
 10
2.397155818447819
 20
6.645750000000003
 30
0.0000000000000001
 40
0.125
  0
LINE
  5
EE
100
AcDbEntity
  8
USP-GEO
100
AcDbLine
 10
1.625995791126486
 20
9.477504208873526
 30
0.0
 11
2.647749999999993
 21
8.455750000000026
 31
0.0000000000000002
210
0.0000000000000002
220
1.0
230
0.0
  0
LINE
  5
EF
100
AcDbEntity
  8
USP-GEO
100
AcDbLine
 10
1.551999999999983
 20
2.74654019285516
 30
0.0
 11
1.551999999999983
 21
8.455750000000026
 31
0.0
210
0.0000000000000002
220
1.0
230
0.0
  0
LINE
  5
F0
100
AcDbEntity
  8
USP-GEO
100
AcDbLine
 10
1.499999999999985
 20
2.746540192855157
 30
0.0
 11
1.499999999999987
 21
8.455750000000023
 31
0.0
210
0.0000000000000002
220
1.0
230
0.0
  0
LINE
  5
F1
100
AcDbEntity
  8
USP-GEO
100
AcDbLine
 10
1.499999999999985
 20
2.746540192855157
 30
0.0
 11
1.551999999999983
 21
2.746540192855157
 31
0.0
210
0.0000000000000002
220
1.0
230
0.0
  0
ARC
  5
F2
100
AcDbEntity
  8
USP-GEO
100
AcDbCircle
 10
2.272155818447822
 20
3.708500000000007
 30
0.0000000000000001
 40
0.1559999999999993
100
AcDbArc
 50
359.9999999999973
 51
180.0000000000025
  0
LINE
  5
F3
100
AcDbEntity
  8
USP-GEO
100
AcDbLine
 10
1.499999999999987
 20
9.552000000000042
 30
0.0
 11
0.0
 21
9.552000000000042
 31
-0.0000000000000003
210
0.0000000000000002
220
1.0
230
0.0
  0
LINE
  5
F4
100
AcDbEntity
  8
USP-GEO
100
AcDbLine
 10
1.551999999999999
 20
9.604000000000041
 30
0.0
 11
0.0
 21
9.604000000000041
 31
-0.0000000000000003
210
0.0000000000000002
220
1.0
230
0.0
  0
LINE
  5
F5
100
AcDbEntity
  8
USP-GEO
100
AcDbLine
 10
1.60399999999999
 20
9.65600000000002
 30
0.0
 11
0.9060000000000307
 21
9.656000000000023
 31
-0.0000000000000001
210
0.0000000000000002
220
1.0
230
0.0
  0
LINE
  5
F6
100
AcDbEntity
  8
USP-GEO
100
AcDbLine
 10
0.0
 20
9.552000000000042
 30
-0.0000000000000003
 11
0.0
 21
9.604000000000041
 31
-0.0000000000000003
210
0.0000000000000002
220
1.0
230
0.0
  0
LINE
  5
F7
100
AcDbEntity
  8
USP-GEO
100
AcDbLine
 10
0.7500000000000231
 20
9.656000000000027
 30
-0.0000000000000002
 11
0.9060000000000307
 21
9.656000000000027
 31
-0.0000000000000001
210
0.0000000000000002
220
1.0
230
0.0
  0
LINE
  5
F8
100
AcDbEntity
  8
USP-GEO
100
AcDbLine
 10
0.7500000000000231
 20
9.656000000000027
 30
-0.0000000000000002
 11
0.7500000000000214
 21
9.604000000000041
 31
-0.0000000000000002
210
0.0000000000000002
220
1.0
230
0.0
  0
LINE
  5
F9
100
AcDbEntity
  8
USP-GEO
100
AcDbLine
 10
1.551999999999985
 20
8.455750000000026
 30
0.0
 11
1.551999999999987
 21
9.47750420887354
 31
0.0
210
0.0000000000000002
220
1.0
230
0.0
  0
LINE
  5
FA
100
AcDbEntity
  8
USP-GEO
100
AcDbLine
 10
1.499999999999987
 20
8.455750000000023
 30
0.0
 11
1.499999999999989
 21
9.477504208873533
 31
0.0
210
0.0000000000000002
220
1.0
230
0.0
  0
LINE
  5
FB
100
AcDbEntity
  8
USP-GEO
100
AcDbLine
 10
1.499999999999987
 20
8.455750000000023
 30
0.0
 11
1.551999999999985
 21
8.455750000000023
 31
0.0
210
0.0000000000000002
220
1.0
230
0.0
  0
LINE
  5
FC
100
AcDbEntity
  8
USP-GEO
100
AcDbLine
 10
1.603999999999993
 20
9.201999999999973
 30
0.0
 11
1.603999999999993
 21
9.158000000000022
 31
0.0
210
0.0000000000000002
220
1.0
230
0.0
  0
LINE
  5
FD
100
AcDbEntity
  8
USP-GEO
100
AcDbLine
 10
1.603999999999992
 20
9.00200000000003
 30
0.0
 11
1.551999999999985
 21
9.00200000000003
 31
0.0
210
0.0000000000000002
220
1.0
230
0.0
  0
LINE
  5
FE
100
AcDbEntity
  8
USP-GEO
100
AcDbLine
 10
1.603999999999993
 20
9.158000000000022
 30
0.0
 11
1.603999999999992
 21
9.00200000000003
 31
0.0
210
0.0000000000000002
220
1.0
230
0.0
  0
LINE
  5
FF
100
AcDbEntity
  8
USP-GEO
100
AcDbLine
 10
1.603999999999984
 20
9.201999999999973
 30
0.0
 11
1.551999999999985
 21
9.201999999999973
 31
0.0
210
0.0000000000000002
220
1.0
230
0.0
  0
LINE
  5
100
100
AcDbEntity
  8
USP-GEO
100
AcDbLine
 10
1.551999999999999
 20
9.552000000000042
 30
0.0
 11
1.551999999999999
 21
9.604000000000041
 31
0.0
210
0.0000000000000002
220
1.0
230
0.0
  0
LINE
  5
101
100
AcDbEntity
  8
USP-GEO
100
AcDbLine
 10
1.499999999999987
 20
9.477504208873536
 30
0.0
 11
1.551999999999985
 21
9.477504208873536
 31
0.0
210
0.0000000000000002
220
1.0
230
0.0
  0
LINE
  5
102
100
AcDbEntity
  8
USP-GEO
100
AcDbLine
 10
1.551999999999987
 20
9.47750420887354
 30
0.0
 11
1.551999999999987
 21
9.552000000000042
 31
0.0
210
0.0000000000000002
220
1.0
230
0.0
  0
LINE
  5
103
100
AcDbEntity
  8
USP-GEO
100
AcDbLine
 10
1.499999999999987
 20
9.552000000000038
 30
0.0
 11
1.499999999999987
 21
9.47750420887354
 31
0.0
210
0.0000000000000002
220
1.0
230
0.0
  0
ARC
  5
104
100
AcDbEntity
  8
USP-GEO
100
AcDbCircle
 10
1.551999999999983
 20
9.552000000000028
 30
0.0
 40
0.1049999999999969
100
AcDbArc
 50
299.6854518309301
 51
314.8070747105482
  0
LINE
  5
105
100
AcDbEntity
  8
USP-GEO
100
AcDbLine
 10
1.603999999999988
 20
9.65600000000002
 30
0.0
 11
1.603999999999984
 21
9.357999999999975
 31
0.0
210
0.0000000000000002
220
1.0
230
0.0
  0
LINE
  5
106
100
AcDbEntity
  8
USP-GEO
100
AcDbLine
 10
1.603999999999986
 20
9.357999999999975
 30
0.0
 11
1.603999999999984
 21
9.201999999999973
 31
0.0
210
0.0000000000000002
220
1.0
230
0.0
  0
LINE
  5
107
100
AcDbEntity
  8
USP-GEO
100
AcDbLine
 10
2.897155818447815
 20
3.654328643762685
 30
0.0000000000000002
 11
2.755734462210506
 21
3.795750000000001
 31
0.0000000000000002
210
0.0000000000000002
220
1.0
230
0.0
  0
LINE
  5
108
100
AcDbEntity
  8
USP-GEO
100
AcDbLine
 10
3.038577174685132
 20
3.795749999999998
 30
0.0000000000000003
 11
2.897155818447815
 21
3.654328643762685
 31
0.0000000000000002
210
0.0000000000000002
220
1.0
230
0.0
  0
LINE
  5
109
100
AcDbEntity
  8
USP-GEO
100
AcDbLine
 10
2.755734462210506
 20
3.795750000000001
 30
0.0000000000000002
 11
2.897155818447815
 21
3.93717135623731
 31
0.0000000000000002
210
0.0000000000000002
220
1.0
230
0.0
  0
LINE
  5
10A
100
AcDbEntity
  8
USP-GEO
100
AcDbLine
 10
2.897155818447815
 20
3.937171356237307
 30
0.0000000000000002
 11
3.038577174685135
 21
3.795749999999998
 31
0.0000000000000003
210
0.0000000000000002
220
1.0
230
0.0
  0
ENDBLK
  5
10C
100
AcDbEntity
  8
0
100
AcDbBlockEnd
  0
ENDSEC
  0
SECTION
  2
ENTITIES
  0
INSERT
  5
3
100
AcDbEntity
  8
USP
100
AcDbBlockReference
  2
THO17950_T
 10
5.558556683597847
 20
12.44884397034618
 30
-0.0000000000000065
  0
INSERT
  5
72
100
AcDbEntity
  8
USP
100
AcDbBlockReference
  2
THO17950_F
 10
5.527552474724356
 20
0.6698568166101886
 30
-0.0000000000000058
  0
INSERT
  5
D3
100
AcDbEntity
  8
USP
100
AcDbBlockReference
  2
THO17950_S
 10
0.3809549404410068
 20
0.6698568166101922
 30
-0.0000000000000074
  0
ENDSEC
  0
SECTION
  2
OBJECTS
  0
DICTIONARY
  5
128
102
{ACAD_XDICTIONARY
360
129
102
}
100
AcDbDictionary
  3
ACAD_GROUP
350
125
  3
ACAD_MLINESTYLE
350
126
  0
DICTIONARY
  5
11A
100
AcDbDictionary
280
     1
  0
DICTIONARY
  5
11C
100
AcDbDictionary
280
     1
  0
DICTIONARY
  5
6
100
AcDbDictionary
280
     1
  0
DICTIONARY
  5
B
100
AcDbDictionary
280
     1
  0
DICTIONARY
  5
12D
100
AcDbDictionary
280
     1
  0
DICTIONARY
  5
10D
100
AcDbDictionary
280
     1
  3
ACAD_LAYOUTSELFREF
360
10E
  0
DICTIONARY
  5
112
100
AcDbDictionary
280
     1
  3
ACAD_LAYOUTSELFREF
360
113
  0
DICTIONARY
  5
129
100
AcDbDictionary
280
     1
  3
ACAD_XREC_ROUNDTRIP
360
12A
  0
DICTIONARY
  5
125
102
{ACAD_REACTORS
330
128
102
}
100
AcDbDictionary
  0
DICTIONARY
  5
126
102
{ACAD_XDICTIONARY
360
127
102
}
102
{ACAD_REACTORS
330
128
102
}
100
AcDbDictionary
  3
STANDARD
350
12B
  0
XRECORD
  5
10E
102
{ACAD_REACTORS
330
10D
102
}
100
AcDbXrecord
340
2
  0
XRECORD
  5
113
102
{ACAD_REACTORS
330
112
102
}
100
AcDbXrecord
340
113
  0
XRECORD
  5
12A
102
{ACAD_REACTORS
330
129
102
}
100
AcDbXrecord
102
EXTNAMES
  1
ACDBVARIABLEDICTIONARY
  2
AcDbVariableDictionary
  0
DICTIONARY
  5
127
100
AcDbDictionary
280
     1
  0
MLINESTYLE
  5
12B
102
{ACAD_REACTORS
330
126
102
}
100
AcDbMlineStyle
  2
STANDARD
 70
     0
  3

 62
   256
 51
90.0
 52
90.0
 71
     2
 49
0.5
 62
   256
  6
BYLAYER
 49
-0.5
 62
   256
  6
BYLAYER
  0
ENDSEC
  0
EOF
