  0
SECTION
  2
HEADER
  9
$ACADVER
  1
AC1014
  9
$ACADMAINTVER
 70
     9
  9
$DWGCODEPAGE
  3
ANSI_1252
  9
$INSBASE
 10
0.0
 20
0.0
 30
0.0
  9
$EXTMIN
 10
0.0006383130118977
 20
0.0006285016708958
 30
-0.0000000000000033
  9
$EXTMAX
 10
20.91722206991862
 20
20.59694027706731
 30
0.0000000000000005
  9
$LIMMIN
 10
0.0
 20
0.0
  9
$LIMMAX
 10
12.0
 20
9.0
  9
$ORTHOMODE
 70
     0
  9
$REGENMODE
 70
     1
  9
$FILLMODE
 70
     1
  9
$QTEXTMODE
 70
     0
  9
$MIRRTEXT
 70
     1
  9
$DRAGMODE
 70
     2
  9
$LTSCALE
 40
1.0
  9
$OSMODE
 70
    37
  9
$ATTMODE
 70
     1
  9
$TEXTSIZE
 40
0.5
  9
$TRACEWID
 40
0.05
  9
$TEXTSTYLE
  7
STANDARD
  9
$CLAYER
  8
0
  9
$CELTYPE
  6
BYLAYER
  9
$CECOLOR
 62
   256
  9
$CELTSCALE
 40
1.0
  9
$DELOBJ
 70
     1
  9
$DISPSILH
 70
     0
  9
$DIMSCALE
 40
1.0
  9
$DIMASZ
 40
0.18
  9
$DIMEXO
 40
0.0625
  9
$DIMDLI
 40
0.38
  9
$DIMRND
 40
0.0
  9
$DIMDLE
 40
0.0
  9
$DIMEXE
 40
0.18
  9
$DIMTP
 40
0.0
  9
$DIMTM
 40
0.0
  9
$DIMTXT
 40
0.18
  9
$DIMCEN
 40
0.09
  9
$DIMTSZ
 40
0.0
  9
$DIMTOL
 70
     0
  9
$DIMLIM
 70
     0
  9
$DIMTIH
 70
     1
  9
$DIMTOH
 70
     1
  9
$DIMSE1
 70
     0
  9
$DIMSE2
 70
     0
  9
$DIMTAD
 70
     0
  9
$DIMZIN
 70
     0
  9
$DIMBLK
  1

  9
$DIMASO
 70
     1
  9
$DIMSHO
 70
     1
  9
$DIMPOST
  1

  9
$DIMAPOST
  1

  9
$DIMALT
 70
     0
  9
$DIMALTD
 70
     2
  9
$DIMALTF
 40
25.4
  9
$DIMLFAC
 40
1.0
  9
$DIMTOFL
 70
     0
  9
$DIMTVP
 40
0.0
  9
$DIMTIX
 70
     0
  9
$DIMSOXD
 70
     0
  9
$DIMSAH
 70
     0
  9
$DIMBLK1
  1

  9
$DIMBLK2
  1

  9
$DIMSTYLE
  2
STANDARD
  9
$DIMCLRD
 70
     0
  9
$DIMCLRE
 70
     0
  9
$DIMCLRT
 70
     0
  9
$DIMTFAC
 40
1.0
  9
$DIMGAP
 40
0.09
  9
$DIMJUST
 70
     0
  9
$DIMSD1
 70
     0
  9
$DIMSD2
 70
     0
  9
$DIMTOLJ
 70
     1
  9
$DIMTZIN
 70
     0
  9
$DIMALTZ
 70
     0
  9
$DIMALTTZ
 70
     0
  9
$DIMFIT
 70
     3
  9
$DIMUPT
 70
     0
  9
$DIMUNIT
 70
     2
  9
$DIMDEC
 70
     4
  9
$DIMTDEC
 70
     4
  9
$DIMALTU
 70
     2
  9
$DIMALTTD
 70
     2
  9
$DIMTXSTY
  7
STANDARD
  9
$DIMAUNIT
 70
     0
  9
$LUNITS
 70
     2
  9
$LUPREC
 70
     4
  9
$SKETCHINC
 40
0.1
  9
$FILLETRAD
 40
0.5
  9
$AUNITS
 70
     0
  9
$AUPREC
 70
     0
  9
$MENU
  1
.
  9
$ELEVATION
 40
0.0
  9
$PELEVATION
 40
0.0
  9
$THICKNESS
 40
0.0
  9
$LIMCHECK
 70
     0
  9
$BLIPMODE
 70
     0
  9
$CHAMFERA
 40
0.5
  9
$CHAMFERB
 40
0.5
  9
$CHAMFERC
 40
1.0
  9
$CHAMFERD
 40
0.0
  9
$SKPOLY
 70
     0
  9
$TDCREATE
 40
2451667.537949421
  9
$TDUPDATE
 40
2452759.747630925
  9
$TDINDWG
 40
0.0077241204
  9
$TDUSRTIMER
 40
0.0077241204
  9
$USRTIMER
 70
     1
  9
$ANGBASE
 50
0.0
  9
$ANGDIR
 70
     0
  9
$PDMODE
 70
     0
  9
$PDSIZE
 40
0.0
  9
$PLINEWID
 40
0.0
  9
$COORDS
 70
     1
  9
$SPLFRAME
 70
     0
  9
$SPLINETYPE
 70
     6
  9
$SPLINESEGS
 70
     8
  9
$ATTDIA
 70
     0
  9
$ATTREQ
 70
     1
  9
$HANDLING
 70
     1
  9
$HANDSEED
  5
135
  9
$SURFTAB1
 70
     6
  9
$SURFTAB2
 70
     6
  9
$SURFTYPE
 70
     6
  9
$SURFU
 70
     6
  9
$SURFV
 70
     6
  9
$UCSNAME
  2

  9
$UCSORG
 10
0.0
 20
0.0
 30
0.0
  9
$UCSXDIR
 10
1.0
 20
0.0
 30
0.0
  9
$UCSYDIR
 10
0.0
 20
1.0
 30
0.0
  9
$PUCSNAME
  2

  9
$PUCSORG
 10
0.0
 20
0.0
 30
0.0
  9
$PUCSXDIR
 10
1.0
 20
0.0
 30
0.0
  9
$PUCSYDIR
 10
0.0
 20
1.0
 30
0.0
  9
$USERI1
 70
     0
  9
$USERI2
 70
     0
  9
$USERI3
 70
     0
  9
$USERI4
 70
     0
  9
$USERI5
 70
     0
  9
$USERR1
 40
0.0
  9
$USERR2
 40
0.0
  9
$USERR3
 40
0.0
  9
$USERR4
 40
0.0
  9
$USERR5
 40
0.0
  9
$WORLDVIEW
 70
     1
  9
$SHADEDGE
 70
     3
  9
$SHADEDIF
 70
    70
  9
$TILEMODE
 70
     1
  9
$MAXACTVP
 70
    48
  9
$PINSBASE
 10
0.0
 20
0.0
 30
0.0
  9
$PLIMCHECK
 70
     0
  9
$PEXTMIN
 10
1.000000000000000E+20
 20
1.000000000000000E+20
 30
1.000000000000000E+20
  9
$PEXTMAX
 10
-1.000000000000000E+20
 20
-1.000000000000000E+20
 30
-1.000000000000000E+20
  9
$PLIMMIN
 10
0.0
 20
0.0
  9
$PLIMMAX
 10
12.0
 20
9.0
  9
$UNITMODE
 70
     0
  9
$VISRETAIN
 70
     1
  9
$PLINEGEN
 70
     0
  9
$PSLTSCALE
 70
     1
  9
$TREEDEPTH
 70
  3020
  9
$PICKSTYLE
 70
     1
  9
$CMLSTYLE
  2
STANDARD
  9
$CMLJUST
 70
     0
  9
$CMLSCALE
 40
1.0
  9
$PROXYGRAPHICS
 70
     1
  9
$MEASUREMENT
 70
     0
  0
ENDSEC
  0
SECTION
  2
CLASSES
  0
CLASS
  1
ACDBDICTIONARYWDFLT
  2
AcDbDictionaryWithDefault
  3
AutoCAD 2000
 90
        0
280
     1
281
     0
  0
CLASS
  1
ACDBPLACEHOLDER
  2
AcDbPlaceHolder
  3
AutoCAD 2000
 90
        0
280
     1
281
     0
  0
CLASS
  1
LAYOUT
  2
AcDbLayout
  3
AutoCAD 2000
 90
        0
280
     1
281
     0
  0
CLASS
  1
LONG_TRANSACTION
  2
AcDbLongTransaction
  3
AutoCAD 2000
 90
        0
280
     1
281
     0
  0
CLASS
  1
LWPOLYLINE
  2
AcDbPolyline
  3
"AutoCAD"
 90
        0
280
     1
281
     1
  0
CLASS
  1
HATCH
  2
AcDbHatch
  3
"ACAD_SEDONA"
 90
        0
280
     1
281
     1
  0
CLASS
  1
XRECORD
  2
AcDbXrecord
  3
"<Built In>"
 90
        0
280
     0
281
     0
  0
CLASS
  1
LONG_TRANSACTION
  2
AcDbLongTransaction
  3
AutoCAD 2000
 90
        0
280
     1
281
     0
  0
CLASS
  1
LWPOLYLINE
  2
AcDbPolyline
  3
"AutoCAD"
 90
        0
280
     1
281
     1
  0
CLASS
  1
HATCH
  2
AcDbHatch
  3
"ACAD_SEDONA"
 90
        0
280
     1
281
     1
  0
CLASS
  1
XRECORD
  2
AcDbXrecord
  3
"<Built In>"
 90
        0
280
     0
281
     0
  0
CLASS
  1
LONG_TRANSACTION
  2
AcDbLongTransaction
  3
AutoCAD 2000
 90
        0
280
     1
281
     0
  0
CLASS
  1
LWPOLYLINE
  2
AcDbPolyline
  3
"AutoCAD"
 90
        0
280
     1
281
     1
  0
CLASS
  1
HATCH
  2
AcDbHatch
  3
"ACAD_SEDONA"
 90
        0
280
     1
281
     1
  0
CLASS
  1
XRECORD
  2
AcDbXrecord
  3
"<Built In>"
 90
        0
280
     0
281
     0
  0
CLASS
  1
LONG_TRANSACTION
  2
AcDbLongTransaction
  3
AutoCAD 2000
 90
        0
280
     1
281
     0
  0
CLASS
  1
LWPOLYLINE
  2
AcDbPolyline
  3
"AutoCAD"
 90
        0
280
     1
281
     1
  0
CLASS
  1
HATCH
  2
AcDbHatch
  3
"ACAD_SEDONA"
 90
        0
280
     1
281
     1
  0
CLASS
  1
XRECORD
  2
AcDbXrecord
  3
"<Built In>"
 90
        0
280
     0
281
     0
  0
CLASS
  1
LONG_TRANSACTION
  2
AcDbLongTransaction
  3
AutoCAD 2000
 90
        0
280
     1
281
     0
  0
CLASS
  1
LWPOLYLINE
  2
AcDbPolyline
  3
"AutoCAD"
 90
        0
280
     1
281
     1
  0
CLASS
  1
HATCH
  2
AcDbHatch
  3
"ACAD_SEDONA"
 90
        0
280
     1
281
     1
  0
CLASS
  1
XRECORD
  2
AcDbXrecord
  3
"<Built In>"
 90
        0
280
     0
281
     0
  0
CLASS
  1
DICTIONARYVAR
  2
AcDbDictionaryVar
  3
"AutoCAD"
 90
        0
280
     0
281
     0
  0
CLASS
  1
LONG_TRANSACTION
  2
AcDbLongTransaction
  3
AutoCAD 2000
 90
        0
280
     0
281
     0
  0
CLASS
  1
LWPOLYLINE
  2
AcDbPolyline
  3
"AutoCAD"
 90
        0
280
     0
281
     1
  0
CLASS
  1
HATCH
  2
AcDbHatch
  3
"ACAD_SEDONA"
 90
        0
280
     0
281
     1
  0
CLASS
  1
XRECORD
  2
AcDbXrecord
  3
"<Built In>"
 90
        0
280
     0
281
     0
  0
CLASS
  1
LONG_TRANSACTION
  2
AcDbLongTransaction
  3
AutoCAD 2000
 90
        0
280
     0
281
     0
  0
CLASS
  1
LWPOLYLINE
  2
AcDbPolyline
  3
"AutoCAD"
 90
        0
280
     0
281
     1
  0
CLASS
  1
HATCH
  2
AcDbHatch
  3
"ACAD_SEDONA"
 90
        0
280
     0
281
     1
  0
CLASS
  1
XRECORD
  2
AcDbXrecord
  3
"<Built In>"
 90
        0
280
     0
281
     0
  0
ENDSEC
  0
SECTION
  2
TABLES
  0
TABLE
  2
VPORT
  5
115
100
AcDbSymbolTable
 70
     1
  0
VPORT
  5
131
100
AcDbSymbolTableRecord
100
AcDbViewportTableRecord
  2
*ACTIVE
 70
     0
 10
0.0
 20
0.0
 11
1.0
 21
1.0
 12
10.45940910976666
 22
10.55292601928881
 13
0.0
 23
0.0
 14
0.5
 24
0.5
 15
0.5
 25
0.5
 16
0.0
 26
0.0
 36
1.0
 17
0.0
 27
0.0
 37
0.0
 40
21.25630788011418
 41
1.457627118644067
 42
50.0
 43
0.0
 44
0.0
 50
0.0
 51
0.0
 71
     0
 72
   100
 73
     1
 74
     3
 75
     0
 76
     0
 77
     0
 78
     0
  0
ENDTAB
  0
TABLE
  2
LTYPE
  5
10E
100
AcDbSymbolTable
 70
     2
  0
LTYPE
  5
10F
102
{ACAD_XDICTIONARY
360
110
102
}
100
AcDbSymbolTableRecord
100
AcDbLinetypeTableRecord
  2
BYBLOCK
 70
     0
  3

 72
    65
 73
     0
 40
0.0
  0
LTYPE
  5
111
102
{ACAD_XDICTIONARY
360
112
102
}
100
AcDbSymbolTableRecord
100
AcDbLinetypeTableRecord
  2
BYLAYER
 70
     0
  3

 72
    65
 73
     0
 40
0.0
  0
LTYPE
  5
5
102
{ACAD_XDICTIONARY
360
6
102
}
100
AcDbSymbolTableRecord
100
AcDbLinetypeTableRecord
  2
CONTINUOUS
 70
     0
  3
Solid line
 72
    65
 73
     0
 40
0.0
  0
LTYPE
  5
8D
100
AcDbSymbolTableRecord
100
AcDbLinetypeTableRecord
  2
HIDDEN
 70
     0
  3
Hidden __ __ __ __ __ __ __ __ __ __ __ __ __ _
 72
    65
 73
     2
 40
0.375
 49
0.25
 74
     0
 49
-0.125
 74
     0
  0
ENDTAB
  0
TABLE
  2
LAYER
  5
10C
100
AcDbSymbolTable
 70
     5
  0
LAYER
  5
62
100
AcDbSymbolTableRecord
100
AcDbLayerTableRecord
  2
0
 70
     0
 62
     7
  6
CONTINUOUS
  0
LAYER
  5
4
100
AcDbSymbolTableRecord
100
AcDbLayerTableRecord
  2
USP
 70
     0
 62
     7
  6
CONTINUOUS
  0
LAYER
  5
8C
100
AcDbSymbolTableRecord
100
AcDbLayerTableRecord
  2
USP-HID
 70
     0
 62
     7
  6
HIDDEN
  0
LAYER
  5
D
100
AcDbSymbolTableRecord
100
AcDbLayerTableRecord
  2
USP-GEO
 70
     0
 62
     7
  6
CONTINUOUS
  0
LAYER
  5
9
100
AcDbSymbolTableRecord
100
AcDbLayerTableRecord
  2
USP-TXT
 70
     0
 62
     7
  6
CONTINUOUS
  0
ENDTAB
  0
TABLE
  2
STYLE
  5
10D
100
AcDbSymbolTable
 70
     1
  0
STYLE
  5
A
102
{ACAD_XDICTIONARY
360
B
102
}
100
AcDbSymbolTableRecord
100
AcDbTextStyleTableRecord
  2
STANDARD
 70
     0
 40
0.0
 41
1.0
 50
0.0
 71
     0
 42
0.5
  3
txt
  4

  0
ENDTAB
  0
TABLE
  2
VIEW
  5
113
100
AcDbSymbolTable
 70
     0
  0
ENDTAB
  0
TABLE
  2
UCS
  5
114
100
AcDbSymbolTable
 70
     0
  0
ENDTAB
  0
TABLE
  2
APPID
  5
117
100
AcDbSymbolTable
 70
     1
  0
APPID
  5
118
100
AcDbSymbolTableRecord
100
AcDbRegAppTableRecord
  2
ACAD
 70
     0
  0
ENDTAB
  0
TABLE
  2
DIMSTYLE
  5
119
100
AcDbSymbolTable
 70
     1
  0
DIMSTYLE
105
122
102
{ACAD_XDICTIONARY
360
123
102
}
100
AcDbSymbolTableRecord
100
AcDbDimStyleTableRecord
  2
STANDARD
 70
     0
  3

  4

  5

  6

  7

 40
1.0
 41
0.18
 42
0.0625
 43
0.38
 44
0.18
 45
0.0
 46
0.0
 47
0.0
 48
0.0
140
0.18
141
0.09
142
0.0
143
25.4
144
1.0
145
0.0
146
1.0
147
0.09
 71
     0
 72
     0
 73
     1
 74
     1
 75
     0
 76
     0
 77
     0
 78
     0
170
     0
171
     2
172
     0
173
     0
174
     0
175
     0
176
     0
177
     0
178
     0
270
     2
271
     4
272
     4
273
     2
274
     2
340
A
275
     0
280
     0
281
     0
282
     0
283
     1
284
     0
285
     0
286
     0
287
     3
288
     0
  0
ENDTAB
  0
TABLE
  2
BLOCK_RECORD
  5
1
100
AcDbSymbolTable
 70
     3
  0
BLOCK_RECORD
  5
2
102
{ACAD_XDICTIONARY
360
103
102
}
100
AcDbSymbolTableRecord
100
AcDbBlockTableRecord
  2
*MODEL_SPACE
  0
BLOCK_RECORD
  5
107
102
{ACAD_XDICTIONARY
360
108
102
}
100
AcDbSymbolTableRecord
100
AcDbBlockTableRecord
  2
*PAPER_SPACE
  0
BLOCK_RECORD
  5
7
100
AcDbSymbolTableRecord
100
AcDbBlockTableRecord
  2
THO17118_T
  0
BLOCK_RECORD
  5
65
100
AcDbSymbolTableRecord
100
AcDbBlockTableRecord
  2
THO17118_F
  0
BLOCK_RECORD
  5
CA
100
AcDbSymbolTableRecord
100
AcDbBlockTableRecord
  2
THO17118_S
  0
ENDTAB
  0
ENDSEC
  0
SECTION
  2
BLOCKS
  0
BLOCK
  5
105
100
AcDbEntity
  8
0
100
AcDbBlockBegin
  2
*MODEL_SPACE
 70
     0
 10
0.0
 20
0.0
 30
0.0
  3
*MODEL_SPACE
  1

  0
ENDBLK
  5
106
100
AcDbEntity
  8
0
100
AcDbBlockEnd
  0
BLOCK
  5
10A
100
AcDbEntity
 67
     1
  8
0
100
AcDbBlockBegin
  2
*PAPER_SPACE
 70
     0
 10
0.0
 20
0.0
 30
0.0
  3
*PAPER_SPACE
  1

  0
ENDBLK
  5
10B
100
AcDbEntity
 67
     1
  8
0
100
AcDbBlockEnd
  0
BLOCK
  5
61
100
AcDbEntity
  8
0
100
AcDbBlockBegin
  2
THO17118_T
 70
     0
 10
0.0
 20
0.0
 30
0.0
  3
THO17118_T
  1

  0
TEXT
  5
8
100
AcDbEntity
  8
USP-TXT
100
AcDbText
 10
-1.505930688086077
 20
-1.398447738215708
 30
0.0
 40
0.5
  1
THO17118 - TOP VIEW
 72
     1
 11
2.994069311913921
 21
-1.398447738215708
 31
0.0
100
AcDbText
  0
LINE
  5
C
100
AcDbEntity
  8
USP-GEO
100
AcDbLine
 10
2.087819311913934
 20
1.937500000000049
 30
0.0
 11
2.337819311913925
 21
1.937500000000049
 31
0.0
  0
LINE
  5
E
100
AcDbEntity
  8
USP-GEO
100
AcDbLine
 10
2.08781931191393
 20
0.0624999999999894
 30
0.0
 11
2.337819311913927
 21
0.0624999999999894
 31
0.0
  0
LINE
  5
F
100
AcDbEntity
  8
USP-GEO
100
AcDbLine
 10
1.999999999999939
 20
3.650350000000052
 30
0.0
 11
1.999999999999939
 21
2.035850000000056
 31
0.0
  0
LINE
  5
10
100
AcDbEntity
  8
USP-GEO
100
AcDbLine
 10
0.0
 20
3.650350000000056
 30
0.0
 11
0.0
 21
2.035850000000053
 31
0.0
  0
LINE
  5
11
100
AcDbEntity
  8
USP-GEO
100
AcDbLine
 10
0.0000000000000044
 20
2.035850000000049
 30
0.0
 11
0.6393560360578548
 21
2.035850000000049
 31
0.0
  0
LINE
  5
12
100
AcDbEntity
  8
USP-GEO
100
AcDbLine
 10
2.035819311913911
 20
1.604328332853867
 30
0.0
 11
2.035819311913911
 21
0.0
 31
0.0
  0
LINE
  5
13
100
AcDbEntity
  8
USP-GEO
100
AcDbLine
 10
2.087819311913923
 20
0.0000000000000036
 30
0.0
 11
2.087819311913923
 21
1.604328332853867
 31
0.0
  0
LINE
  5
14
100
AcDbEntity
  8
USP-GEO
100
AcDbLine
 10
2.087819311913923
 20
0.0000000000000036
 30
0.0
 11
2.035819311913911
 21
0.0000000000000036
 31
0.0
  0
LINE
  5
15
100
AcDbEntity
  8
USP-GEO
100
AcDbLine
 10
1.514356036057842
 20
2.087850000000052
 30
0.0
 11
1.201856036057842
 21
2.087850000000052
 31
0.0
  0
LINE
  5
16
100
AcDbEntity
  8
USP-GEO
100
AcDbLine
 10
1.201856036057852
 20
2.035850000000056
 30
0.0
 11
1.514356036057852
 21
2.035850000000056
 31
0.0
  0
ARC
  5
17
100
AcDbEntity
  8
USP-GEO
100
AcDbCircle
 10
1.358106036057837
 20
2.306600000000045
 30
0.0
 40
0.1562500000000001
100
AcDbArc
 50
359.9999999999973
 51
180.0000000000038
  0
LINE
  5
18
100
AcDbEntity
  8
USP-GEO
100
AcDbLine
 10
0.9518560360578298
 20
2.087850000000056
 30
0.0
 11
0.6393560360578299
 21
2.087850000000056
 31
0.0
  0
LINE
  5
19
100
AcDbEntity
  8
USP-GEO
100
AcDbLine
 10
0.6393560360578335
 20
2.035850000000053
 30
0.0
 11
0.9518560360578334
 21
2.035850000000053
 31
0.0
  0
ARC
  5
1A
100
AcDbEntity
  8
USP-GEO
100
AcDbCircle
 10
0.7956060360578494
 20
2.306600000000042
 30
0.0
 40
0.1562500000000001
100
AcDbArc
 50
0.0000000000026462
 51
180.0000000000024
  0
LINE
  5
1B
100
AcDbEntity
  8
USP-GEO
100
AcDbLine
 10
0.6393560360578592
 20
2.306600000000038
 30
0.0
 11
0.6393560360578592
 21
2.035850000000049
 31
0.0
  0
LINE
  5
1C
100
AcDbEntity
  8
USP-GEO
100
AcDbLine
 10
1.201856036057836
 20
2.306600000000038
 30
0.0
 11
1.201856036057836
 21
2.035850000000042
 31
0.0
  0
LINE
  5
1D
100
AcDbEntity
  8
USP-GEO
100
AcDbLine
 10
0.9518560360578431
 20
2.306600000000049
 30
0.0
 11
0.9518560360578431
 21
2.035850000000053
 31
0.0
  0
LINE
  5
1E
100
AcDbEntity
  8
USP-GEO
100
AcDbLine
 10
0.951856036057852
 20
2.035850000000042
 30
0.0
 11
1.201856036057824
 21
2.035850000000042
 31
0.0
  0
LINE
  5
1F
100
AcDbEntity
  8
USP-GEO
100
AcDbLine
 10
1.514356036057852
 20
2.035850000000056
 30
0.0
 11
1.999999999999943
 21
2.035850000000056
 31
0.0
  0
LINE
  5
20
100
AcDbEntity
  8
USP-GEO
100
AcDbLine
 10
1.51435603605785
 20
2.306600000000038
 30
0.0
 11
1.51435603605785
 21
2.03585000000006
 31
0.0
  0
LINE
  5
21
100
AcDbEntity
  8
USP-GEO
100
AcDbLine
 10
2.035819311913915
 20
2.08785000000007
 30
0.0
 11
1.999999999999953
 21
2.08785000000007
 31
0.0
  0
LINE
  5
22
100
AcDbEntity
  8
USP-GEO
100
AcDbLine
 10
1.999999999999941
 20
2.035850000000049
 30
0.0
 11
2.035819311913909
 21
2.035850000000049
 31
0.0
  0
LINE
  5
23
100
AcDbEntity
  8
USP-GEO
100
AcDbLine
 10
2.087819311913936
 20
2.035850000000092
 30
0.0
 11
2.087819311913936
 21
2.087850000000088
 31
0.0
  0
LINE
  5
24
100
AcDbEntity
  8
USP-GEO
100
AcDbLine
 10
2.087819311913914
 20
1.755607349224494
 30
0.0
 11
2.087819311913914
 21
1.604328332853874
 31
0.0
  0
LINE
  5
25
100
AcDbEntity
  8
USP-GEO
100
AcDbLine
 10
2.087819311913927
 20
1.994130772855235
 30
0.0
 11
2.087819311913927
 21
1.75560734922449
 31
0.0
  0
LINE
  5
26
100
AcDbEntity
  8
USP-GEO
100
AcDbLine
 10
2.08781931191392
 20
1.994130772855228
 30
0.0
 11
2.08781931191392
 21
2.035850000000078
 31
0.0
  0
LINE
  5
27
100
AcDbEntity
  8
USP-GEO
100
AcDbLine
 10
2.035819311913915
 20
1.755607349224494
 30
0.0
 11
2.035819311913915
 21
1.604328332853885
 31
0.0
  0
LINE
  5
28
100
AcDbEntity
  8
USP-GEO
100
AcDbLine
 10
2.03581931191392
 20
1.994130772855235
 30
0.0
 11
2.03581931191392
 21
1.755607349224487
 31
0.0
  0
LINE
  5
29
100
AcDbEntity
  8
USP-GEO
100
AcDbLine
 10
2.035819311913915
 20
2.035850000000092
 30
0.0
 11
2.035819311913915
 21
1.994130772855235
 31
0.0
  0
LINE
  5
2A
100
AcDbEntity
  8
USP-GEO
100
AcDbLine
 10
2.035819311913922
 20
2.087850000000091
 30
0.0
 11
2.035819311913922
 21
2.035850000000085
 31
0.0
  0
LINE
  5
2B
100
AcDbEntity
  8
USP-GEO
100
AcDbLine
 10
2.087819311913936
 20
2.035850000000092
 30
0.0
 11
2.035819311913922
 21
2.035850000000092
 31
0.0
  0
LINE
  5
2C
100
AcDbEntity
  8
USP-GEO
100
AcDbLine
 10
2.087819311913927
 20
2.087850000000088
 30
0.0
 11
2.03581931191392
 21
2.087850000000088
 31
0.0
  0
LINE
  5
2D
100
AcDbEntity
  8
USP-GEO
100
AcDbLine
 10
-0.0000000000000133
 20
3.650350000000052
 30
0.0
 11
1.99999999999995
 21
3.650350000000052
 31
0.0
  0
CIRCLE
  5
2E
100
AcDbEntity
  8
USP-GEO
100
AcDbCircle
 10
0.4862924710108248
 20
3.400350000000063
 30
0.0
 40
0.09
  0
CIRCLE
  5
2F
100
AcDbEntity
  8
USP-GEO
100
AcDbCircle
 10
1.682991468153566
 20
3.212850000000063
 30
0.0
 40
0.09
  0
LINE
  5
30
100
AcDbEntity
  8
USP-GEO
100
AcDbLine
 10
3.988138623827907
 20
2.035850000000056
 30
0.0
 11
3.988138623827893
 21
3.650350000000084
 31
0.0
  0
LINE
  5
31
100
AcDbEntity
  8
USP-GEO
100
AcDbLine
 10
5.988138623827856
 20
3.650350000000091
 30
0.0
 11
5.988138623827813
 21
2.035850000000056
 31
0.0
  0
LINE
  5
32
100
AcDbEntity
  8
USP-GEO
100
AcDbLine
 10
3.988138623827886
 20
2.035850000000056
 30
0.0
 11
4.473782587770013
 21
2.035850000000056
 31
0.0
  0
LINE
  5
33
100
AcDbEntity
  8
USP-GEO
100
AcDbLine
 10
3.952319311913937
 20
0.0000000000000142
 30
0.0
 11
3.952319311913939
 21
1.604328332853885
 31
0.0
  0
LINE
  5
34
100
AcDbEntity
  8
USP-GEO
100
AcDbLine
 10
3.900319311913925
 20
0.0000000000000107
 30
0.0
 11
3.900319311913925
 21
1.604328332853878
 31
0.0
  0
LINE
  5
35
100
AcDbEntity
  8
USP-GEO
100
AcDbLine
 10
2.337819311913921
 20
0.0
 30
0.0
 11
3.650319311913921
 21
0.0
 31
0.0
  0
LINE
  5
36
100
AcDbEntity
  8
USP-GEO
100
AcDbLine
 10
2.352647955676619
 20
0.2951087267624928
 30
0.0
 11
2.494069311913928
 21
0.4365300829998163
 31
0.0
  0
LINE
  5
37
100
AcDbEntity
  8
USP-GEO
100
AcDbLine
 10
2.494069311913939
 20
0.1536873705251871
 30
0.0
 11
2.352647955676621
 21
0.2951087267624963
 31
0.0
  0
LINE
  5
38
100
AcDbEntity
  8
USP-GEO
100
AcDbLine
 10
2.337819311913921
 20
0.0
 30
0.0
 11
2.337819311913921
 21
0.0624999999999965
 31
0.0
  0
LINE
  5
39
100
AcDbEntity
  8
USP-GEO
100
AcDbLine
 10
2.635490668151245
 20
0.2951087267624821
 30
0.0
 11
2.494069311913943
 21
0.1536873705251835
 31
0.0
  0
LINE
  5
3A
100
AcDbEntity
  8
USP-GEO
100
AcDbLine
 10
2.494069311913925
 20
0.4365300829998198
 30
0.0
 11
2.635490668151248
 21
0.2951087267624963
 31
0.0
  0
LINE
  5
3B
100
AcDbEntity
  8
USP-GEO
100
AcDbLine
 10
3.650319311913927
 20
0.0624999999999965
 30
0.0
 11
3.900319311913921
 21
0.0625000000000071
 31
0.0
  0
LINE
  5
3C
100
AcDbEntity
  8
USP-GEO
100
AcDbLine
 10
3.352647955676626
 20
0.2951087267624821
 30
0.0
 11
3.494069311913911
 21
0.4365300829997914
 31
0.0
  0
LINE
  5
3D
100
AcDbEntity
  8
USP-GEO
100
AcDbLine
 10
3.494069311913923
 20
0.1536873705251942
 30
0.0
 11
3.352647955676625
 21
0.2951087267624821
 31
0.0
  0
LINE
  5
3E
100
AcDbEntity
  8
USP-GEO
100
AcDbLine
 10
3.650319311913921
 20
-0.0000000000000036
 30
0.0
 11
3.650319311913921
 21
0.0624999999999965
 31
0.0
  0
LINE
  5
3F
100
AcDbEntity
  8
USP-GEO
100
AcDbLine
 10
3.635490668151241
 20
0.2951087267624963
 30
0.0
 11
3.494069311913918
 21
0.1536873705251871
 31
0.0
  0
LINE
  5
40
100
AcDbEntity
  8
USP-GEO
100
AcDbLine
 10
3.494069311913902
 20
0.4365300829997878
 30
0.0
 11
3.635490668151234
 21
0.2951087267624821
 31
0.0
  0
LINE
  5
41
100
AcDbEntity
  8
USP-GEO
100
AcDbLine
 10
3.900319311913925
 20
0.0000000000000107
 30
0.0
 11
3.952319311913937
 21
0.0000000000000107
 31
0.0
  0
LINE
  5
42
100
AcDbEntity
  8
USP-GEO
100
AcDbLine
 10
2.337819311913932
 20
2.000000000000067
 30
0.0
 11
3.65031931191393
 21
2.000000000000067
 31
0.0
  0
LINE
  5
43
100
AcDbEntity
  8
USP-GEO
100
AcDbLine
 10
2.337819311913925
 20
1.937500000000049
 30
0.0
 11
2.337819311913925
 21
2.000000000000067
 31
0.0
  0
LINE
  5
44
100
AcDbEntity
  8
USP-GEO
100
AcDbLine
 10
3.650319311913923
 20
1.937500000000046
 30
0.0
 11
3.900319311913921
 21
1.937500000000046
 31
0.0
  0
LINE
  5
45
100
AcDbEntity
  8
USP-GEO
100
AcDbLine
 10
3.650319311913923
 20
1.937500000000046
 30
0.0
 11
3.650319311913923
 21
2.000000000000063
 31
0.0
  0
LINE
  5
46
100
AcDbEntity
  8
USP-GEO
100
AcDbLine
 10
3.988138623827895
 20
2.08785000000007
 30
0.0
 11
3.952319311913944
 21
2.08785000000007
 31
0.0
  0
LINE
  5
47
100
AcDbEntity
  8
USP-GEO
100
AcDbLine
 10
3.952319311913935
 20
2.035850000000056
 30
0.0
 11
3.988138623827888
 21
2.035850000000056
 31
0.0
  0
LINE
  5
48
100
AcDbEntity
  8
USP-GEO
100
AcDbLine
 10
3.952319311913933
 20
1.604328332853892
 30
0.0
 11
3.952319311913933
 21
1.755607349224515
 31
0.0
  0
LINE
  5
49
100
AcDbEntity
  8
USP-GEO
100
AcDbLine
 10
3.952319311913937
 20
1.755607349224515
 30
0.0
 11
3.952319311913937
 21
1.994130772855264
 31
0.0
  0
LINE
  5
4A
100
AcDbEntity
  8
USP-GEO
100
AcDbLine
 10
3.952319311913917
 20
1.994130772855264
 30
0.0
 11
3.952319311913917
 21
2.035850000000102
 31
0.0
  0
LINE
  5
4B
100
AcDbEntity
  8
USP-GEO
100
AcDbLine
 10
3.952319311913933
 20
2.035850000000102
 30
0.0
 11
3.952319311913933
 21
2.087850000000102
 31
0.0
  0
LINE
  5
4C
100
AcDbEntity
  8
USP-GEO
100
AcDbLine
 10
3.900319311913913
 20
2.035850000000092
 30
0.0
 11
3.900319311913913
 21
2.087850000000106
 31
0.0
  0
LINE
  5
4D
100
AcDbEntity
  8
USP-GEO
100
AcDbLine
 10
3.900319311913911
 20
2.035850000000099
 30
0.0
 11
3.900319311913911
 21
1.994130772855253
 31
0.0
  0
LINE
  5
4E
100
AcDbEntity
  8
USP-GEO
100
AcDbLine
 10
3.900319311913925
 20
1.994130772855257
 30
0.0
 11
3.900319311913925
 21
1.755607349224501
 31
0.0
  0
LINE
  5
4F
100
AcDbEntity
  8
USP-GEO
100
AcDbLine
 10
3.900319311913921
 20
1.604328332853889
 30
0.0
 11
3.900319311913921
 21
1.755607349224501
 31
0.0
  0
LINE
  5
50
100
AcDbEntity
  8
USP-GEO
100
AcDbLine
 10
3.900319311913918
 20
2.087850000000106
 30
0.0
 11
3.952319311913923
 21
2.087850000000106
 31
0.0
  0
LINE
  5
51
100
AcDbEntity
  8
USP-GEO
100
AcDbLine
 10
3.900319311913913
 20
2.035850000000092
 30
0.0
 11
3.952319311913933
 21
2.035850000000092
 31
0.0
  0
LINE
  5
52
100
AcDbEntity
  8
USP-GEO
100
AcDbLine
 10
5.348782587769996
 20
2.08785000000007
 30
0.0
 11
5.036282587769996
 21
2.08785000000007
 31
0.0
  0
LINE
  5
53
100
AcDbEntity
  8
USP-GEO
100
AcDbLine
 10
5.036282587769997
 20
2.035850000000063
 30
0.0
 11
5.348782587769997
 21
2.035850000000063
 31
0.0
  0
ARC
  5
54
100
AcDbEntity
  8
USP-GEO
100
AcDbCircle
 10
5.192532587769987
 20
2.306600000000067
 30
0.0
 40
0.1562500000000001
100
AcDbArc
 50
0.0000000000038676
 51
180.0000000000012
  0
LINE
  5
55
100
AcDbEntity
  8
USP-GEO
100
AcDbLine
 10
4.786282587769978
 20
2.087850000000067
 30
0.0
 11
4.473782587769978
 21
2.087850000000067
 31
0.0
  0
LINE
  5
56
100
AcDbEntity
  8
USP-GEO
100
AcDbLine
 10
4.473782587769978
 20
2.035850000000056
 30
0.0
 11
4.786282587769978
 21
2.035850000000056
 31
0.0
  0
ARC
  5
57
100
AcDbEntity
  8
USP-GEO
100
AcDbCircle
 10
4.630032587770012
 20
2.306600000000077
 30
0.0
 40
0.1562500000000001
100
AcDbArc
 50
359.9999999999977
 51
180.0000000000012
  0
LINE
  5
58
100
AcDbEntity
  8
USP-GEO
100
AcDbLine
 10
4.473782587770003
 20
2.306600000000074
 30
0.0
 11
4.473782587770003
 21
2.03585000000006
 31
0.0
  0
LINE
  5
59
100
AcDbEntity
  8
USP-GEO
100
AcDbLine
 10
4.786282587770019
 20
2.03585000000006
 30
0.0
 11
4.786282587770005
 21
2.306600000000074
 31
0.0
  0
LINE
  5
5A
100
AcDbEntity
  8
USP-GEO
100
AcDbLine
 10
5.036282587770006
 20
2.306600000000063
 30
0.0
 11
5.036282587770021
 21
2.035850000000063
 31
0.0
  0
LINE
  5
5B
100
AcDbEntity
  8
USP-GEO
100
AcDbLine
 10
4.786282587769987
 20
2.03585000000006
 30
0.0
 11
5.036282587770003
 21
2.03585000000006
 31
0.0
  0
LINE
  5
5C
100
AcDbEntity
  8
USP-GEO
100
AcDbLine
 10
5.348782587769999
 20
2.035850000000056
 30
0.0
 11
5.988138623827813
 21
2.035850000000056
 31
0.0
  0
LINE
  5
5D
100
AcDbEntity
  8
USP-GEO
100
AcDbLine
 10
5.348782587770024
 20
2.035850000000056
 30
0.0
 11
5.348782587770024
 21
2.306600000000077
 31
0.0
  0
LINE
  5
5E
100
AcDbEntity
  8
USP-GEO
100
AcDbLine
 10
3.988138623827882
 20
3.650350000000084
 30
0.0
 11
5.988138623827857
 21
3.650350000000084
 31
0.0
  0
CIRCLE
  5
5F
100
AcDbEntity
  8
USP-GEO
100
AcDbCircle
 10
4.305147155674266
 20
3.212850000000088
 30
0.0
 40
0.09
  0
CIRCLE
  5
60
100
AcDbEntity
  8
USP-GEO
100
AcDbCircle
 10
5.501846152817009
 20
3.400350000000091
 30
0.0
 40
0.09
  0
ENDBLK
  5
63
100
AcDbEntity
  8
0
100
AcDbBlockEnd
  0
BLOCK
  5
C7
100
AcDbEntity
  8
0
100
AcDbBlockBegin
  2
THO17118_F
 70
     0
 10
0.0
 20
0.0
 30
0.0
  3
THO17118_F
  1

  0
TEXT
  5
66
100
AcDbEntity
  8
USP-TXT
100
AcDbText
 10
-2.005930688086075
 20
-1.398447738215704
 30
0.0000000000000001
 40
0.5
  1
THO17118 - FRONT VIEW
 72
     1
 11
2.994069311913922
 21
-1.398447738215704
 31
0.0000000000000001
100
AcDbText
  0
LINE
  5
67
100
AcDbEntity
  8
USP-GEO
100
AcDbLine
 10
3.952319311913938
 20
2.427000000000006
 30
0.0000000000000002
 11
3.95231931191394
 21
11.52559810681179
 31
0.0000000000000002
210
0.0
220
1.0
230
0.0
  0
LINE
  5
68
100
AcDbEntity
  8
USP-GEO
100
AcDbLine
 10
3.900319311913926
 20
2.426999999999999
 30
0.0000000000000002
 11
3.900319311913926
 21
11.52559810681178
 31
0.0000000000000002
210
0.0
220
1.0
230
0.0
  0
LINE
  5
69
100
AcDbEntity
  8
USP-GEO
100
AcDbLine
 10
5.520797644767815
 20
11.52559810681178
 30
0.0000000000000004
 11
4.29201184589256
 21
4.556807545446037
 31
0.0000000000000003
210
0.0
220
1.0
230
0.0
  0
LINE
  5
6A
100
AcDbEntity
  8
USP-GEO
100
AcDbLine
 10
2.035819311913912
 20
11.52559810681178
 30
0.0
 11
2.035819311913912
 21
2.427000000000056
 31
0.0
210
0.0
220
1.0
230
0.0
  0
LINE
  5
6B
100
AcDbEntity
  8
USP-GEO
100
AcDbLine
 10
2.087819311913924
 20
2.427000000000059
 30
0.0
 11
2.087819311913924
 21
11.52559810681177
 31
0.0
210
0.0
220
1.0
230
0.0
  0
LINE
  5
6C
100
AcDbEntity
  8
USP-GEO
100
AcDbLine
 10
1.696126777935279
 20
4.556807545446083
 30
0.0
 11
0.4673409790600287
 21
11.52559810681181
 31
-0.0000000000000002
210
0.0
220
1.0
230
0.0
  0
LINE
  5
6D
100
AcDbEntity
  8
USP-GEO
100
AcDbLine
 10
2.087819311913931
 20
0.0519999999999978
 30
0.0
 11
2.337819311913928
 21
0.0519999999999978
 31
0.0
210
0.0
220
1.0
230
0.0
  0
LINE
  5
6E
100
AcDbEntity
  8
USP-GEO
100
AcDbLine
 10
2.337819311913935
 20
-0.0000000000000071
 30
0.0
 11
2.035819311913919
 21
-0.0000000000000071
 31
0.0
210
0.0
220
1.0
230
0.0
  0
LINE
  5
6F
100
AcDbEntity
  8
USP-GEO
100
AcDbLine
 10
2.035819311913912
 20
0.302000000000012
 30
0.0
 11
2.035819311913912
 21
0.0
 31
0.0
210
0.0
220
1.0
230
0.0
  0
LINE
  5
70
100
AcDbEntity
  8
USP-GEO
100
AcDbLine
 10
2.035819311913912
 20
2.427000000000056
 30
0.0
 11
2.035819311913912
 21
0.3020000000000067
 31
0.0
210
0.0
220
1.0
230
0.0
  0
LINE
  5
71
100
AcDbEntity
  8
USP-GEO
100
AcDbLine
 10
2.087819311913924
 20
2.427000000000059
 30
0.0
 11
2.087819311913924
 21
0.3020000000000103
 31
0.0
210
0.0
220
1.0
230
0.0
  0
LINE
  5
72
100
AcDbEntity
  8
USP-GEO
100
AcDbLine
 10
2.087819311913933
 20
0.3020000000000085
 30
0.0
 11
2.087819311913933
 21
0.0519999999999943
 31
0.0
210
0.0
220
1.0
230
0.0
  0
LINE
  5
73
100
AcDbEntity
  8
USP-GEO
100
AcDbLine
 10
2.087819311913922
 20
0.3020000000000103
 30
0.0
 11
2.03581931191391
 21
0.3020000000000103
 31
0.0
210
0.0
220
1.0
230
0.0
  0
LINE
  5
74
100
AcDbEntity
  8
USP-GEO
100
AcDbLine
 10
2.087819311913924
 20
2.427000000000059
 30
0.0
 11
2.035819311913912
 21
2.427000000000059
 31
0.0
210
0.0
220
1.0
230
0.0
  0
ARC
  5
75
100
AcDbEntity
  8
USP-GEO
100
AcDbCircle
 10
2.18853065444138
 20
4.64363163427955
 30
0.0
 40
0.5000000000000002
100
AcDbArc
 50
190.0000000000002
 51
231.9127064021334
  0
ARC
  5
76
100
AcDbEntity
  8
USP-GEO
100
AcDbCircle
 10
1.571669311913894
 20
3.856559792517192
 30
-0.0000000000000001
 40
0.499999999999992
100
AcDbArc
 50
21.82865203634464
 51
51.91270640213542
  0
LINE
  5
77
100
AcDbEntity
  8
USP-GEO
100
AcDbLine
 10
3.952319311913927
 20
0.0000000000000107
 30
0.0000000000000002
 11
3.952319311913927
 21
0.3020000000000014
 31
0.0000000000000002
210
0.0
220
1.0
230
0.0
  0
LINE
  5
78
100
AcDbEntity
  8
USP-GEO
100
AcDbLine
 10
3.650319311913922
 20
0.0520000000000138
 30
0.0000000000000002
 11
3.650319311913922
 21
0.0000000000000036
 31
0.0000000000000002
210
0.0
220
1.0
230
0.0
  0
LINE
  5
79
100
AcDbEntity
  8
USP-GEO
100
AcDbLine
 10
2.337819311913922
 20
0.052000000000012
 30
0.0
 11
2.337819311913922
 21
0.0000000000000036
 31
0.0
210
0.0
220
1.0
230
0.0
  0
LINE
  5
7A
100
AcDbEntity
  8
USP-GEO
100
AcDbLine
 10
2.337819311913924
 20
0.0000000000000036
 30
0.0
 11
3.650319311913922
 21
0.0000000000000036
 31
0.0000000000000002
210
0.0
220
1.0
230
0.0
  0
LINE
  5
7B
100
AcDbEntity
  8
USP-GEO
100
AcDbLine
 10
3.650319311913933
 20
0.0000000000000018
 30
0.0000000000000002
 11
3.952319311913927
 21
0.0000000000000018
 31
0.0000000000000002
210
0.0
220
1.0
230
0.0
  0
ARC
  5
7C
100
AcDbEntity
  8
USP-GEO
100
AcDbCircle
 10
3.799607969386442
 20
4.643631634279515
 30
0.0000000000000002
 40
0.5000000000000002
100
AcDbArc
 50
308.087293597867
 51
349.9999999999989
  0
LINE
  5
7D
100
AcDbEntity
  8
USP-GEO
100
AcDbLine
 10
3.952319311913936
 20
0.3020000000000067
 30
0.0000000000000002
 11
3.952319311913936
 21
2.427000000000006
 31
0.0000000000000002
210
0.0
220
1.0
230
0.0
  0
LINE
  5
7E
100
AcDbEntity
  8
USP-GEO
100
AcDbLine
 10
3.900319311913924
 20
0.3020000000000031
 30
0.0000000000000002
 11
3.900319311913924
 21
2.426999999999999
 31
0.0000000000000002
210
0.0
220
1.0
230
0.0
  0
LINE
  5
7F
100
AcDbEntity
  8
USP-GEO
100
AcDbLine
 10
2.337819311913922
 20
0.052000000000012
 30
0.0
 11
3.650319311913922
 21
0.052000000000012
 31
0.0000000000000002
210
0.0
220
1.0
230
0.0
  0
LINE
  5
80
100
AcDbEntity
  8
USP-GEO
100
AcDbLine
 10
3.650319311913928
 20
0.0519999999999996
 30
0.0000000000000002
 11
3.900319311913922
 21
0.0519999999999996
 31
0.0000000000000002
210
0.0
220
1.0
230
0.0
  0
LINE
  5
81
100
AcDbEntity
  8
USP-GEO
100
AcDbLine
 10
3.900319311913922
 20
0.0520000000000067
 30
0.0000000000000002
 11
3.900319311913922
 21
0.3020000000000085
 31
0.0000000000000002
210
0.0
220
1.0
230
0.0
  0
LINE
  5
82
100
AcDbEntity
  8
USP-GEO
100
AcDbLine
 10
3.900319311913924
 20
0.3020000000000031
 30
0.0000000000000002
 11
3.952319311913936
 21
0.3020000000000031
 31
0.0000000000000002
210
0.0
220
1.0
230
0.0
  0
LINE
  5
83
100
AcDbEntity
  8
USP-GEO
100
AcDbLine
 10
3.900319311913926
 20
2.426999999999999
 30
0.0000000000000002
 11
3.952319311913938
 21
2.426999999999999
 31
0.0000000000000002
210
0.0
220
1.0
230
0.0
  0
ARC
  5
84
100
AcDbEntity
  8
USP-GEO
100
AcDbCircle
 10
4.416469311913945
 20
3.856559792517156
 30
0.0000000000000003
 40
0.5000000000000026
100
AcDbArc
 50
128.0872935978656
 51
158.1713479636493
  0
LINE
  5
85
100
AcDbEntity
  8
USP-GEO
100
AcDbLine
 10
1.721669311913943
 20
6.740186508139007
 30
0.0
 11
1.5661058200529
 21
6.895750000000038
 31
-0.0000000000000001
210
0.0
220
1.0
230
0.0
  0
LINE
  5
86
100
AcDbEntity
  8
USP-GEO
100
AcDbLine
 10
1.877232803775016
 20
6.895750000000045
 30
0.0
 11
1.721669311913969
 21
6.740186508139014
 31
0.0
210
0.0
220
1.0
230
0.0
  0
LINE
  5
87
100
AcDbEntity
  8
USP-GEO
100
AcDbLine
 10
1.721669311913944
 20
7.05131349186109
 30
0.0
 11
1.877232803774997
 21
6.895750000000042
 31
0.0
210
0.0
220
1.0
230
0.0
  0
LINE
  5
88
100
AcDbEntity
  8
USP-GEO
100
AcDbLine
 10
1.566105820052904
 20
6.895750000000045
 30
-0.0000000000000001
 11
1.721669311913958
 21
7.051313491861098
 31
0.0
210
0.0
220
1.0
230
0.0
  0
LINE
  5
89
100
AcDbEntity
  8
USP-GEO
100
AcDbLine
 10
0.3160619626894885
 20
11.71346433396703
 30
-0.0000000000000002
 11
0.0775385390587511
 21
11.81136086421409
 31
-0.0000000000000002
210
0.0
220
1.0
230
0.0
  0
LINE
  5
8A
100
AcDbEntity
  8
USP-GEO
100
AcDbLine
 10
0.0000000000000053
 20
11.97900000000004
 30
-0.0000000000000002
 11
0.6393560360578557
 21
11.97900000000004
 31
-0.0000000000000002
210
0.0
220
1.0
230
0.0
  0
LINE
  5
8B
100
AcDbEntity
  8
USP-HID
100
AcDbLine
 10
-0.0000000000000293
 20
11.92700000000005
 30
-0.0000000000000031
 11
1.999999999999936
 21
11.92700000000004
 31
-0.0000000000000031
  0
ARC
  5
8E
100
AcDbEntity
  8
USP-GEO
100
AcDbCircle
 10
0.1249999999999778
 20
11.92700000000007
 30
-0.0000000000000002
 40
0.125
100
AcDbArc
 50
180.0
 51
247.685413615079
  0
LINE
  5
8F
100
AcDbEntity
  8
USP-GEO
100
AcDbLine
 10
-0.0000000000000284
 20
11.92700000000007
 30
-0.0000000000000002
 11
0.0
 21
11.97900000000004
 31
-0.0000000000000002
210
0.0
220
1.0
230
0.0
  0
ARC
  5
90
100
AcDbEntity
  8
USP-GEO
100
AcDbCircle
 10
1.358106036057852
 20
11.45825000000004
 30
-0.0000000000000001
 40
0.15625
100
AcDbArc
 50
180.0000000000012
 51
0.0
  0
ARC
  5
91
100
AcDbEntity
  8
USP-GEO
100
AcDbCircle
 10
0.7956060360578343
 20
11.45825000000003
 30
-0.0000000000000002
 40
0.15625
100
AcDbArc
 50
179.9999999999952
 51
0.0000000000038676
  0
CIRCLE
  5
92
100
AcDbEntity
  8
USP-GEO
100
AcDbCircle
 10
1.093274784858267
 20
11.30200000000004
 30
-0.0000000000000001
 40
0.0900000000000001
  0
LINE
  5
93
100
AcDbEntity
  8
USP-GEO
100
AcDbLine
 10
1.514356036057838
 20
11.97900000000006
 30
-0.0000000000000001
 11
1.201856036057838
 21
11.97900000000006
 31
-0.0000000000000001
210
0.0
220
1.0
230
0.0
  0
LINE
  5
94
100
AcDbEntity
  8
USP-GEO
100
AcDbLine
 10
1.201856036057834
 20
11.92700000000003
 30
-0.0000000000000001
 11
1.514356036057834
 21
11.92700000000003
 31
-0.0000000000000001
210
0.0
220
1.0
230
0.0
  0
LINE
  5
95
100
AcDbEntity
  8
USP-GEO
100
AcDbLine
 10
0.9518560360578502
 20
11.97900000000005
 30
-0.0000000000000001
 11
0.6393560360578503
 21
11.97900000000005
 31
-0.0000000000000002
210
0.0
220
1.0
230
0.0
  0
LINE
  5
96
100
AcDbEntity
  8
USP-GEO
100
AcDbLine
 10
0.6393560360578521
 20
11.92700000000004
 30
-0.0000000000000002
 11
0.951856036057852
 21
11.92700000000004
 31
-0.0000000000000001
210
0.0
220
1.0
230
0.0
  0
ARC
  5
97
100
AcDbEntity
  8
USP-GEO
100
AcDbCircle
 10
0.2211390408070413
 20
11.48218606239508
 30
-0.0000000000000002
 40
0.2500000000000001
100
AcDbArc
 50
10.00000000000267
 51
67.68541361508039
  0
LINE
  5
98
100
AcDbEntity
  8
USP-GEO
100
AcDbLine
 10
0.6393560360578645
 20
11.97900000000004
 30
-0.0000000000000002
 11
0.6393560360578361
 21
11.45825000000004
 31
-0.0000000000000002
210
0.0
220
1.0
230
0.0
  0
LINE
  5
99
100
AcDbEntity
  8
USP-GEO
100
AcDbLine
 10
0.9518560360578529
 20
11.97900000000004
 30
-0.0000000000000001
 11
1.201856036057825
 21
11.97900000000004
 31
-0.0000000000000001
210
0.0
220
1.0
230
0.0
  0
LINE
  5
9A
100
AcDbEntity
  8
USP-GEO
100
AcDbLine
 10
0.9518560360578387
 20
11.45825000000004
 30
-0.0000000000000001
 11
0.9518560360578529
 21
11.97900000000004
 31
-0.0000000000000001
210
0.0
220
1.0
230
0.0
  0
LINE
  5
9B
100
AcDbEntity
  8
USP-GEO
100
AcDbLine
 10
1.201856036057825
 20
11.97900000000004
 30
-0.0000000000000001
 11
1.201856036057839
 21
11.45825000000004
 31
-0.0000000000000001
210
0.0
220
1.0
230
0.0
  0
LINE
  5
9C
100
AcDbEntity
  8
USP-GEO
100
AcDbLine
 10
1.514356036057852
 20
11.97900000000005
 30
-0.0000000000000001
 11
1.999999999999944
 21
11.97900000000004
 31
0.0
210
0.0
220
1.0
230
0.0
  0
LINE
  5
9D
100
AcDbEntity
  8
USP-GEO
100
AcDbLine
 10
1.514356036057852
 20
11.45825000000004
 30
-0.0000000000000001
 11
1.514356036057852
 21
11.97900000000006
 31
-0.0000000000000001
210
0.0
220
1.0
230
0.0
  0
ARC
  5
9E
100
AcDbEntity
  8
USP-GEO
100
AcDbCircle
 10
2.12499999999994
 20
11.92700000000006
 30
0.0
 40
0.1249999999999974
100
AcDbArc
 50
180.0000000000114
 51
224.484052940265
  0
LINE
  5
9F
100
AcDbEntity
  8
USP-GEO
100
AcDbLine
 10
1.999999999999936
 20
11.97900000000004
 30
0.0
 11
1.999999999999936
 21
11.92700000000004
 31
0.0
210
0.0
220
1.0
230
0.0
  0
LINE
  5
A0
100
AcDbEntity
  8
USP-GEO
100
AcDbLine
 10
2.087819311913915
 20
11.71346433396697
 30
0.0
 11
2.087819311913915
 21
11.52559810681177
 31
0.0
210
0.0
220
1.0
230
0.0
  0
LINE
  5
A1
100
AcDbEntity
  8
USP-GEO
100
AcDbLine
 10
2.087819311913928
 20
11.81136086421405
 30
0.0
 11
2.087819311913928
 21
11.71346433396698
 31
0.0
210
0.0
220
1.0
230
0.0
  0
LINE
  5
A2
100
AcDbEntity
  8
USP-GEO
100
AcDbLine
 10
2.087819311913921
 20
11.81136086421407
 30
0.0
 11
2.087819311913921
 21
11.83941116011449
 31
0.0
210
0.0
220
1.0
230
0.0
  0
LINE
  5
A3
100
AcDbEntity
  8
USP-GEO
100
AcDbLine
 10
2.035819311913916
 20
11.71346433396697
 30
0.0
 11
2.035819311913916
 21
11.52559810681178
 31
0.0
210
0.0
220
1.0
230
0.0
  0
LINE
  5
A4
100
AcDbEntity
  8
USP-GEO
100
AcDbLine
 10
2.035819311913921
 20
11.81136086421405
 30
0.0
 11
2.035819311913921
 21
11.71346433396698
 31
0.0
210
0.0
220
1.0
230
0.0
  0
LINE
  5
A5
100
AcDbEntity
  8
USP-GEO
100
AcDbLine
 10
2.035819311913916
 20
11.83941116011449
 30
0.0
 11
2.035819311913916
 21
11.81136086421405
 31
0.0
210
0.0
220
1.0
230
0.0
  0
LINE
  5
A6
100
AcDbEntity
  8
USP-GEO
100
AcDbLine
 10
2.087819311913936
 20
11.83941116011448
 30
0.0
 11
2.035819311913923
 21
11.83941116011448
 31
0.0
210
0.0
220
1.0
230
0.0
  0
LINE
  5
A7
100
AcDbEntity
  8
USP-GEO
100
AcDbLine
 10
4.110905820052829
 20
6.89575000000002
 30
0.0000000000000003
 11
4.266469311913877
 21
7.051313491861069
 31
0.0000000000000003
210
0.0
220
1.0
230
0.0
  0
LINE
  5
A8
100
AcDbEntity
  8
USP-GEO
100
AcDbLine
 10
4.266469311913874
 20
6.740186508138986
 30
0.0000000000000003
 11
4.110905820052827
 21
6.89575000000002
 31
0.0000000000000003
210
0.0
220
1.0
230
0.0
  0
LINE
  5
A9
100
AcDbEntity
  8
USP-GEO
100
AcDbLine
 10
4.422032803774919
 20
6.895750000000028
 30
0.0000000000000003
 11
4.266469311913874
 21
6.740186508138997
 31
0.0000000000000003
210
0.0
220
1.0
230
0.0
  0
LINE
  5
AA
100
AcDbEntity
  8
USP-GEO
100
AcDbLine
 10
4.266469311913883
 20
7.051313491861076
 30
0.0000000000000003
 11
4.422032803774922
 21
6.895750000000035
 31
0.0000000000000003
210
0.0
220
1.0
230
0.0
  0
LINE
  5
AB
100
AcDbEntity
  8
USP-GEO
100
AcDbLine
 10
3.988138623827887
 20
11.97900000000003
 30
0.0000000000000002
 11
4.473782587770014
 21
11.97900000000003
 31
0.0000000000000003
210
0.0
220
1.0
230
0.0
  0
LINE
  5
AC
100
AcDbEntity
  8
USP-HID
100
AcDbLine
 10
3.988138623827889
 20
11.92700000000004
 30
-0.0000000000000031
 11
5.988138623827858
 21
11.92700000000005
 31
-0.0000000000000031
  0
ARC
  5
AD
100
AcDbEntity
  8
USP-GEO
100
AcDbCircle
 10
3.863138623827887
 20
11.92700000000004
 30
0.0000000000000002
 40
0.1250000000000023
100
AcDbArc
 50
315.5159470597464
 51
359.9999999999861
  0
LINE
  5
AE
100
AcDbEntity
  8
USP-GEO
100
AcDbLine
 10
3.952319311913934
 20
11.52559810681179
 30
0.0000000000000002
 11
3.952319311913934
 21
11.71346433396698
 31
0.0000000000000002
210
0.0
220
1.0
230
0.0
  0
LINE
  5
AF
100
AcDbEntity
  8
USP-GEO
100
AcDbLine
 10
3.952319311913938
 20
11.71346433396698
 30
0.0000000000000002
 11
3.952319311913938
 21
11.81136086421405
 31
0.0000000000000002
210
0.0
220
1.0
230
0.0
  0
LINE
  5
B0
100
AcDbEntity
  8
USP-GEO
100
AcDbLine
 10
3.952319311913918
 20
11.81136086421406
 30
0.0000000000000002
 11
3.952319311913918
 21
11.83941116011448
 31
0.0000000000000002
210
0.0
220
1.0
230
0.0
  0
LINE
  5
B1
100
AcDbEntity
  8
USP-GEO
100
AcDbLine
 10
3.900319311913912
 20
11.83941116011448
 30
0.0000000000000002
 11
3.900319311913912
 21
11.81136086421406
 31
0.0000000000000002
210
0.0
220
1.0
230
0.0
  0
LINE
  5
B2
100
AcDbEntity
  8
USP-GEO
100
AcDbLine
 10
3.900319311913926
 20
11.81136086421405
 30
0.0000000000000002
 11
3.900319311913926
 21
11.71346433396698
 31
0.0000000000000002
210
0.0
220
1.0
230
0.0
  0
LINE
  5
B3
100
AcDbEntity
  8
USP-GEO
100
AcDbLine
 10
3.900319311913922
 20
11.52559810681178
 30
0.0000000000000002
 11
3.900319311913922
 21
11.71346433396698
 31
0.0000000000000002
210
0.0
220
1.0
230
0.0
  0
LINE
  5
B4
100
AcDbEntity
  8
USP-GEO
100
AcDbLine
 10
3.900319311913913
 20
11.83941116011449
 30
0.0000000000000002
 11
3.952319311913934
 21
11.83941116011449
 31
0.0000000000000002
210
0.0
220
1.0
230
0.0
  0
LINE
  5
B5
100
AcDbEntity
  8
USP-GEO
100
AcDbLine
 10
3.988138623827889
 20
11.92700000000002
 30
0.0000000000000002
 11
3.988138623827889
 21
11.97900000000003
 31
0.0000000000000002
210
0.0
220
1.0
230
0.0
  0
ARC
  5
B6
100
AcDbEntity
  8
USP-GEO
100
AcDbCircle
 10
4.630032587769979
 20
11.45825000000002
 30
0.0000000000000003
 40
0.15625
100
AcDbArc
 50
180.0
 51
359.9999999999996
  0
ARC
  5
B7
100
AcDbEntity
  8
USP-GEO
100
AcDbCircle
 10
5.192532587769998
 20
11.45825000000003
 30
0.0000000000000004
 40
0.15625
100
AcDbArc
 50
180.0000000000052
 51
359.9999999999965
  0
CIRCLE
  5
B8
100
AcDbEntity
  8
USP-GEO
100
AcDbCircle
 10
4.894863838969564
 20
11.30200000000002
 30
0.0000000000000004
 40
0.0900000000000001
  0
LINE
  5
B9
100
AcDbEntity
  8
USP-GEO
100
AcDbLine
 10
5.348782587769988
 20
11.97900000000004
 30
0.0000000000000004
 11
5.036282587769988
 21
11.97900000000004
 31
0.0000000000000004
210
0.0
220
1.0
230
0.0
  0
LINE
  5
BA
100
AcDbEntity
  8
USP-GEO
100
AcDbLine
 10
5.036282587769988
 20
11.92700000000002
 30
0.0000000000000004
 11
5.348782587769988
 21
11.92700000000002
 31
0.0000000000000004
210
0.0
220
1.0
230
0.0
  0
LINE
  5
BB
100
AcDbEntity
  8
USP-GEO
100
AcDbLine
 10
4.786282587770013
 20
11.97900000000003
 30
0.0000000000000003
 11
4.473782587770013
 21
11.97900000000003
 31
0.0000000000000003
210
0.0
220
1.0
230
0.0
  0
LINE
  5
BC
100
AcDbEntity
  8
USP-GEO
100
AcDbLine
 10
4.47378258777
 20
11.92700000000002
 30
0.0000000000000003
 11
4.78628258777
 21
11.92700000000002
 31
0.0000000000000003
210
0.0
220
1.0
230
0.0
  0
LINE
  5
BD
100
AcDbEntity
  8
USP-GEO
100
AcDbLine
 10
4.473782587770009
 20
11.97900000000002
 30
0.0000000000000003
 11
4.473782587769981
 21
11.45825000000002
 31
0.0000000000000003
210
0.0
220
1.0
230
0.0
  0
LINE
  5
BE
100
AcDbEntity
  8
USP-GEO
100
AcDbLine
 10
4.786282587769988
 20
11.97900000000002
 30
0.0000000000000003
 11
5.036282587770004
 21
11.97900000000002
 31
0.0000000000000004
210
0.0
220
1.0
230
0.0
  0
LINE
  5
BF
100
AcDbEntity
  8
USP-GEO
100
AcDbLine
 10
4.786282587769984
 20
11.45825000000002
 30
0.0000000000000003
 11
4.786282587769984
 21
11.97900000000002
 31
0.0000000000000003
210
0.0
220
1.0
230
0.0
  0
LINE
  5
C0
100
AcDbEntity
  8
USP-GEO
100
AcDbLine
 10
5.036282587769993
 20
11.97900000000003
 30
0.0000000000000004
 11
5.036282587769993
 21
11.45825000000002
 31
0.0000000000000004
210
0.0
220
1.0
230
0.0
  0
ARC
  5
C1
100
AcDbEntity
  8
USP-GEO
100
AcDbCircle
 10
5.766999583020788
 20
11.48218606239505
 30
0.0000000000000005
 40
0.2500000000000001
100
AcDbArc
 50
112.3145863849191
 51
169.9999999999989
  0
LINE
  5
C2
100
AcDbEntity
  8
USP-GEO
100
AcDbLine
 10
5.34878258777
 20
11.97900000000002
 30
0.0000000000000004
 11
5.988138623827814
 21
11.97900000000002
 31
0.0000000000000005
210
0.0
220
1.0
230
0.0
  0
LINE
  5
C3
100
AcDbEntity
  8
USP-GEO
100
AcDbLine
 10
5.34878258777
 20
11.45825000000002
 30
0.0000000000000004
 11
5.34878258777
 21
11.97900000000002
 31
0.0000000000000004
210
0.0
220
1.0
230
0.0
  0
LINE
  5
C4
100
AcDbEntity
  8
USP-GEO
100
AcDbLine
 10
5.910600084769089
 20
11.81136086421407
 30
0.0000000000000005
 11
5.672076661138343
 21
11.713464333967
 31
0.0000000000000004
210
0.0
220
1.0
230
0.0
  0
LINE
  5
C5
100
AcDbEntity
  8
USP-GEO
100
AcDbLine
 10
5.988138623827807
 20
11.97900000000004
 30
0.0000000000000005
 11
5.98813862382785
 21
11.92700000000003
 31
0.0000000000000005
210
0.0
220
1.0
230
0.0
  0
ARC
  5
C6
100
AcDbEntity
  8
USP-GEO
100
AcDbCircle
 10
5.863138623827858
 20
11.92700000000003
 30
0.0000000000000005
 40
0.125
100
AcDbArc
 50
292.3145863849244
 51
0.0
  0
ENDBLK
  5
C8
100
AcDbEntity
  8
0
100
AcDbBlockEnd
  0
BLOCK
  5
101
100
AcDbEntity
  8
0
100
AcDbBlockBegin
  2
THO17118_S
 70
     0
 10
0.0
 20
0.0
 30
0.0
  3
THO17118_S
  1

  0
LINE
  5
CB
100
AcDbEntity
  8
USP-GEO
100
AcDbLine
 10
2.046021667146185
 20
11.52559810681179
 30
0.0000000000000001
 11
3.650350000000052
 21
2.427000000000063
 31
0.0000000000000004
210
0.0
220
1.0
230
0.0
  0
ARC
  5
CC
100
AcDbEntity
  8
USP-GEO
100
AcDbCircle
 10
2.619099999999971
 20
4.597999999999952
 30
0.0000000000000002
 40
0.15625
100
AcDbArc
 50
359.9999999999965
 51
180.0
  0
ARC
  5
CD
100
AcDbEntity
  8
USP-GEO
100
AcDbCircle
 10
2.056599999999981
 20
4.597999999999945
 30
0.0000000000000001
 40
0.15625
100
AcDbArc
 50
359.9999999999996
 51
179.9999999999986
  0
LINE
  5
CE
100
AcDbEntity
  8
USP-GEO
100
AcDbLine
 10
1.562499999999989
 20
4.556807545446083
 30
0.0
 11
1.562499999999989
 21
11.52559810681182
 31
0.0
210
0.0
220
1.0
230
0.0
  0
LINE
  5
CF
100
AcDbEntity
  8
USP-GEO
100
AcDbLine
 10
1.614499999999996
 20
4.556807545446091
 30
0.0
 11
1.614499999999996
 21
11.52559810681182
 31
0.0
210
0.0
220
1.0
230
0.0
  0
TEXT
  5
D0
100
AcDbEntity
  8
USP-TXT
100
AcDbText
 10
-2.841491666666639
 20
-1.398447738215708
 30
0.0
 40
0.5
  1
THO17118 - SIDE VIEW
 72
     1
 11
1.825175000000026
 21
-1.398447738215708
 31
0.0
100
AcDbText
  0
LINE
  5
D1
100
AcDbEntity
  8
USP-GEO
100
AcDbLine
 10
3.587850000000063
 20
0.3020000000000191
 30
0.0000000000000004
 11
3.587850000000063
 21
0.0000000000000071
 31
0.0000000000000004
210
0.0
220
1.0
230
0.0
  0
LINE
  5
D2
100
AcDbEntity
  8
USP-GEO
100
AcDbLine
 10
3.650350000000052
 20
0.0520000000000192
 30
0.0000000000000004
 11
3.650350000000052
 21
0.0000000000000107
 31
0.0000000000000004
210
0.0
220
1.0
230
0.0
  0
LINE
  5
D3
100
AcDbEntity
  8
USP-GEO
100
AcDbLine
 10
1.712850000000003
 20
0.0
 30
0.0
 11
1.712850000000003
 21
0.3020000000000245
 31
0.0
210
0.0
220
1.0
230
0.0
  0
LINE
  5
D4
100
AcDbEntity
  8
USP-GEO
100
AcDbLine
 10
1.650349999999985
 20
0.0520000000000085
 30
0.0
 11
1.650349999999985
 21
0.0000000000000071
 31
0.0
210
0.0
220
1.0
230
0.0
  0
LINE
  5
D5
100
AcDbEntity
  8
USP-GEO
100
AcDbLine
 10
3.587850000000056
 20
0.0
 30
0.0000000000000004
 11
1.712850000000003
 21
0.0
 31
0.0
210
0.0
220
1.0
230
0.0
  0
LINE
  5
D6
100
AcDbEntity
  8
USP-GEO
100
AcDbLine
 10
1.650349999999992
 20
0.0
 30
0.0
 11
1.712849999999995
 21
0.0
 31
0.0
210
0.0
220
1.0
230
0.0
  0
LINE
  5
D7
100
AcDbEntity
  8
USP-GEO
100
AcDbLine
 10
3.587850000000049
 20
0.0000000000000107
 30
0.0000000000000004
 11
3.650350000000049
 21
0.0000000000000107
 31
0.0000000000000004
210
0.0
220
1.0
230
0.0
  0
ARC
  5
D8
100
AcDbEntity
  8
USP-GEO
100
AcDbCircle
 10
2.619099999999971
 20
1.222999999999945
 30
0.0000000000000002
 40
0.15625
100
AcDbArc
 50
179.9999999999986
 51
359.9999999999996
  0
LINE
  5
D9
100
AcDbEntity
  8
USP-HID
100
AcDbLine
 10
1.712850000000003
 20
0.0519999999999978
 30
0.0
 11
3.587850000000056
 21
0.0520000000000192
 31
0.0000000000000004
  0
LINE
  5
DA
100
AcDbEntity
  8
USP-GEO
100
AcDbLine
 10
1.650349999999992
 20
0.3020000000000103
 30
0.0
 11
1.650349999999992
 21
3.856559792517163
 31
0.0
210
0.0
220
1.0
230
0.0
  0
LINE
  5
DB
100
AcDbEntity
  8
USP-GEO
100
AcDbLine
 10
2.462849999999964
 20
1.222999999999949
 30
0.0000000000000001
 11
2.462849999999964
 21
4.597999999999952
 31
0.0000000000000001
210
0.0
220
1.0
230
0.0
  0
LINE
  5
DC
100
AcDbEntity
  8
USP-GEO
100
AcDbLine
 10
1.900349999999988
 20
1.222999999999942
 30
0.0
 11
1.90034999999996
 21
4.597999999999949
 31
0.0
210
0.0
220
1.0
230
0.0
  0
LINE
  5
DD
100
AcDbEntity
  8
USP-GEO
100
AcDbLine
 10
2.212849999999971
 20
4.597999999999949
 30
0.0000000000000001
 11
2.212849999999985
 21
1.222999999999952
 31
0.0000000000000001
210
0.0
220
1.0
230
0.0
  0
ARC
  5
DE
100
AcDbEntity
  8
USP-GEO
100
AcDbCircle
 10
2.056599999999978
 20
1.222999999999952
 30
0.0000000000000001
 40
0.15625
100
AcDbArc
 50
180.0000000000038
 51
359.9999999999996
  0
LINE
  5
DF
100
AcDbEntity
  8
USP-GEO
100
AcDbLine
 10
1.712850000000003
 20
0.3020000000000245
 30
0.0
 11
1.650349999999995
 21
0.3020000000000245
 31
0.0
210
0.0
220
1.0
230
0.0
  0
LINE
  5
E0
100
AcDbEntity
  8
USP-GEO
100
AcDbLine
 10
1.712850000000003
 20
0.0519999999999978
 30
0.0
 11
1.650349999999985
 21
0.0519999999999978
 31
0.0
210
0.0
220
1.0
230
0.0
  0
LINE
  5
E1
100
AcDbEntity
  8
USP-GEO
100
AcDbLine
 10
1.614500000000017
 20
4.042475842120158
 30
0.0
 11
1.562499999999989
 21
4.042475842120186
 31
0.0
210
0.0
220
1.0
230
0.0
  0
LINE
  5
E2
100
AcDbEntity
  8
USP-GEO
100
AcDbLine
 10
1.562499999999989
 20
4.250095713398387
 30
0.0
 11
1.562499999999989
 21
4.556807545446083
 31
0.0
210
0.0
220
1.0
230
0.0
  0
LINE
  5
E3
100
AcDbEntity
  8
USP-GEO
100
AcDbLine
 10
1.562499999999996
 20
4.250095713398383
 30
0.0
 11
1.562499999999996
 21
4.042475842120175
 31
0.0
210
0.0
220
1.0
230
0.0
  0
ARC
  5
E4
100
AcDbEntity
  8
USP-GEO
100
AcDbCircle
 10
1.150349999999992
 20
3.856559792517163
 30
-0.0000000000000001
 40
0.5000000000000002
100
AcDbArc
 50
0.0
 51
21.82865203634827
  0
LINE
  5
E5
100
AcDbEntity
  8
USP-GEO
100
AcDbLine
 10
1.614499999999999
 20
4.042475842120158
 30
0.0
 11
1.614499999999999
 21
4.250095713398376
 31
0.0
210
0.0
220
1.0
230
0.0
  0
LINE
  5
E6
100
AcDbEntity
  8
USP-GEO
100
AcDbLine
 10
1.614500000000003
 20
4.250095713398383
 30
0.0
 11
1.614500000000003
 21
4.556807545446091
 31
0.0
210
0.0
220
1.0
230
0.0
  0
LINE
  5
E7
100
AcDbEntity
  8
USP-GEO
100
AcDbLine
 10
3.650350000000052
 20
2.427000000000063
 30
0.0000000000000004
 11
3.650350000000052
 21
0.3020000000000138
 31
0.0000000000000004
210
0.0
220
1.0
230
0.0
  0
LINE
  5
E8
100
AcDbEntity
  8
USP-GEO
100
AcDbLine
 10
2.775349999999964
 20
4.597999999999949
 30
0.0000000000000002
 11
2.775349999999964
 21
1.222999999999945
 31
0.0000000000000002
210
0.0
220
1.0
230
0.0
  0
CIRCLE
  5
E9
100
AcDbEntity
  8
USP-GEO
100
AcDbCircle
 10
3.350350000000041
 20
1.316749999999991
 30
0.0000000000000003
 40
0.2187500000000001
  0
LINE
  5
EA
100
AcDbEntity
  8
USP-GEO
100
AcDbLine
 10
3.150350000000056
 20
0.7269999999999986
 30
0.0000000000000003
 11
3.017767478527584
 21
0.8595825214724701
 31
0.0000000000000003
210
0.0
220
1.0
230
0.0
  0
LINE
  5
EB
100
AcDbEntity
  8
USP-GEO
100
AcDbLine
 10
3.017767478527584
 20
0.8595825214724577
 30
0.0000000000000003
 11
3.282932521472524
 21
0.8595825214724577
 31
0.0000000000000003
210
0.0
220
1.0
230
0.0
  0
LINE
  5
EC
100
AcDbEntity
  8
USP-GEO
100
AcDbLine
 10
3.282932521472528
 20
0.8595825214724666
 30
0.0000000000000003
 11
3.150350000000063
 21
0.7270000000000004
 31
0.0000000000000003
210
0.0
220
1.0
230
0.0
  0
LINE
  5
ED
100
AcDbEntity
  8
USP-GEO
100
AcDbLine
 10
3.650350000000056
 20
0.3020000000000138
 30
0.0000000000000004
 11
3.587850000000063
 21
0.3020000000000138
 31
0.0000000000000004
210
0.0
220
1.0
230
0.0
  0
LINE
  5
EE
100
AcDbEntity
  8
USP-GEO
100
AcDbLine
 10
3.650350000000052
 20
0.0520000000000192
 30
0.0000000000000004
 11
3.587850000000056
 21
0.0520000000000192
 31
0.0000000000000004
210
0.0
220
1.0
230
0.0
  0
LINE
  5
EF
100
AcDbEntity
  8
USP-GEO
100
AcDbLine
 10
-0.0000000000000036
 20
11.97900000000006
 30
-0.0000000000000003
 11
1.614499999999999
 21
11.97900000000006
 31
0.0
210
0.0
220
1.0
230
0.0
  0
LINE
  5
F0
100
AcDbEntity
  8
USP-GEO
100
AcDbLine
 10
1.562499999999989
 20
11.92700000000006
 30
0.0
 11
0.0
 21
11.92700000000006
 31
-0.0000000000000003
210
0.0
220
1.0
230
0.0
  0
LINE
  5
F1
100
AcDbEntity
  8
USP-GEO
100
AcDbLine
 10
0.0
 20
11.92700000000004
 30
-0.0000000000000003
 11
0.0
 21
11.97900000000006
 31
-0.0000000000000003
210
0.0
220
1.0
230
0.0
  0
LINE
  5
F2
100
AcDbEntity
  8
USP-GEO
100
AcDbLine
 10
2.400350000000006
 20
5.301313491861062
 30
0.0000000000000001
 11
2.555913491861044
 21
5.145750000000024
 31
0.0000000000000002
210
0.0
220
1.0
230
0.0
  0
LINE
  5
F3
100
AcDbEntity
  8
USP-GEO
100
AcDbLine
 10
2.244786508138961
 20
5.14575000000001
 30
0.0000000000000001
 11
2.400349999999999
 21
5.301313491861048
 31
0.0000000000000001
210
0.0
220
1.0
230
0.0
  0
LINE
  5
F4
100
AcDbEntity
  8
USP-GEO
100
AcDbLine
 10
2.400349999999992
 20
4.990186508138979
 30
0.0000000000000001
 11
2.244786508138947
 21
5.14575000000001
 31
0.0000000000000001
210
0.0
220
1.0
230
0.0
  0
LINE
  5
F5
100
AcDbEntity
  8
USP-GEO
100
AcDbLine
 10
2.555913491861037
 20
5.145750000000028
 30
0.0000000000000002
 11
2.400349999999981
 21
4.990186508138986
 31
0.0000000000000001
210
0.0
220
1.0
230
0.0
  0
CIRCLE
  5
F6
100
AcDbEntity
  8
USP-GEO
100
AcDbCircle
 10
2.17325048388847
 20
8.11861747223957
 30
0.0000000000000001
 40
0.125
  0
LINE
  5
F7
100
AcDbEntity
  8
USP-GEO
100
AcDbLine
 10
1.562499999999992
 20
11.8113608642141
 30
0.0
 11
1.562499999999992
 21
11.92700000000006
 31
0.0
210
0.0
220
1.0
230
0.0
  0
LINE
  5
F8
100
AcDbEntity
  8
USP-GEO
100
AcDbLine
 10
1.562499999999989
 20
11.81136086421409
 30
0.0
 11
1.562499999999989
 21
11.71346433396703
 31
0.0
210
0.0
220
1.0
230
0.0
  0
LINE
  5
F9
100
AcDbEntity
  8
USP-GEO
100
AcDbLine
 10
1.562499999999992
 20
11.71346433396702
 30
0.0
 11
1.562499999999992
 21
11.52559810681183
 31
0.0
210
0.0
220
1.0
230
0.0
  0
LINE
  5
FA
100
AcDbEntity
  8
USP-GEO
100
AcDbLine
 10
1.656219227144816
 20
11.81136086421406
 30
0.0
 11
1.894742650775565
 21
11.71346433396699
 31
0.0
210
0.0
220
1.0
230
0.0
  0
ARC
  5
FB
100
AcDbEntity
  8
USP-GEO
100
AcDbCircle
 10
1.703680688086045
 20
11.92700000000002
 30
0.0
 40
0.125
100
AcDbArc
 50
224.4840529402307
 51
247.6854136150759
  0
LINE
  5
FC
100
AcDbEntity
  8
USP-GEO
100
AcDbLine
 10
1.614500000000003
 20
11.52559810681183
 30
0.0
 11
1.614500000000003
 21
11.71346433396701
 31
0.0
210
0.0
220
1.0
230
0.0
  0
LINE
  5
FD
100
AcDbEntity
  8
USP-GEO
100
AcDbLine
 10
1.614500000000003
 20
11.71346433396703
 30
0.0
 11
1.614500000000003
 21
11.8113608642141
 31
0.0
210
0.0
220
1.0
230
0.0
  0
LINE
  5
FE
100
AcDbEntity
  8
USP-GEO
100
AcDbLine
 10
1.614499999999999
 20
11.81136086421411
 30
0.0
 11
1.614499999999999
 21
11.92700000000007
 31
0.0
210
0.0
220
1.0
230
0.0
  0
LINE
  5
FF
100
AcDbEntity
  8
USP-GEO
100
AcDbLine
 10
1.614500000000003
 20
11.92700000000007
 30
0.0
 11
1.614500000000003
 21
11.97900000000004
 31
0.0
210
0.0
220
1.0
230
0.0
  0
ARC
  5
100
100
AcDbEntity
  8
USP-GEO
100
AcDbCircle
 10
1.799819728893115
 20
11.48218606239505
 30
0.0
 40
0.2500000000000001
100
AcDbArc
 50
10.00000000000101
 51
67.68541361507939
  0
ENDBLK
  5
102
100
AcDbEntity
  8
0
100
AcDbBlockEnd
  0
ENDSEC
  0
SECTION
  2
ENTITIES
  0
INSERT
  5
3
100
AcDbEntity
  8
USP
100
AcDbBlockReference
  2
THO17118_T
 10
12.9231527580047
 20
16.94659027706722
 30
0.0000000000000001
  0
INSERT
  5
64
100
AcDbEntity
  8
USP
100
AcDbBlockReference
  2
THO17118_F
 10
12.9231527580047
 20
1.399076239886611
 30
0.0
  0
INSERT
  5
C9
100
AcDbEntity
  8
USP
100
AcDbBlockReference
  2
THO17118_S
 10
2.842129979678537
 20
1.399076239886603
 30
-0.000000000000003
  0
ENDSEC
  0
SECTION
  2
OBJECTS
  0
DICTIONARY
  5
11E
102
{ACAD_XDICTIONARY
360
11F
102
}
100
AcDbDictionary
  3
ACAD_GROUP
350
11B
  3
ACAD_MLINESTYLE
350
11C
  0
DICTIONARY
  5
110
100
AcDbDictionary
280
     1
  0
DICTIONARY
  5
112
100
AcDbDictionary
280
     1
  0
DICTIONARY
  5
6
100
AcDbDictionary
280
     1
  0
DICTIONARY
  5
B
100
AcDbDictionary
280
     1
  0
DICTIONARY
  5
123
100
AcDbDictionary
280
     1
  0
DICTIONARY
  5
103
100
AcDbDictionary
280
     1
  3
ACAD_LAYOUTSELFREF
360
104
  0
DICTIONARY
  5
108
100
AcDbDictionary
280
     1
  3
ACAD_LAYOUTSELFREF
360
109
  0
DICTIONARY
  5
11F
100
AcDbDictionary
280
     1
  3
ACAD_XREC_ROUNDTRIP
360
120
  0
DICTIONARY
  5
11B
102
{ACAD_REACTORS
330
11E
102
}
100
AcDbDictionary
  0
DICTIONARY
  5
11C
102
{ACAD_XDICTIONARY
360
11D
102
}
102
{ACAD_REACTORS
330
11E
102
}
100
AcDbDictionary
  3
STANDARD
350
121
  0
XRECORD
  5
104
102
{ACAD_REACTORS
330
103
102
}
100
AcDbXrecord
340
2
  0
XRECORD
  5
109
102
{ACAD_REACTORS
330
108
102
}
100
AcDbXrecord
340
109
  0
XRECORD
  5
120
102
{ACAD_REACTORS
330
11F
102
}
100
AcDbXrecord
102
EXTNAMES
  1
ACDBVARIABLEDICTIONARY
  2
AcDbVariableDictionary
  0
DICTIONARY
  5
11D
100
AcDbDictionary
280
     1
  0
MLINESTYLE
  5
121
102
{ACAD_REACTORS
330
11C
102
}
100
AcDbMlineStyle
  2
STANDARD
 70
     0
  3

 62
   256
 51
90.0
 52
90.0
 71
     2
 49
0.5
 62
   256
  6
BYLAYER
 49
-0.5
 62
   256
  6
BYLAYER
  0
ENDSEC
  0
EOF
