  0
SECTION
  2
HEADER
  9
$ACADVER
  1
AC1014
  9
$ACADMAINTVER
 70
     9
  9
$DWGCODEPAGE
  3
ANSI_1252
  9
$INSBASE
 10
0.0
 20
0.0
 30
0.0
  9
$EXTMIN
 10
0.0000111675107206
 20
0.0005411505995878
 30
0.0
  9
$EXTMAX
 10
21.33645985729033
 20
24.57276643564656
 30
0.0
  9
$LIMMIN
 10
0.0
 20
0.0
  9
$LIMMAX
 10
12.0
 20
9.0
  9
$ORTHOMODE
 70
     0
  9
$REGENMODE
 70
     1
  9
$FILLMODE
 70
     1
  9
$QTEXTMODE
 70
     0
  9
$MIRRTEXT
 70
     0
  9
$DRAGMODE
 70
     2
  9
$LTSCALE
 40
1.0
  9
$OSMODE
 70
    37
  9
$ATTMODE
 70
     1
  9
$TEXTSIZE
 40
0.375
  9
$TRACEWID
 40
0.05
  9
$TEXTSTYLE
  7
STANDARD
  9
$CLAYER
  8
0
  9
$CELTYPE
  6
BYLAYER
  9
$CECOLOR
 62
   256
  9
$CELTSCALE
 40
1.0
  9
$DELOBJ
 70
     1
  9
$DISPSILH
 70
     1
  9
$DIMSCALE
 40
6.0
  9
$DIMASZ
 40
0.125
  9
$DIMEXO
 40
0.0625
  9
$DIMDLI
 40
0.37890625
  9
$DIMRND
 40
0.0
  9
$DIMDLE
 40
0.0
  9
$DIMEXE
 40
0.09375
  9
$DIMTP
 40
0.0
  9
$DIMTM
 40
0.0
  9
$DIMTXT
 40
0.109375
  9
$DIMCEN
 40
0.0
  9
$DIMTSZ
 40
0.0
  9
$DIMTOL
 70
     0
  9
$DIMLIM
 70
     0
  9
$DIMTIH
 70
     1
  9
$DIMTOH
 70
     1
  9
$DIMSE1
 70
     0
  9
$DIMSE2
 70
     0
  9
$DIMTAD
 70
     0
  9
$DIMZIN
 70
     8
  9
$DIMBLK
  1

  9
$DIMASO
 70
     1
  9
$DIMSHO
 70
     1
  9
$DIMPOST
  1

  9
$DIMAPOST
  1

  9
$DIMALT
 70
     0
  9
$DIMALTD
 70
     2
  9
$DIMALTF
 40
25.4
  9
$DIMLFAC
 40
1.0
  9
$DIMTOFL
 70
     0
  9
$DIMTVP
 40
0.0
  9
$DIMTIX
 70
     0
  9
$DIMSOXD
 70
     0
  9
$DIMSAH
 70
     0
  9
$DIMBLK1
  1

  9
$DIMBLK2
  1

  9
$DIMSTYLE
  2
STANDARD
  9
$DIMCLRD
 70
     0
  9
$DIMCLRE
 70
     0
  9
$DIMCLRT
 70
   256
  9
$DIMTFAC
 40
1.0
  9
$DIMGAP
 40
0.08984375
  9
$DIMJUST
 70
     0
  9
$DIMSD1
 70
     0
  9
$DIMSD2
 70
     0
  9
$DIMTOLJ
 70
     1
  9
$DIMTZIN
 70
     0
  9
$DIMALTZ
 70
     0
  9
$DIMALTTZ
 70
     0
  9
$DIMFIT
 70
     3
  9
$DIMUPT
 70
     1
  9
$DIMUNIT
 70
     7
  9
$DIMDEC
 70
     4
  9
$DIMTDEC
 70
     4
  9
$DIMALTU
 70
     2
  9
$DIMALTTD
 70
     2
  9
$DIMTXSTY
  7
STANDARD
  9
$DIMAUNIT
 70
     0
  9
$LUNITS
 70
     5
  9
$LUPREC
 70
     6
  9
$SKETCHINC
 40
0.1
  9
$FILLETRAD
 40
0.0
  9
$AUNITS
 70
     0
  9
$AUPREC
 70
     1
  9
$MENU
  1
CUSTOM
  9
$ELEVATION
 40
0.0
  9
$PELEVATION
 40
0.0
  9
$THICKNESS
 40
0.0
  9
$LIMCHECK
 70
     0
  9
$BLIPMODE
 70
     0
  9
$CHAMFERA
 40
0.0
  9
$CHAMFERB
 40
0.0
  9
$CHAMFERC
 40
0.0
  9
$CHAMFERD
 40
0.0
  9
$SKPOLY
 70
     0
  9
$TDCREATE
 40
2451263.663231366
  9
$TDUPDATE
 40
2452759.747641597
  9
$TDINDWG
 40
0.1234968866
  9
$TDUSRTIMER
 40
0.1234968866
  9
$USRTIMER
 70
     1
  9
$ANGBASE
 50
0.0
  9
$ANGDIR
 70
     0
  9
$PDMODE
 70
     0
  9
$PDSIZE
 40
0.0
  9
$PLINEWID
 40
0.0
  9
$COORDS
 70
     1
  9
$SPLFRAME
 70
     0
  9
$SPLINETYPE
 70
     6
  9
$SPLINESEGS
 70
     8
  9
$ATTDIA
 70
     0
  9
$ATTREQ
 70
     1
  9
$HANDLING
 70
     1
  9
$HANDSEED
  5
FF
  9
$SURFTAB1
 70
     6
  9
$SURFTAB2
 70
     6
  9
$SURFTYPE
 70
     6
  9
$SURFU
 70
     6
  9
$SURFV
 70
     6
  9
$UCSNAME
  2

  9
$UCSORG
 10
0.0
 20
0.0
 30
0.0
  9
$UCSXDIR
 10
1.0
 20
0.0
 30
0.0
  9
$UCSYDIR
 10
0.0
 20
1.0
 30
0.0
  9
$PUCSNAME
  2

  9
$PUCSORG
 10
0.0
 20
0.0
 30
0.0
  9
$PUCSXDIR
 10
1.0
 20
0.0
 30
0.0
  9
$PUCSYDIR
 10
0.0
 20
1.0
 30
0.0
  9
$USERI1
 70
     0
  9
$USERI2
 70
     0
  9
$USERI3
 70
     0
  9
$USERI4
 70
     0
  9
$USERI5
 70
     0
  9
$USERR1
 40
0.0
  9
$USERR2
 40
0.0
  9
$USERR3
 40
0.0
  9
$USERR4
 40
0.0
  9
$USERR5
 40
0.0
  9
$WORLDVIEW
 70
     1
  9
$SHADEDGE
 70
     3
  9
$SHADEDIF
 70
    70
  9
$TILEMODE
 70
     1
  9
$MAXACTVP
 70
    16
  9
$PINSBASE
 10
0.0
 20
0.0
 30
0.0
  9
$PLIMCHECK
 70
     0
  9
$PEXTMIN
 10
1.052083323321005
 20
0.7937500251559762
 30
0.0
  9
$PEXTMAX
 10
9.468749909889039
 20
7.143750226403783
 30
0.0
  9
$PLIMMIN
 10
-0.2145830289585384
 20
-0.2812499887361301
  9
$PLIMMAX
 10
10.78541673074557
 20
8.218749770967978
  9
$UNITMODE
 70
     0
  9
$VISRETAIN
 70
     0
  9
$PLINEGEN
 70
     0
  9
$PSLTSCALE
 70
     0
  9
$TREEDEPTH
 70
  3020
  9
$PICKSTYLE
 70
     1
  9
$CMLSTYLE
  2
STANDARD
  9
$CMLJUST
 70
     0
  9
$CMLSCALE
 40
1.0
  9
$PROXYGRAPHICS
 70
     1
  9
$MEASUREMENT
 70
     0
  0
ENDSEC
  0
SECTION
  2
CLASSES
  0
CLASS
  1
ACDBDICTIONARYWDFLT
  2
AcDbDictionaryWithDefault
  3
AutoCAD 2000
 90
        0
280
     0
281
     0
  0
CLASS
  1
ACDBPLACEHOLDER
  2
AcDbPlaceHolder
  3
AutoCAD 2000
 90
        0
280
     0
281
     0
  0
CLASS
  1
LAYOUT
  2
AcDbLayout
  3
AutoCAD 2000
 90
        0
280
     0
281
     0
  0
CLASS
  1
DICTIONARYVAR
  2
AcDbDictionaryVar
  3
"AutoCAD"
 90
        0
280
     0
281
     0
  0
CLASS
  1
LONG_TRANSACTION
  2
AcDbLongTransaction
  3
AutoCAD 2000
 90
        0
280
     0
281
     0
  0
CLASS
  1
LWPOLYLINE
  2
AcDbPolyline
  3
"AutoCAD"
 90
        0
280
     0
281
     1
  0
CLASS
  1
HATCH
  2
AcDbHatch
  3
"ACAD_SEDONA"
 90
        0
280
     0
281
     1
  0
CLASS
  1
XRECORD
  2
AcDbXrecord
  3
"<Built In>"
 90
        0
280
     0
281
     0
  0
CLASS
  1
LONG_TRANSACTION
  2
AcDbLongTransaction
  3
AutoCAD 2000
 90
        0
280
     0
281
     0
  0
CLASS
  1
LWPOLYLINE
  2
AcDbPolyline
  3
"AutoCAD"
 90
        0
280
     0
281
     1
  0
CLASS
  1
HATCH
  2
AcDbHatch
  3
"ACAD_SEDONA"
 90
        0
280
     0
281
     1
  0
CLASS
  1
XRECORD
  2
AcDbXrecord
  3
"<Built In>"
 90
        0
280
     0
281
     0
  0
ENDSEC
  0
SECTION
  2
TABLES
  0
TABLE
  2
VPORT
  5
E1
100
AcDbSymbolTable
 70
     1
  0
VPORT
  5
FB
100
AcDbSymbolTableRecord
100
AcDbViewportTableRecord
  2
*ACTIVE
 70
     0
 10
0.0
 20
0.0
 11
1.0
 21
1.0
 12
-12.42780068921343
 22
22.86006086724356
 13
0.0
 23
0.0
 14
1.0
 24
1.0
 15
0.0
 25
0.0
 16
0.0
 26
0.0
 36
1.0
 17
23.09603071721725
 27
-10.27010416511325
 37
-10.44050274849355
 40
25.35941172795449
 41
1.457627118644067
 42
50.0
 43
10.55307667737539
 44
10.55307667737539
 50
0.0
 51
0.0
 71
     0
 72
   100
 73
     1
 74
     1
 75
     0
 76
     0
 77
     0
 78
     0
  0
ENDTAB
  0
TABLE
  2
LTYPE
  5
DC
100
AcDbSymbolTable
 70
     2
  0
LTYPE
  5
DD
100
AcDbSymbolTableRecord
100
AcDbLinetypeTableRecord
  2
BYBLOCK
 70
     0
  3

 72
    65
 73
     0
 40
0.0
  0
LTYPE
  5
DE
100
AcDbSymbolTableRecord
100
AcDbLinetypeTableRecord
  2
BYLAYER
 70
     0
  3

 72
    65
 73
     0
 40
0.0
  0
LTYPE
  5
5
100
AcDbSymbolTableRecord
100
AcDbLinetypeTableRecord
  2
CONTINUOUS
 70
     0
  3
Solid line
 72
    65
 73
     0
 40
0.0
  0
LTYPE
  5
B0
100
AcDbSymbolTableRecord
100
AcDbLinetypeTableRecord
  2
HIDDEN
 70
     0
  3
Hidden __ __ __ __ __ __ __ __ __ __ __ __ __ _
 72
    65
 73
     2
 40
0.375
 49
0.25
 74
     0
 49
-0.125
 74
     0
  0
ENDTAB
  0
TABLE
  2
LAYER
  5
DA
100
AcDbSymbolTable
 70
     5
  0
LAYER
  5
52
100
AcDbSymbolTableRecord
100
AcDbLayerTableRecord
  2
0
 70
     0
 62
     7
  6
CONTINUOUS
  0
LAYER
  5
8
100
AcDbSymbolTableRecord
100
AcDbLayerTableRecord
  2
USP-GEO
 70
     0
 62
     7
  6
CONTINUOUS
  0
LAYER
  5
11
100
AcDbSymbolTableRecord
100
AcDbLayerTableRecord
  2
USP-TXT
 70
     0
 62
     7
  6
CONTINUOUS
  0
LAYER
  5
AF
100
AcDbSymbolTableRecord
100
AcDbLayerTableRecord
  2
USP-HID
 70
     0
 62
     7
  6
HIDDEN
  0
LAYER
  5
4
100
AcDbSymbolTableRecord
100
AcDbLayerTableRecord
  2
USP
 70
     0
 62
     7
  6
CONTINUOUS
  0
ENDTAB
  0
TABLE
  2
STYLE
  5
DB
100
AcDbSymbolTable
 70
     1
  0
STYLE
  5
12
100
AcDbSymbolTableRecord
100
AcDbTextStyleTableRecord
  2
STANDARD
 70
     0
 40
0.0
 41
1.0
 50
0.0
 71
     0
 42
0.375
  3
txt
  4

  0
ENDTAB
  0
TABLE
  2
VIEW
  5
DF
100
AcDbSymbolTable
 70
     0
  0
ENDTAB
  0
TABLE
  2
UCS
  5
E0
100
AcDbSymbolTable
 70
     0
  0
ENDTAB
  0
TABLE
  2
APPID
  5
E3
100
AcDbSymbolTable
 70
     1
  0
APPID
  5
D5
100
AcDbSymbolTableRecord
100
AcDbRegAppTableRecord
  2
ACAD
 70
     0
  0
ENDTAB
  0
TABLE
  2
DIMSTYLE
  5
E4
100
AcDbSymbolTable
 70
     1
  0
DIMSTYLE
105
EC
100
AcDbSymbolTableRecord
100
AcDbDimStyleTableRecord
  2
STANDARD
 70
     0
  3

  4

  5

  6

  7

 40
1.0
 41
0.18
 42
0.0625
 43
0.38
 44
0.18
 45
0.0
 46
0.0
 47
0.0
 48
0.0
140
0.18
141
0.09
142
0.0
143
25.4
144
1.0
145
0.0
146
1.0
147
0.09
 71
     0
 72
     0
 73
     1
 74
     1
 75
     0
 76
     0
 77
     0
 78
     0
170
     0
171
     2
172
     0
173
     0
174
     0
175
     0
176
     0
177
     0
178
     0
270
     2
271
     4
272
     4
273
     2
274
     2
340
12
275
     0
280
     0
281
     0
282
     0
283
     1
284
     0
285
     0
286
     0
287
     3
288
     0
  0
ENDTAB
  0
TABLE
  2
BLOCK_RECORD
  5
1
100
AcDbSymbolTable
 70
     3
  0
BLOCK_RECORD
  5
2
102
{ACAD_XDICTIONARY
360
CC
102
}
100
AcDbSymbolTableRecord
100
AcDbBlockTableRecord
  2
*MODEL_SPACE
  0
BLOCK_RECORD
  5
D0
102
{ACAD_XDICTIONARY
360
D6
102
}
100
AcDbSymbolTableRecord
100
AcDbBlockTableRecord
  2
*PAPER_SPACE
  0
BLOCK_RECORD
  5
6
100
AcDbSymbolTableRecord
100
AcDbBlockTableRecord
  2
THO17118-2_F
  0
BLOCK_RECORD
  5
55
100
AcDbSymbolTableRecord
100
AcDbBlockTableRecord
  2
THO17118-2_T
  0
BLOCK_RECORD
  5
A8
100
AcDbSymbolTableRecord
100
AcDbBlockTableRecord
  2
THO17118-2_S
  0
ENDTAB
  0
ENDSEC
  0
SECTION
  2
BLOCKS
  0
BLOCK
  5
CE
100
AcDbEntity
  8
0
100
AcDbBlockBegin
  2
*MODEL_SPACE
 70
     0
 10
0.0
 20
0.0
 30
0.0
  3
*MODEL_SPACE
  1

  0
ENDBLK
  5
CF
100
AcDbEntity
  8
0
100
AcDbBlockEnd
  0
BLOCK
  5
D8
100
AcDbEntity
 67
     1
  8
0
100
AcDbBlockBegin
  2
*PAPER_SPACE
 70
     0
 10
0.0
 20
0.0
 30
0.0
  3
*PAPER_SPACE
  1

  0
ENDBLK
  5
D9
100
AcDbEntity
 67
     1
  8
0
100
AcDbBlockEnd
  0
BLOCK
  5
51
100
AcDbEntity
  8
0
100
AcDbBlockBegin
  2
THO17118-2_F
 70
     0
 10
0.0
 20
0.0
 30
0.0
  3
THO17118-2_F
  1

  0
LINE
  5
7
100
AcDbEntity
  8
USP-GEO
100
AcDbLine
 10
2.905158004620066
 20
1.907847666160755
 30
0.0
 11
0.405158004620192
 21
11.93479999999999
 31
0.0
  0
LINE
  5
9
100
AcDbEntity
  8
USP-GEO
100
AcDbLine
 10
2.964958004620061
 20
1.028550000000048
 30
0.0
 11
2.964958004620048
 21
11.43345238330803
 31
0.0
  0
LINE
  5
A
100
AcDbEntity
  8
USP-GEO
100
AcDbLine
 10
2.905158004620045
 20
11.43345238330803
 30
0.0
 11
2.905158004620059
 21
1.028550000000052
 31
0.0
  0
LINE
  5
B
100
AcDbEntity
  8
USP-GEO
100
AcDbLine
 10
6.527458004620047
 20
1.028550000000063
 30
0.0
 11
6.527458004620031
 21
11.43345238330806
 31
0.0
  0
LINE
  5
C
100
AcDbEntity
  8
USP-GEO
100
AcDbLine
 10
6.587258004620057
 20
1.028550000000066
 30
0.0
 11
6.587258004620041
 21
11.43345238330804
 31
0.0
  0
LINE
  5
D
100
AcDbEntity
  8
USP-GEO
100
AcDbLine
 10
9.087258004620023
 20
11.93480000000001
 30
0.0
 11
6.587258004620039
 21
1.907847666160876
 31
0.0
  0
LINE
  5
E
100
AcDbEntity
  8
USP-GEO
100
AcDbLine
 10
6.587258004620061
 20
0.0000000000000044
 30
0.0
 11
2.905158004620059
 21
0.0
 31
0.0
  0
LINE
  5
F
100
AcDbEntity
  8
USP-GEO
100
AcDbLine
 10
2.964958004620068
 20
0.0598000000000063
 30
0.0
 11
6.527458004620047
 21
0.0598000000000112
 31
0.0
  0
TEXT
  5
10
100
AcDbEntity
  8
USP-TXT
100
AcDbText
 10
0.0088877026520713
 20
-2.465976134805895
 30
0.0
 40
0.421875
  1
THO17118-2 - FRONT VIEW
 72
     1
 11
4.649512702652071
 21
-2.465976134805895
 31
0.0
100
AcDbText
  0
ARC
  5
13
100
AcDbEntity
  8
USP-GEO
100
AcDbCircle
 10
2.964958004620058
 20
1.197193272336352
 30
0.0
 40
0.2500000000000025
100
AcDbArc
 50
153.1798011893499
 51
256.1606714631745
  0
LINE
  5
14
100
AcDbEntity
  8
USP-GEO
100
AcDbLine
 10
2.964958004620054
 20
0.0598000000000099
 30
0.0
 11
2.964958004620053
 21
1.028550000000048
 31
0.0
  0
LINE
  5
15
100
AcDbEntity
  8
USP-GEO
100
AcDbLine
 10
2.905158004620057
 20
1.028550000000052
 30
0.0
 11
2.905158004620059
 21
0.0000000000000036
 31
0.0
  0
LINE
  5
16
100
AcDbEntity
  8
USP-GEO
100
AcDbLine
 10
2.852159959350872
 20
1.420299975470639
 30
0.0
 11
2.741851301485771
 21
1.309991317605538
 31
0.0
  0
ARC
  5
17
100
AcDbEntity
  8
USP-GEO
100
AcDbCircle
 10
2.964958004620058
 20
1.197193272336352
 30
0.0
 40
0.2500000000000025
100
AcDbArc
 50
103.8393285368256
 51
116.8201988106499
  0
LINE
  5
18
100
AcDbEntity
  8
USP-GEO
100
AcDbLine
 10
2.964958004620061
 20
1.028550000000048
 30
0.0
 11
2.905158004620059
 21
1.028550000000048
 31
0.0
  0
CIRCLE
  5
19
100
AcDbEntity
  8
USP-GEO
100
AcDbCircle
 10
1.931147795677993
 20
6.847780614863378
 30
0.0
 40
0.09
  0
CIRCLE
  5
1A
100
AcDbEntity
  8
USP-GEO
100
AcDbCircle
 10
1.317297419763637
 20
9.309799998624889
 30
0.0
 40
0.09
  0
ARC
  5
1B
100
AcDbEntity
  8
USP-GEO
100
AcDbCircle
 10
6.527458004620044
 20
1.202406727663653
 30
0.0
 40
0.2500000000000025
100
AcDbArc
 50
283.8393285368283
 51
26.82019881065105
  0
LINE
  5
1C
100
AcDbEntity
  8
USP-GEO
100
AcDbLine
 10
6.527458004620047
 20
1.028550000000063
 30
0.0
 11
6.527458004620049
 21
0.0598000000000063
 31
0.0
  0
LINE
  5
1D
100
AcDbEntity
  8
USP-GEO
100
AcDbLine
 10
6.587258004620059
 20
0.0000000000000071
 30
0.0
 11
6.587258004620057
 21
1.028550000000066
 31
0.0
  0
LINE
  5
1E
100
AcDbEntity
  8
USP-GEO
100
AcDbLine
 10
6.640256049889233
 20
1.425513430797947
 30
0.0
 11
6.750564707754334
 21
1.315204772932846
 31
0.0
  0
ARC
  5
1F
100
AcDbEntity
  8
USP-GEO
100
AcDbCircle
 10
6.527458004620044
 20
1.202406727663653
 30
0.0
 40
0.2500000000000025
100
AcDbArc
 50
63.17980118935008
 51
76.16067146317241
  0
LINE
  5
20
100
AcDbEntity
  8
USP-GEO
100
AcDbLine
 10
6.527458004620047
 20
1.028550000000063
 30
0.0
 11
6.587258004620057
 21
1.028550000000063
 31
0.0
  0
CIRCLE
  5
21
100
AcDbEntity
  8
USP-GEO
100
AcDbCircle
 10
7.561268213562041
 20
6.847780614863353
 30
0.0
 40
0.09
  0
CIRCLE
  5
22
100
AcDbEntity
  8
USP-GEO
100
AcDbCircle
 10
8.175118589476387
 20
9.309799998624871
 30
0.0
 40
0.09
  0
LINE
  5
23
100
AcDbEntity
  8
USP-GEO
100
AcDbLine
 10
0.9060000000000023
 20
11.9946
 30
0.0
 11
0.4051580046201871
 21
11.9946
 31
0.0
  0
LINE
  5
24
100
AcDbEntity
  8
USP-GEO
100
AcDbLine
 10
0.4051580046201871
 20
11.93479999999999
 30
0.0
 11
0.4051580046201871
 21
11.9946
 31
0.0
  0
LINE
  5
25
100
AcDbEntity
  8
USP-GEO
100
AcDbLine
 10
0.0
 20
11.93479999999998
 30
0.0
 11
0.0
 21
11.99459999999998
 31
0.0
  0
LINE
  5
26
100
AcDbEntity
  8
USP-GEO
100
AcDbLine
 10
0.4051580046201871
 20
11.93479999999999
 30
0.0
 11
0.0000000000000004
 21
11.93479999999998
 31
0.0
  0
LINE
  5
27
100
AcDbEntity
  8
USP-GEO
100
AcDbLine
 10
0.4051580046201942
 20
11.9946
 30
0.0
 11
0.0000000000000084
 21
11.99459999999999
 31
0.0
  0
LINE
  5
28
100
AcDbEntity
  8
USP-GEO
100
AcDbLine
 10
2.780158004620044
 20
11.9946
 30
0.0
 11
2.094000000000004
 21
11.9946
 31
0.0
  0
LINE
  5
29
100
AcDbEntity
  8
USP-GEO
100
AcDbLine
 10
0.9060000000000094
 20
10.27880000000007
 30
0.0
 11
0.9060000000000069
 21
12.01669999999999
 31
0.0
  0
LINE
  5
2A
100
AcDbEntity
  8
USP-GEO
100
AcDbLine
 10
1.344000000000008
 20
10.27880000000007
 30
0.0
 11
1.344000000000012
 21
12.0167
 31
0.0
  0
LINE
  5
2B
100
AcDbEntity
  8
USP-GEO
100
AcDbLine
 10
1.656000000000005
 20
10.88651565994542
 30
0.0
 11
1.656000000000003
 21
12.01669999999999
 31
0.0
  0
LINE
  5
2C
100
AcDbEntity
  8
USP-GEO
100
AcDbLine
 10
2.094000000000001
 20
10.27880000000008
 30
0.0
 11
2.094000000000005
 21
12.0167
 31
0.0
  0
ARC
  5
2D
100
AcDbEntity
  8
USP-GEO
100
AcDbCircle
 10
1.125000000000003
 20
10.27880000000007
 30
0.0
 40
0.2189999999999999
100
AcDbArc
 50
179.9999999999972
 51
0.0000000000008651
  0
ARC
  5
2E
100
AcDbEntity
  8
USP-GEO
100
AcDbCircle
 10
1.733603324201038
 20
10.30980000000006
 30
0.0
 40
0.09
100
AcDbArc
 50
211.1126613041951
 51
149.5711952312355
  0
ARC
  5
2F
100
AcDbEntity
  8
USP-GEO
100
AcDbCircle
 10
1.874999999999996
 20
10.27880000000007
 30
0.0
 40
0.2189999999999999
100
AcDbArc
 50
184.05989278966
 51
0.0000000000017811
  0
LINE
  5
30
100
AcDbEntity
  8
USP-GEO
100
AcDbLine
 10
1.656000000000005
 20
10.35538205867394
 30
0.0
 11
1.656000000000005
 21
10.73308433730483
 31
0.0
  0
ARC
  5
31
100
AcDbEntity
  8
USP-GEO
100
AcDbCircle
 10
1.733603324201038
 20
10.30980000000006
 30
0.0
 40
0.09
100
AcDbArc
 50
149.5711952312301
 51
211.1126613042002
  0
ARC
  5
32
100
AcDbEntity
  8
USP-GEO
100
AcDbCircle
 10
1.608939323122267
 20
10.80979999862512
 30
0.0
 40
0.09
100
AcDbArc
 50
58.47326175433197
 51
301.5267382456753
  0
ARC
  5
33
100
AcDbEntity
  8
USP-GEO
100
AcDbCircle
 10
1.608939323122275
 20
10.80979999862512
 30
0.0
 40
0.09
100
AcDbArc
 50
301.5267382456656
 51
58.47326175433653
  0
LINE
  5
34
100
AcDbEntity
  8
USP-GEO
100
AcDbLine
 10
1.655999999999998
 20
11.9946
 30
0.0
 11
1.344000000000008
 21
11.9946
 31
0.0
  0
LINE
  5
35
100
AcDbEntity
  8
USP-GEO
100
AcDbLine
 10
1.344000000000011
 20
12.01669999999999
 30
0.0
 11
0.906000000000013
 21
12.01669999999999
 31
0.0
  0
LINE
  5
36
100
AcDbEntity
  8
USP-GEO
100
AcDbLine
 10
2.094000000000004
 20
12.01669999999999
 30
0.0
 11
1.656000000000016
 21
12.01669999999999
 31
0.0
  0
LINE
  5
37
100
AcDbEntity
  8
USP-GEO
100
AcDbLine
 10
2.780158004620044
 20
11.93479999999999
 30
0.0
 11
2.780158004620044
 21
11.9946
 31
0.0
  0
LINE
  5
38
100
AcDbEntity
  8
USP-GEO
100
AcDbLine
 10
2.780158004620046
 20
11.93479999999999
 30
0.0
 11
2.905158004620048
 21
11.43345238330802
 31
0.0
  0
LINE
  5
39
100
AcDbEntity
  8
USP-GEO
100
AcDbLine
 10
2.905158004620048
 20
11.43345238330802
 30
0.0
 11
2.96495800462004
 21
11.43345238330802
 31
0.0
  0
LINE
  5
3A
100
AcDbEntity
  8
USP-GEO
100
AcDbLine
 10
6.712258004620021
 20
11.99459999999999
 30
0.0
 11
7.398416009240019
 21
11.99459999999997
 31
0.0
  0
LINE
  5
3B
100
AcDbEntity
  8
USP-GEO
100
AcDbLine
 10
6.712258004620029
 20
11.9348
 30
0.0
 11
6.712258004620029
 21
11.99459999999999
 31
0.0
  0
LINE
  5
3C
100
AcDbEntity
  8
USP-GEO
100
AcDbLine
 10
6.587258004620021
 20
11.43345238330804
 30
0.0
 11
6.712258004620019
 21
11.9348
 31
0.0
  0
LINE
  5
3D
100
AcDbEntity
  8
USP-GEO
100
AcDbLine
 10
6.527458004620033
 20
11.43345238330806
 30
0.0
 11
6.587258004620021
 21
11.43345238330806
 31
0.0
  0
LINE
  5
3E
100
AcDbEntity
  8
USP-GEO
100
AcDbLine
 10
8.586416009240029
 20
11.99459999999999
 30
0.0
 11
9.087258004620021
 21
11.9946
 31
0.0
  0
LINE
  5
3F
100
AcDbEntity
  8
USP-GEO
100
AcDbLine
 10
7.398416009240026
 20
10.27880000000006
 30
0.0
 11
7.398416009240023
 21
12.01669999999999
 31
0.0
  0
LINE
  5
40
100
AcDbEntity
  8
USP-GEO
100
AcDbLine
 10
8.586416009240036
 20
10.27880000000006
 30
0.0
 11
8.586416009240039
 21
12.01669999999999
 31
0.0
  0
LINE
  5
41
100
AcDbEntity
  8
USP-GEO
100
AcDbLine
 10
8.148416009240026
 20
10.27880000000007
 30
0.0
 11
8.148416009240023
 21
12.01669999999999
 31
0.0
  0
LINE
  5
42
100
AcDbEntity
  8
USP-GEO
100
AcDbLine
 10
7.836416009240037
 20
10.88651565994541
 30
0.0
 11
7.836416009240039
 21
12.01669999999999
 31
0.0
  0
ARC
  5
43
100
AcDbEntity
  8
USP-GEO
100
AcDbCircle
 10
8.36741600924002
 20
10.27880000000007
 30
0.0
 40
0.2189999999999999
100
AcDbArc
 50
180.0000000000008
 51
359.999999999998
  0
ARC
  5
44
100
AcDbEntity
  8
USP-GEO
100
AcDbCircle
 10
7.758812685038979
 20
10.30980000000002
 30
0.0
 40
0.09
100
AcDbArc
 50
30.42880476874866
 51
328.887338695805
  0
ARC
  5
45
100
AcDbEntity
  8
USP-GEO
100
AcDbCircle
 10
7.61741600924002
 20
10.27880000000006
 30
0.0
 40
0.2189999999999999
100
AcDbArc
 50
179.9999999999963
 51
355.9401072103304
  0
LINE
  5
46
100
AcDbEntity
  8
USP-GEO
100
AcDbLine
 10
7.836416009240036
 20
10.35538205867388
 30
0.0
 11
7.836416009240036
 21
10.73308433730481
 31
0.0
  0
ARC
  5
47
100
AcDbEntity
  8
USP-GEO
100
AcDbCircle
 10
7.758812685038986
 20
10.30980000000002
 30
0.0
 40
0.09
100
AcDbArc
 50
328.8873386957957
 51
30.42880476875145
  0
ARC
  5
48
100
AcDbEntity
  8
USP-GEO
100
AcDbCircle
 10
7.883476686117749
 20
10.8097999986251
 30
0.0
 40
0.09
100
AcDbArc
 50
238.4732617543363
 51
121.5267382456561
  0
ARC
  5
49
100
AcDbEntity
  8
USP-GEO
100
AcDbCircle
 10
7.883476686117749
 20
10.8097999986251
 30
0.0
 40
0.09
100
AcDbArc
 50
121.5267382456571
 51
238.4732617543417
  0
LINE
  5
4A
100
AcDbEntity
  8
USP-GEO
100
AcDbLine
 10
8.586416009240029
 20
12.01669999999999
 30
0.0
 11
8.14841600924004
 21
12.01669999999999
 31
0.0
  0
LINE
  5
4B
100
AcDbEntity
  8
USP-GEO
100
AcDbLine
 10
7.836416009240029
 20
12.01669999999999
 30
0.0
 11
7.398416009240033
 21
12.01669999999999
 31
0.0
  0
LINE
  5
4C
100
AcDbEntity
  8
USP-GEO
100
AcDbLine
 10
7.836416009240021
 20
11.99459999999999
 30
0.0
 11
8.148416009240019
 21
11.99459999999999
 31
0.0
  0
LINE
  5
4D
100
AcDbEntity
  8
USP-GEO
100
AcDbLine
 10
9.492416009240205
 20
11.93479999999998
 30
0.0
 11
9.492416009240205
 21
11.99459999999999
 31
0.0
  0
LINE
  5
4E
100
AcDbEntity
  8
USP-GEO
100
AcDbLine
 10
9.08725800462002
 20
11.9946
 30
0.0
 11
9.087258004620021
 21
11.9348
 31
0.0
  0
LINE
  5
4F
100
AcDbEntity
  8
USP-GEO
100
AcDbLine
 10
9.087258004620025
 20
11.9348
 30
0.0
 11
9.492416009240191
 21
11.93479999999999
 31
0.0
  0
LINE
  5
50
100
AcDbEntity
  8
USP-GEO
100
AcDbLine
 10
9.492416009240187
 20
11.9946
 30
0.0
 11
9.087258004620023
 21
11.9946
 31
0.0
  0
ENDBLK
  5
53
100
AcDbEntity
  8
0
100
AcDbBlockEnd
  0
BLOCK
  5
A5
100
AcDbEntity
  8
0
100
AcDbBlockBegin
  2
THO17118-2_T
 70
     0
 10
0.0
 20
0.0
 30
0.0
  3
THO17118-2_T
  1

  0
LINE
  5
56
100
AcDbEntity
  8
USP-GEO
100
AcDbLine
 10
2.964958004620065
 20
2.375000000000007
 30
0.0
 11
6.527458004620054
 21
2.375000000000007
 31
0.0
  0
LINE
  5
57
100
AcDbEntity
  8
USP-GEO
100
AcDbLine
 10
2.964958004620072
 20
-0.0000000000000071
 30
0.0
 11
6.527458004620051
 21
-0.0000000000000036
 31
0.0
  0
TEXT
  5
58
100
AcDbEntity
  8
USP-TXT
100
AcDbText
 10
0.4307627026520749
 20
-2.513348570816575
 30
0.0
 40
0.421875
  1
THO17118-2 - TOP VIEW
 72
     1
 11
4.649512702652074
 21
-2.513348570816575
 31
0.0
100
AcDbText
  0
LINE
  5
59
100
AcDbEntity
  8
USP-GEO
100
AcDbLine
 10
0.0
 20
4.279033531008643
 30
0.0
 11
2.374999999999854
 21
4.279033531008614
 31
0.0
  0
LINE
  5
5A
100
AcDbEntity
  8
USP-GEO
100
AcDbLine
 10
0.9060000000000059
 20
2.594233531008548
 30
0.0
 11
0.4051580046201906
 21
2.594233531008548
 31
0.0
  0
LINE
  5
5B
100
AcDbEntity
  8
USP-GEO
100
AcDbLine
 10
0.4051580046201977
 20
2.65403353100855
 30
0.0
 11
0.000000000000012
 21
4.279033531008646
 31
0.0
  0
LINE
  5
5C
100
AcDbEntity
  8
USP-GEO
100
AcDbLine
 10
0.4051580046201977
 20
2.594233531008548
 30
0.0
 11
0.4051580046201977
 21
2.65403353100855
 31
0.0
  0
LINE
  5
5D
100
AcDbEntity
  8
USP-GEO
100
AcDbLine
 10
2.37499999999986
 20
4.279033531008607
 30
0.0
 11
2.780158004620055
 21
2.65403353100855
 31
0.0
  0
LINE
  5
5E
100
AcDbEntity
  8
USP-GEO
100
AcDbLine
 10
1.28275195274005
 20
3.463695704112552
 30
0.0
 11
1.155472732062829
 21
3.590974924789886
 31
0.0
  0
LINE
  5
5F
100
AcDbEntity
  8
USP-GEO
100
AcDbLine
 10
1.410031173417274
 20
3.590974924789879
 30
0.0
 11
1.282751952740049
 21
3.463695704112538
 31
0.0
  0
LINE
  5
60
100
AcDbEntity
  8
USP-GEO
100
AcDbLine
 10
2.780158004620048
 20
2.594233531008555
 30
0.0
 11
2.094000000000008
 21
2.594233531008548
 31
0.0
  0
LINE
  5
61
100
AcDbEntity
  8
USP-GEO
100
AcDbLine
 10
1.656000000000002
 20
2.594233531008548
 30
0.0
 11
1.344000000000011
 21
2.594233531008548
 31
0.0
  0
ARC
  5
62
100
AcDbEntity
  8
USP-GEO
100
AcDbCircle
 10
1.12500000000001
 20
3.060033531008642
 30
0.0
 40
0.2189999999999999
100
AcDbArc
 50
359.9999999999981
 51
180.0000000000026
  0
LINE
  5
63
100
AcDbEntity
  8
USP-GEO
100
AcDbLine
 10
1.344000000000015
 20
2.572133531008553
 30
0.0
 11
0.9060000000000165
 21
2.572133531008553
 31
0.0
  0
LINE
  5
64
100
AcDbEntity
  8
USP-GEO
100
AcDbLine
 10
0.9060000000000201
 20
3.060033531008635
 30
0.0
 11
0.9060000000000203
 21
2.572133531008546
 31
0.0
  0
LINE
  5
65
100
AcDbEntity
  8
USP-GEO
100
AcDbLine
 10
1.344000000000018
 20
3.060033531008635
 30
0.0
 11
1.344000000000018
 21
2.572133531008553
 31
0.0
  0
LINE
  5
66
100
AcDbEntity
  8
USP-GEO
100
AcDbLine
 10
2.094000000000008
 20
2.572133531008546
 30
0.0
 11
1.65600000000002
 21
2.572133531008546
 31
0.0
  0
ARC
  5
67
100
AcDbEntity
  8
USP-GEO
100
AcDbCircle
 10
1.875000000000003
 20
3.060033531008627
 30
0.0
 40
0.2189999999999999
100
AcDbArc
 50
0.000000000001832
 51
179.9999999999991
  0
LINE
  5
68
100
AcDbEntity
  8
USP-GEO
100
AcDbLine
 10
1.656000000000009
 20
3.060033531008627
 30
0.0
 11
1.656000000000009
 21
2.572133531008546
 31
0.0
  0
LINE
  5
69
100
AcDbEntity
  8
USP-GEO
100
AcDbLine
 10
2.094000000000004
 20
3.060033531008635
 30
0.0
 11
2.094000000000004
 21
2.572133531008546
 31
0.0
  0
LINE
  5
6A
100
AcDbEntity
  8
USP-GEO
100
AcDbLine
 10
2.964958004620065
 20
0.0
 30
0.0
 11
2.964958004620051
 21
2.594233531008555
 31
0.0
  0
LINE
  5
6B
100
AcDbEntity
  8
USP-GEO
100
AcDbLine
 10
2.905158004620048
 20
2.594233531008551
 30
0.0
 11
2.905158004620062
 21
0.0
 31
0.0
  0
ARC
  5
6C
100
AcDbEntity
  8
USP-GEO
100
AcDbCircle
 10
2.964958004620061
 20
0.3999575198070317
 30
0.0
 40
0.2500000000000024
100
AcDbArc
 50
103.8393285368256
 51
256.1606714631743
  0
ELLIPSE
  5
6D
100
AcDbEntity
  8
USP-GEO
100
AcDbEllipse
 10
2.797005630418325
 20
0.3999575198070317
 30
0.0
 11
0.0
 21
-0.078
 31
0.0
210
0.0
220
0.0
230
1.0
 40
0.7071067811865469
 41
0.0
 42
6.283185307179586
  0
ELLIPSE
  5
6E
100
AcDbEntity
  8
USP-GEO
100
AcDbEllipse
 10
2.842295785497785
 20
0.3999575198070317
 30
0.0
 11
0.0
 21
-0.078
 31
0.0
210
0.0
220
0.0
230
1.0
 40
0.7071067811865469
 41
3.564678996975434
 42
5.860098963793962
  0
LINE
  5
6F
100
AcDbEntity
  8
USP-GEO
100
AcDbLine
 10
2.964958004620065
 20
0.0
 30
0.0
 11
2.905158004620062
 21
0.0
 31
0.0
  0
LINE
  5
70
100
AcDbEntity
  8
USP-GEO
100
AcDbLine
 10
2.78015800462005
 20
2.594233531008551
 30
0.0
 11
2.905158004620052
 21
2.594233531008548
 31
0.0
  0
LINE
  5
71
100
AcDbEntity
  8
USP-GEO
100
AcDbLine
 10
2.905158004620055
 20
2.65403353100855
 30
0.0
 11
2.780158004620054
 21
2.654033531008554
 31
0.0
  0
LINE
  5
72
100
AcDbEntity
  8
USP-GEO
100
AcDbLine
 10
2.780158004620055
 20
2.65403353100855
 30
0.0
 11
2.780158004620055
 21
2.594233531008555
 31
0.0
  0
LINE
  5
73
100
AcDbEntity
  8
USP-GEO
100
AcDbLine
 10
2.905158004620052
 20
2.594233531008548
 30
0.0
 11
2.964958004620044
 21
2.594233531008548
 31
0.0
  0
LINE
  5
74
100
AcDbEntity
  8
USP-GEO
100
AcDbLine
 10
2.905158004620055
 20
2.65403353100855
 30
0.0
 11
2.964958004620051
 21
2.65403353100855
 31
0.0
  0
LINE
  5
75
100
AcDbEntity
  8
USP-GEO
100
AcDbLine
 10
2.905158004620055
 20
2.65403353100855
 30
0.0
 11
2.905158004620055
 21
2.594233531008548
 31
0.0
  0
LINE
  5
76
100
AcDbEntity
  8
USP-GEO
100
AcDbLine
 10
2.964958004620051
 20
2.65403353100855
 30
0.0
 11
2.964958004620051
 21
2.594233531008555
 31
0.0
  0
LINE
  5
77
100
AcDbEntity
  8
USP-GEO
100
AcDbLine
 10
1.282751952740042
 20
3.718254145467113
 30
0.0
 11
1.410031173417271
 21
3.590974924789883
 31
0.0
  0
CIRCLE
  5
78
100
AcDbEntity
  8
USP-GEO
100
AcDbCircle
 10
0.6357733578238225
 20
3.841533530789988
 30
0.0
 40
0.09
  0
LINE
  5
79
100
AcDbEntity
  8
USP-GEO
100
AcDbLine
 10
1.155472732062827
 20
3.590974924789879
 30
0.0
 11
1.282751952740051
 21
3.718254145467106
 31
0.0
  0
CIRCLE
  5
7A
100
AcDbEntity
  8
USP-GEO
100
AcDbCircle
 10
1.873656006549925
 20
4.029033530883673
 30
0.0
 40
0.09
  0
LINE
  5
7B
100
AcDbEntity
  8
USP-GEO
100
AcDbLine
 10
6.712258004620025
 20
2.594233531008597
 30
0.0
 11
7.398416009240023
 21
2.594233531008597
 31
0.0
  0
LINE
  5
7C
100
AcDbEntity
  8
USP-GEO
100
AcDbLine
 10
7.117416009240201
 20
4.279033531008522
 30
0.0
 11
9.492416009240201
 21
4.279033531008522
 31
0.0
  0
LINE
  5
7D
100
AcDbEntity
  8
USP-GEO
100
AcDbLine
 10
6.712258004620034
 20
2.654033531008607
 30
0.0
 11
7.117416009240201
 21
4.279033531008529
 31
0.0
  0
LINE
  5
7E
100
AcDbEntity
  8
USP-GEO
100
AcDbLine
 10
4.246208004619996
 20
0.4272792206135705
 30
0.0
 11
4.373487225233585
 21
0.3000000000000078
 31
0.0
  0
LINE
  5
7F
100
AcDbEntity
  8
USP-GEO
100
AcDbLine
 10
4.373487225233589
 20
0.3000000000000114
 30
0.0
 11
4.246208004620001
 21
0.1727207793864238
 31
0.0
  0
LINE
  5
80
100
AcDbEntity
  8
USP-GEO
100
AcDbLine
 10
4.118928784006405
 20
0.3000000000000149
 30
0.0
 11
4.246208004619992
 21
0.4272792206135741
 31
0.0
  0
LINE
  5
81
100
AcDbEntity
  8
USP-GEO
100
AcDbLine
 10
4.246208004619997
 20
0.1727207793864203
 30
0.0
 11
4.118928784006408
 21
0.3000000000000114
 31
0.0
  0
LINE
  5
82
100
AcDbEntity
  8
USP-GEO
100
AcDbLine
 10
5.118928784006403
 20
0.3000000000000149
 30
0.0
 11
5.24620800461999
 21
0.4272792206135741
 31
0.0
  0
LINE
  5
83
100
AcDbEntity
  8
USP-GEO
100
AcDbLine
 10
5.24620800461999
 20
0.1727207793864203
 30
0.0
 11
5.118928784006403
 21
0.3000000000000078
 31
0.0
  0
LINE
  5
84
100
AcDbEntity
  8
USP-GEO
100
AcDbLine
 10
5.246208004619994
 20
0.4272792206135705
 30
0.0
 11
5.373487225233581
 21
0.3000000000000114
 31
0.0
  0
LINE
  5
85
100
AcDbEntity
  8
USP-GEO
100
AcDbLine
 10
5.373487225233581
 20
0.3000000000000114
 30
0.0
 11
5.246208004619994
 21
0.1727207793864238
 31
0.0
  0
LINE
  5
86
100
AcDbEntity
  8
USP-GEO
100
AcDbLine
 10
6.527458004620051
 20
0.0000000000000107
 30
0.0
 11
6.527458004620035
 21
2.594233531008612
 31
0.0
  0
LINE
  5
87
100
AcDbEntity
  8
USP-GEO
100
AcDbLine
 10
6.587258004620061
 20
0.0000000000000071
 30
0.0
 11
6.587258004620045
 21
2.594233531008601
 31
0.0
  0
ARC
  5
88
100
AcDbEntity
  8
USP-GEO
100
AcDbCircle
 10
6.527458004620047
 20
0.3999575198070388
 30
0.0
 40
0.2500000000000024
100
AcDbArc
 50
283.8393285368271
 51
76.16067146317144
  0
ELLIPSE
  5
89
100
AcDbEntity
  8
USP-GEO
100
AcDbEllipse
 10
6.695410378821787
 20
0.3999575198070388
 30
0.0
 11
0.0
 21
-0.078
 31
0.0
210
0.0
220
0.0
230
1.0
 40
0.7071067811865488
 41
0.0
 42
6.283185307179586
  0
ELLIPSE
  5
8A
100
AcDbEntity
  8
USP-GEO
100
AcDbEllipse
 10
6.650120223742327
 20
0.3999575198070388
 30
0.0
 11
0.0
 21
-0.078
 31
0.0
210
0.0
220
0.0
230
1.0
 40
0.7071067811865488
 41
0.4230863433856259
 42
2.718506310204151
  0
LINE
  5
8B
100
AcDbEntity
  8
USP-GEO
100
AcDbLine
 10
6.527458004620051
 20
0.0000000000000107
 30
0.0
 11
6.587258004620061
 21
0.0000000000000107
 31
0.0
  0
LINE
  5
8C
100
AcDbEntity
  8
USP-GEO
100
AcDbLine
 10
6.587258004620029
 20
2.654033531008607
 30
0.0
 11
6.712258004620027
 21
2.654033531008611
 31
0.0
  0
LINE
  5
8D
100
AcDbEntity
  8
USP-GEO
100
AcDbLine
 10
6.587258004620025
 20
2.594233531008597
 30
0.0
 11
6.712258004620022
 21
2.594233531008601
 31
0.0
  0
LINE
  5
8E
100
AcDbEntity
  8
USP-GEO
100
AcDbLine
 10
6.527458004620037
 20
2.654033531008614
 30
0.0
 11
6.527458004620037
 21
2.594233531008605
 31
0.0
  0
LINE
  5
8F
100
AcDbEntity
  8
USP-GEO
100
AcDbLine
 10
6.587258004620029
 20
2.654033531008607
 30
0.0
 11
6.587258004620029
 21
2.594233531008597
 31
0.0
  0
LINE
  5
90
100
AcDbEntity
  8
USP-GEO
100
AcDbLine
 10
6.527458004620037
 20
2.59423353100859
 30
0.0
 11
6.587258004620025
 21
2.59423353100859
 31
0.0
  0
LINE
  5
91
100
AcDbEntity
  8
USP-GEO
100
AcDbLine
 10
6.587258004620029
 20
2.6540335310086
 30
0.0
 11
6.527458004620037
 21
2.6540335310086
 31
0.0
  0
LINE
  5
92
100
AcDbEntity
  8
USP-GEO
100
AcDbLine
 10
6.712258004620032
 20
2.654033531008607
 30
0.0
 11
6.712258004620032
 21
2.594233531008597
 31
0.0
  0
LINE
  5
93
100
AcDbEntity
  8
USP-GEO
100
AcDbLine
 10
8.336943277177192
 20
3.590974924789897
 30
0.0
 11
8.209664056499969
 21
3.463695704112559
 31
0.0
  0
LINE
  5
94
100
AcDbEntity
  8
USP-GEO
100
AcDbLine
 10
8.20966405649997
 20
3.463695704112549
 30
0.0
 11
8.082384835822743
 21
3.59097492478989
 31
0.0
  0
LINE
  5
95
100
AcDbEntity
  8
USP-GEO
100
AcDbLine
 10
9.492416009240191
 20
4.279033531008526
 30
0.0
 11
9.087258004620027
 21
2.654033531008607
 31
0.0
  0
LINE
  5
96
100
AcDbEntity
  8
USP-GEO
100
AcDbLine
 10
8.586416009240032
 20
2.594233531008597
 30
0.0
 11
9.087258004620025
 21
2.594233531008597
 31
0.0
  0
ARC
  5
97
100
AcDbEntity
  8
USP-GEO
100
AcDbCircle
 10
8.367416009240031
 20
3.060033531008684
 30
0.0
 40
0.2189999999999999
100
AcDbArc
 50
0.0
 51
179.9999999999991
  0
LINE
  5
98
100
AcDbEntity
  8
USP-GEO
100
AcDbLine
 10
8.586416009240032
 20
2.572133531008603
 30
0.0
 11
8.148416009240044
 21
2.572133531008603
 31
0.0
  0
ARC
  5
99
100
AcDbEntity
  8
USP-GEO
100
AcDbCircle
 10
7.617416009240031
 20
3.060033531008684
 30
0.0
 40
0.2189999999999999
100
AcDbArc
 50
0.0
 51
179.9999999999991
  0
LINE
  5
9A
100
AcDbEntity
  8
USP-GEO
100
AcDbLine
 10
7.836416009240032
 20
2.572133531008596
 30
0.0
 11
7.398416009240037
 21
2.572133531008596
 31
0.0
  0
LINE
  5
9B
100
AcDbEntity
  8
USP-GEO
100
AcDbLine
 10
7.398416009240037
 20
3.060033531008684
 30
0.0
 11
7.398416009240037
 21
2.572133531008596
 31
0.0
  0
LINE
  5
9C
100
AcDbEntity
  8
USP-GEO
100
AcDbLine
 10
8.148416009240044
 20
3.060033531008684
 30
0.0
 11
8.148416009240044
 21
2.572133531008596
 31
0.0
  0
LINE
  5
9D
100
AcDbEntity
  8
USP-GEO
100
AcDbLine
 10
7.836416009240032
 20
3.060033531008684
 30
0.0
 11
7.836416009240032
 21
2.572133531008603
 31
0.0
  0
LINE
  5
9E
100
AcDbEntity
  8
USP-GEO
100
AcDbLine
 10
7.836416009240025
 20
2.594233531008597
 30
0.0
 11
8.148416009240023
 21
2.594233531008597
 31
0.0
  0
LINE
  5
9F
100
AcDbEntity
  8
USP-GEO
100
AcDbLine
 10
8.586416009240039
 20
3.060033531008684
 30
0.0
 11
8.586416009240039
 21
2.572133531008603
 31
0.0
  0
LINE
  5
A0
100
AcDbEntity
  8
USP-GEO
100
AcDbLine
 10
9.087258004620025
 20
2.654033531008607
 30
0.0
 11
9.087258004620025
 21
2.594233531008597
 31
0.0
  0
LINE
  5
A1
100
AcDbEntity
  8
USP-GEO
100
AcDbLine
 10
8.082384835822754
 20
3.590974924789893
 30
0.0
 11
8.209664056499974
 21
3.718254145467113
 31
0.0
  0
CIRCLE
  5
A2
100
AcDbEntity
  8
USP-GEO
100
AcDbCircle
 10
7.618760002690095
 20
4.02903353088368
 30
0.0
 40
0.09
  0
LINE
  5
A3
100
AcDbEntity
  8
USP-GEO
100
AcDbLine
 10
8.209664056499967
 20
3.718254145467106
 30
0.0
 11
8.336943277177191
 21
3.590974924789883
 31
0.0
  0
CIRCLE
  5
A4
100
AcDbEntity
  8
USP-GEO
100
AcDbCircle
 10
8.856642651416194
 20
3.841533530790009
 30
0.0
 40
0.09
  0
ENDBLK
  5
A6
100
AcDbEntity
  8
0
100
AcDbBlockEnd
  0
BLOCK
  5
CA
100
AcDbEntity
  8
0
100
AcDbBlockBegin
  2
THO17118-2_S
 70
     0
 10
0.0
 20
0.0
 30
0.0
  3
THO17118-2_S
  1

  0
LINE
  5
A9
100
AcDbEntity
  8
USP-GEO
100
AcDbLine
 10
0.0000000000000089
 20
1.028550000000059
 30
0.0
 11
2.572133531008603
 21
11.3448141246769
 31
0.0
  0
LINE
  5
AA
100
AcDbEntity
  8
USP-GEO
100
AcDbLine
 10
2.654033531008565
 20
1.907847666160868
 30
0.0
 11
2.654033531008614
 21
11.9348
 31
0.0
  0
LINE
  5
AB
100
AcDbEntity
  8
USP-GEO
100
AcDbLine
 10
2.594233531008605
 20
11.9348
 30
0.0
 11
2.594233531008555
 21
1.907847666160868
 31
0.0
  0
TEXT
  5
AC
100
AcDbEntity
  8
USP-TXT
100
AcDbText
 10
-1.855295428390526
 20
-2.465976134805902
 30
0.0
 40
0.421875
  1
THO17118-2 - SIDE VIEW
 72
     1
 11
2.504079571609473
 21
-2.465976134805902
 31
0.0
100
AcDbText
  0
LINE
  5
AD
100
AcDbEntity
  8
USP-GEO
100
AcDbLine
 10
2.37500000000001
 20
-0.0000000000000213
 30
0.0
 11
0.0000000000000018
 21
0.0000000000000053
 31
0.0
  0
LINE
  5
AE
100
AcDbEntity
  8
USP-HID
100
AcDbLine
 10
2.37500000000001
 20
0.0597999999999912
 30
0.0
 11
0.0000000000000071
 21
0.0598000000000036
 31
0.0
  0
CIRCLE
  5
B1
100
AcDbEntity
  8
USP-GEO
100
AcDbCircle
 10
0.3999575198070335
 20
1.20240672766365
 30
0.0
 40
0.2427425797012137
  0
LINE
  5
B2
100
AcDbEntity
  8
USP-GEO
100
AcDbLine
 10
0.0
 20
0.0
 30
0.0
 11
0.0000000000000089
 21
1.028550000000059
 31
0.0
  0
ELLIPSE
  5
B3
100
AcDbEntity
  8
USP-GEO
100
AcDbEllipse
 10
0.3999575198070406
 20
1.370359101865389
 30
0.0
 11
-0.078
 21
-0.0000000000000003
 31
0.0
210
0.0
220
0.0
230
1.0
 40
0.7071067811865463
 41
0.0
 42
6.283185307179586
  0
ELLIPSE
  5
B4
100
AcDbEntity
  8
USP-GEO
100
AcDbEllipse
 10
0.3999575198070353
 20
1.319855491458618
 30
0.0
 11
-0.078
 21
-0.0000000000000012
 31
0.0
210
0.0
220
0.0
230
1.0
 40
0.7071067811865484
 41
3.141592653589816
 42
6.283185307179572
  0
ELLIPSE
  5
B5
100
AcDbEntity
  8
USP-GEO
100
AcDbEllipse
 10
0.3999575198070424
 20
1.325068946785918
 30
0.0
 11
-0.078
 21
-0.0000000000000012
 31
0.0
210
0.0
220
0.0
230
1.0
 40
0.7071067811865463
 41
3.564678996975565
 42
5.860098963793837
  0
LINE
  5
B6
100
AcDbEntity
  8
USP-GEO
100
AcDbLine
 10
2.375000000000007
 20
1.028550000000059
 30
0.0
 11
2.37500000000001
 21
-0.0000000000000213
 31
0.0
  0
LINE
  5
B7
100
AcDbEntity
  8
USP-GEO
100
AcDbLine
 10
2.594233531008562
 20
1.907847666160867
 30
0.0
 11
2.375000000000003
 21
1.02855000000006
 31
0.0
  0
LINE
  5
B8
100
AcDbEntity
  8
USP-GEO
100
AcDbLine
 10
2.654033531008565
 20
1.907847666160868
 30
0.0
 11
2.594233531008555
 21
1.907847666160868
 31
0.0
  0
CIRCLE
  5
B9
100
AcDbEntity
  8
USP-GEO
100
AcDbCircle
 10
1.153546864219514
 20
3.403550000000009
 30
0.0
 40
0.082
  0
CIRCLE
  5
BA
100
AcDbEntity
  8
USP-GEO
100
AcDbCircle
 10
1.758351603218702
 20
5.841050000000008
 30
0.0
 40
0.082
  0
LINE
  5
BB
100
AcDbEntity
  8
USP-GEO
100
AcDbLine
 10
3.060033531008695
 20
12.01669999999998
 30
0.0
 11
2.572133531008606
 21
12.01669999999998
 31
0.0
  0
LINE
  5
BC
100
AcDbEntity
  8
USP-GEO
100
AcDbLine
 10
4.279033531008533
 20
11.99459999999999
 30
0.0
 11
2.654033531008614
 21
11.9946
 31
0.0
  0
LINE
  5
BD
100
AcDbEntity
  8
USP-GEO
100
AcDbLine
 10
2.654033531008614
 20
11.93479999999999
 30
0.0
 11
4.279033531008533
 21
11.93479999999998
 31
0.0
  0
LINE
  5
BE
100
AcDbEntity
  8
USP-GEO
100
AcDbLine
 10
2.594233531008608
 20
11.99459999999999
 30
0.0
 11
2.594233531008608
 21
11.9348
 31
0.0
  0
LINE
  5
BF
100
AcDbEntity
  8
USP-GEO
100
AcDbLine
 10
2.654033531008614
 20
11.9348
 30
0.0
 11
2.654033531008614
 21
11.99459999999999
 31
0.0
  0
LINE
  5
C0
100
AcDbEntity
  8
USP-GEO
100
AcDbLine
 10
2.572133531008603
 20
10.27880000000006
 30
0.0
 11
2.57213353100861
 21
12.01669999999998
 31
0.0
  0
LINE
  5
C1
100
AcDbEntity
  8
USP-GEO
100
AcDbLine
 10
2.572133531008596
 20
10.05980000000006
 30
0.0
 11
2.572133531008596
 21
10.27880000000006
 31
0.0
  0
LINE
  5
C2
100
AcDbEntity
  8
USP-GEO
100
AcDbLine
 10
2.572133531008596
 20
10.05980000000006
 30
0.0
 11
2.59423353100859
 21
10.05980000000006
 31
0.0
  0
LINE
  5
C3
100
AcDbEntity
  8
USP-GEO
100
AcDbLine
 10
2.572133531008603
 20
10.27880000000006
 30
0.0
 11
2.594233531008597
 21
10.27880000000006
 31
0.0
  0
LINE
  5
C4
100
AcDbEntity
  8
USP-GEO
100
AcDbLine
 10
2.654033531008614
 20
11.9348
 30
0.0
 11
2.594233531008608
 21
11.9348
 31
0.0
  0
LINE
  5
C5
100
AcDbEntity
  8
USP-GEO
100
AcDbLine
 10
2.654033531008614
 20
11.99459999999999
 30
0.0
 11
2.594233531008605
 21
11.99459999999999
 31
0.0
  0
LINE
  5
C6
100
AcDbEntity
  8
USP-GEO
100
AcDbLine
 10
4.279033531008529
 20
11.93479999999998
 30
0.0
 11
4.279033531008529
 21
11.99459999999999
 31
0.0
  0
LINE
  5
C7
100
AcDbEntity
  8
USP-GEO
100
AcDbLine
 10
3.060033531008695
 20
12.01669999999998
 30
0.0
 11
3.279033531008693
 21
12.01669999999998
 31
0.0
  0
LINE
  5
C8
100
AcDbEntity
  8
USP-GEO
100
AcDbLine
 10
3.060033531008695
 20
12.01669999999998
 30
0.0
 11
3.060033531008695
 21
11.99459999999999
 31
0.0
  0
LINE
  5
C9
100
AcDbEntity
  8
USP-GEO
100
AcDbLine
 10
3.279033531008693
 20
12.01669999999998
 30
0.0
 11
3.279033531008693
 21
11.99459999999999
 31
0.0
  0
ENDBLK
  5
CB
100
AcDbEntity
  8
0
100
AcDbBlockEnd
  0
ENDSEC
  0
SECTION
  2
ENTITIES
  0
INSERT
  5
3
100
AcDbEntity
  8
USP
100
AcDbBlockReference
  2
THO17118-2_F
 10
0.0000111675107206
 20
2.466517285405486
 30
0.0
  0
INSERT
  5
54
100
AcDbEntity
  8
USP
100
AcDbBlockReference
  2
THO17118-2_T
 10
0.0000111675107206
 20
20.29373290463791
 30
0.0
  0
INSERT
  5
A7
100
AcDbEntity
  8
USP
100
AcDbBlockReference
  2
THO17118-2_S
 10
14.47300528568086
 20
2.46651728540549
 30
0.0
  0
VIEWPORT
  5
D1
102
{ACAD_XDICTIONARY
360
D2
102
}
100
AcDbEntity
 67
     1
  8
0
100
AcDbViewport
 10
5.285416850893516
 20
3.968749891115924
 30
0.0
 40
13.55466628347482
 41
8.992999745766947
 68
    -1
 69
     1
1001
ACAD
1000
MVIEW
1002
{
1070
    16
1010
0.0
1020
0.0
1030
0.0
1010
0.0
1020
0.0
1030
0.0
1040
0.0
1040
-1.0
1040
0.0
1040
0.0
1040
0.0
1040
0.0
1040
0.0
1070
     0
1070
   100
1070
     1
1070
     0
1070
     0
1070
     0
1070
     0
1070
     0
1040
0.0
1040
0.0
1040
0.0
1040
0.0
1040
0.0
1040
0.0
1040
0.0
1070
     0
1002
{
1002
}
1002
}
  0
ENDSEC
  0
SECTION
  2
OBJECTS
  0
DICTIONARY
  5
E8
102
{ACAD_XDICTIONARY
360
E9
102
}
100
AcDbDictionary
  3
ACAD_GROUP
350
E6
  3
ACAD_MLINESTYLE
350
E7
  0
DICTIONARY
  5
CC
100
AcDbDictionary
280
     1
  3
ACAD_LAYOUTSELFREF
360
CD
  0
DICTIONARY
  5
D6
100
AcDbDictionary
280
     1
  3
ACAD_LAYOUTSELFREF
360
D7
  0
DICTIONARY
  5
D2
100
AcDbDictionary
280
     1
  3
ACAD_XREC_ROUNDTRIP
360
D3
  0
DICTIONARY
  5
E9
100
AcDbDictionary
280
     1
  3
ACAD_XREC_ROUNDTRIP
360
EA
  0
DICTIONARY
  5
E6
102
{ACAD_REACTORS
330
E8
102
}
100
AcDbDictionary
  0
DICTIONARY
  5
E7
102
{ACAD_REACTORS
330
E8
102
}
100
AcDbDictionary
  3
STANDARD
350
EB
  0
XRECORD
  5
CD
102
{ACAD_REACTORS
330
CC
102
}
100
AcDbXrecord
340
18
  0
XRECORD
  5
D7
102
{ACAD_REACTORS
330
D6
102
}
100
AcDbXrecord
340
15
  0
XRECORD
  5
D3
102
{ACAD_REACTORS
330
D2
102
}
100
AcDbXrecord
102
UCS
 74
     0
 71
     1
 10
0.0
 20
0.0
 30
0.0
 10
1.0
 20
0.0
 30
0.0
 10
0.0
 20
1.0
 30
0.0
146
0.0
 79
     0
102
VIEW
281
     0
102
NEWVIEWCONTROL
280
     4
  0
XRECORD
  5
EA
102
{ACAD_REACTORS
330
E9
102
}
100
AcDbXrecord
102
EXTNAMES
  1
ACDBVARIABLEDICTIONARY
  2
AcDbVariableDictionary
  0
MLINESTYLE
  5
EB
102
{ACAD_REACTORS
330
E7
102
}
100
AcDbMlineStyle
  2
STANDARD
 70
     0
  3

 62
     0
 51
90.0
 52
90.0
 71
     2
 49
0.5
 62
   256
  6
BYLAYER
 49
-0.5
 62
   256
  6
BYLAYER
  0
ENDSEC
  0
EOF
