  0
SECTION
  2
HEADER
  9
$ACADVER
  1
AC1014
  9
$ACADMAINTVER
 70
     9
  9
$DWGCODEPAGE
  3
ANSI_1252
  9
$INSBASE
 10
0.0
 20
0.0
 30
0.0
  9
$EXTMIN
 10
0.0004764447913068
 20
0.0004901319260924
 30
-0.0000000000000018
  9
$EXTMAX
 10
15.61334341148777
 20
16.0607938169003
 30
0.000000000000001
  9
$LIMMIN
 10
0.0
 20
0.0
  9
$LIMMAX
 10
12.0
 20
9.0
  9
$ORTHOMODE
 70
     0
  9
$REGENMODE
 70
     1
  9
$FILLMODE
 70
     1
  9
$QTEXTMODE
 70
     0
  9
$MIRRTEXT
 70
     1
  9
$DRAGMODE
 70
     2
  9
$LTSCALE
 40
1.0
  9
$OSMODE
 70
    37
  9
$ATTMODE
 70
     1
  9
$TEXTSIZE
 40
0.3608572556272733
  9
$TRACEWID
 40
0.05
  9
$TEXTSTYLE
  7
STANDARD
  9
$CLAYER
  8
0
  9
$CELTYPE
  6
BYLAYER
  9
$CECOLOR
 62
   256
  9
$CELTSCALE
 40
1.0
  9
$DELOBJ
 70
     1
  9
$DISPSILH
 70
     0
  9
$DIMSCALE
 40
1.0
  9
$DIMASZ
 40
0.18
  9
$DIMEXO
 40
0.0625
  9
$DIMDLI
 40
0.38
  9
$DIMRND
 40
0.0
  9
$DIMDLE
 40
0.0
  9
$DIMEXE
 40
0.18
  9
$DIMTP
 40
0.0
  9
$DIMTM
 40
0.0
  9
$DIMTXT
 40
0.18
  9
$DIMCEN
 40
0.09
  9
$DIMTSZ
 40
0.0
  9
$DIMTOL
 70
     0
  9
$DIMLIM
 70
     0
  9
$DIMTIH
 70
     1
  9
$DIMTOH
 70
     1
  9
$DIMSE1
 70
     0
  9
$DIMSE2
 70
     0
  9
$DIMTAD
 70
     0
  9
$DIMZIN
 70
     0
  9
$DIMBLK
  1

  9
$DIMASO
 70
     1
  9
$DIMSHO
 70
     1
  9
$DIMPOST
  1

  9
$DIMAPOST
  1

  9
$DIMALT
 70
     0
  9
$DIMALTD
 70
     2
  9
$DIMALTF
 40
25.4
  9
$DIMLFAC
 40
1.0
  9
$DIMTOFL
 70
     0
  9
$DIMTVP
 40
0.0
  9
$DIMTIX
 70
     0
  9
$DIMSOXD
 70
     0
  9
$DIMSAH
 70
     0
  9
$DIMBLK1
  1

  9
$DIMBLK2
  1

  9
$DIMSTYLE
  2
STANDARD
  9
$DIMCLRD
 70
     0
  9
$DIMCLRE
 70
     0
  9
$DIMCLRT
 70
     0
  9
$DIMTFAC
 40
1.0
  9
$DIMGAP
 40
0.09
  9
$DIMJUST
 70
     0
  9
$DIMSD1
 70
     0
  9
$DIMSD2
 70
     0
  9
$DIMTOLJ
 70
     1
  9
$DIMTZIN
 70
     0
  9
$DIMALTZ
 70
     0
  9
$DIMALTTZ
 70
     0
  9
$DIMFIT
 70
     3
  9
$DIMUPT
 70
     0
  9
$DIMUNIT
 70
     2
  9
$DIMDEC
 70
     4
  9
$DIMTDEC
 70
     4
  9
$DIMALTU
 70
     2
  9
$DIMALTTD
 70
     2
  9
$DIMTXSTY
  7
STANDARD
  9
$DIMAUNIT
 70
     0
  9
$LUNITS
 70
     2
  9
$LUPREC
 70
     4
  9
$SKETCHINC
 40
0.1
  9
$FILLETRAD
 40
0.5
  9
$AUNITS
 70
     0
  9
$AUPREC
 70
     0
  9
$MENU
  1
.
  9
$ELEVATION
 40
0.0
  9
$PELEVATION
 40
0.0
  9
$THICKNESS
 40
0.0
  9
$LIMCHECK
 70
     0
  9
$BLIPMODE
 70
     0
  9
$CHAMFERA
 40
0.5
  9
$CHAMFERB
 40
0.5
  9
$CHAMFERC
 40
1.0
  9
$CHAMFERD
 40
0.0
  9
$SKPOLY
 70
     0
  9
$TDCREATE
 40
2451667.521930092
  9
$TDUPDATE
 40
2452759.747621701
  9
$TDINDWG
 40
0.0089048032
  9
$TDUSRTIMER
 40
0.0088990162
  9
$USRTIMER
 70
     1
  9
$ANGBASE
 50
0.0
  9
$ANGDIR
 70
     0
  9
$PDMODE
 70
     0
  9
$PDSIZE
 40
0.0
  9
$PLINEWID
 40
0.0
  9
$COORDS
 70
     1
  9
$SPLFRAME
 70
     0
  9
$SPLINETYPE
 70
     6
  9
$SPLINESEGS
 70
     8
  9
$ATTDIA
 70
     0
  9
$ATTREQ
 70
     1
  9
$HANDLING
 70
     1
  9
$HANDSEED
  5
140
  9
$SURFTAB1
 70
     6
  9
$SURFTAB2
 70
     6
  9
$SURFTYPE
 70
     6
  9
$SURFU
 70
     6
  9
$SURFV
 70
     6
  9
$UCSNAME
  2

  9
$UCSORG
 10
0.0
 20
0.0
 30
0.0
  9
$UCSXDIR
 10
1.0
 20
0.0
 30
0.0
  9
$UCSYDIR
 10
0.0
 20
1.0
 30
0.0
  9
$PUCSNAME
  2

  9
$PUCSORG
 10
0.0
 20
0.0
 30
0.0
  9
$PUCSXDIR
 10
1.0
 20
0.0
 30
0.0
  9
$PUCSYDIR
 10
0.0
 20
1.0
 30
0.0
  9
$USERI1
 70
     0
  9
$USERI2
 70
     0
  9
$USERI3
 70
     0
  9
$USERI4
 70
     0
  9
$USERI5
 70
     0
  9
$USERR1
 40
0.0
  9
$USERR2
 40
0.0
  9
$USERR3
 40
0.0
  9
$USERR4
 40
0.0
  9
$USERR5
 40
0.0
  9
$WORLDVIEW
 70
     1
  9
$SHADEDGE
 70
     3
  9
$SHADEDIF
 70
    70
  9
$TILEMODE
 70
     1
  9
$MAXACTVP
 70
    48
  9
$PINSBASE
 10
0.0
 20
0.0
 30
0.0
  9
$PLIMCHECK
 70
     0
  9
$PEXTMIN
 10
1.000000000000000E+20
 20
1.000000000000000E+20
 30
1.000000000000000E+20
  9
$PEXTMAX
 10
-1.000000000000000E+20
 20
-1.000000000000000E+20
 30
-1.000000000000000E+20
  9
$PLIMMIN
 10
0.0
 20
0.0
  9
$PLIMMAX
 10
12.0
 20
9.0
  9
$UNITMODE
 70
     0
  9
$VISRETAIN
 70
     1
  9
$PLINEGEN
 70
     0
  9
$PSLTSCALE
 70
     1
  9
$TREEDEPTH
 70
  3020
  9
$PICKSTYLE
 70
     1
  9
$CMLSTYLE
  2
STANDARD
  9
$CMLJUST
 70
     0
  9
$CMLSCALE
 40
1.0
  9
$PROXYGRAPHICS
 70
     1
  9
$MEASUREMENT
 70
     0
  0
ENDSEC
  0
SECTION
  2
CLASSES
  0
CLASS
  1
ACDBDICTIONARYWDFLT
  2
AcDbDictionaryWithDefault
  3
AutoCAD 2000
 90
        0
280
     1
281
     0
  0
CLASS
  1
ACDBPLACEHOLDER
  2
AcDbPlaceHolder
  3
AutoCAD 2000
 90
        0
280
     1
281
     0
  0
CLASS
  1
LAYOUT
  2
AcDbLayout
  3
AutoCAD 2000
 90
        0
280
     1
281
     0
  0
CLASS
  1
DICTIONARYVAR
  2
AcDbDictionaryVar
  3
"AutoCAD"
 90
        0
280
     1
281
     0
  0
CLASS
  1
LONG_TRANSACTION
  2
AcDbLongTransaction
  3
AutoCAD 2000
 90
        0
280
     1
281
     0
  0
CLASS
  1
LWPOLYLINE
  2
AcDbPolyline
  3
"AutoCAD"
 90
        0
280
     1
281
     1
  0
CLASS
  1
HATCH
  2
AcDbHatch
  3
"ACAD_SEDONA"
 90
        0
280
     1
281
     1
  0
CLASS
  1
XRECORD
  2
AcDbXrecord
  3
"<Built In>"
 90
        0
280
     0
281
     0
  0
CLASS
  1
LONG_TRANSACTION
  2
AcDbLongTransaction
  3
AutoCAD 2000
 90
        0
280
     1
281
     0
  0
CLASS
  1
LWPOLYLINE
  2
AcDbPolyline
  3
"AutoCAD"
 90
        0
280
     1
281
     1
  0
CLASS
  1
HATCH
  2
AcDbHatch
  3
"ACAD_SEDONA"
 90
        0
280
     1
281
     1
  0
CLASS
  1
XRECORD
  2
AcDbXrecord
  3
"<Built In>"
 90
        0
280
     0
281
     0
  0
CLASS
  1
LONG_TRANSACTION
  2
AcDbLongTransaction
  3
AutoCAD 2000
 90
        0
280
     1
281
     0
  0
CLASS
  1
LWPOLYLINE
  2
AcDbPolyline
  3
"AutoCAD"
 90
        0
280
     1
281
     1
  0
CLASS
  1
HATCH
  2
AcDbHatch
  3
"ACAD_SEDONA"
 90
        0
280
     1
281
     1
  0
CLASS
  1
XRECORD
  2
AcDbXrecord
  3
"<Built In>"
 90
        0
280
     0
281
     0
  0
CLASS
  1
LONG_TRANSACTION
  2
AcDbLongTransaction
  3
AutoCAD 2000
 90
        0
280
     0
281
     0
  0
CLASS
  1
LWPOLYLINE
  2
AcDbPolyline
  3
"AutoCAD"
 90
        0
280
     0
281
     1
  0
CLASS
  1
HATCH
  2
AcDbHatch
  3
"ACAD_SEDONA"
 90
        0
280
     0
281
     1
  0
CLASS
  1
XRECORD
  2
AcDbXrecord
  3
"<Built In>"
 90
        0
280
     0
281
     0
  0
CLASS
  1
LONG_TRANSACTION
  2
AcDbLongTransaction
  3
AutoCAD 2000
 90
        0
280
     0
281
     0
  0
CLASS
  1
LWPOLYLINE
  2
AcDbPolyline
  3
"AutoCAD"
 90
        0
280
     0
281
     1
  0
CLASS
  1
HATCH
  2
AcDbHatch
  3
"ACAD_SEDONA"
 90
        0
280
     0
281
     1
  0
CLASS
  1
XRECORD
  2
AcDbXrecord
  3
"<Built In>"
 90
        0
280
     0
281
     0
  0
ENDSEC
  0
SECTION
  2
TABLES
  0
TABLE
  2
VPORT
  5
120
100
AcDbSymbolTable
 70
     1
  0
VPORT
  5
13C
100
AcDbSymbolTableRecord
100
AcDbViewportTableRecord
  2
*ACTIVE
 70
     0
 10
0.0
 20
0.0
 11
1.0
 21
1.0
 12
7.807267416588927
 22
8.22881295381086
 13
0.0
 23
0.0
 14
0.5
 24
0.5
 15
0.5
 25
0.5
 16
0.0
 26
0.0
 36
1.0
 17
0.0
 27
0.0
 37
0.0
 40
16.57494625797284
 41
1.457627118644067
 42
50.0
 43
0.0
 44
0.0
 50
0.0
 51
0.0
 71
     0
 72
   100
 73
     1
 74
     3
 75
     0
 76
     0
 77
     0
 78
     0
  0
ENDTAB
  0
TABLE
  2
LTYPE
  5
119
100
AcDbSymbolTable
 70
     2
  0
LTYPE
  5
11A
102
{ACAD_XDICTIONARY
360
11B
102
}
100
AcDbSymbolTableRecord
100
AcDbLinetypeTableRecord
  2
BYBLOCK
 70
     0
  3

 72
    65
 73
     0
 40
0.0
  0
LTYPE
  5
11C
102
{ACAD_XDICTIONARY
360
11D
102
}
100
AcDbSymbolTableRecord
100
AcDbLinetypeTableRecord
  2
BYLAYER
 70
     0
  3

 72
    65
 73
     0
 40
0.0
  0
LTYPE
  5
5
102
{ACAD_XDICTIONARY
360
6
102
}
100
AcDbSymbolTableRecord
100
AcDbLinetypeTableRecord
  2
CONTINUOUS
 70
     0
  3
Solid line
 72
    65
 73
     0
 40
0.0
  0
LTYPE
  5
75
100
AcDbSymbolTableRecord
100
AcDbLinetypeTableRecord
  2
HIDDEN
 70
     0
  3
Hidden __ __ __ __ __ __ __ __ __ __ __ __ __ _
 72
    65
 73
     2
 40
0.375
 49
0.25
 74
     0
 49
-0.125
 74
     0
  0
ENDTAB
  0
TABLE
  2
LAYER
  5
117
100
AcDbSymbolTable
 70
     5
  0
LAYER
  5
6C
100
AcDbSymbolTableRecord
100
AcDbLayerTableRecord
  2
0
 70
     0
 62
     7
  6
CONTINUOUS
  0
LAYER
  5
4
100
AcDbSymbolTableRecord
100
AcDbLayerTableRecord
  2
USP
 70
     0
 62
     7
  6
CONTINUOUS
  0
LAYER
  5
74
100
AcDbSymbolTableRecord
100
AcDbLayerTableRecord
  2
USP-HID
 70
     0
 62
     7
  6
HIDDEN
  0
LAYER
  5
D
100
AcDbSymbolTableRecord
100
AcDbLayerTableRecord
  2
USP-GEO
 70
     0
 62
     7
  6
CONTINUOUS
  0
LAYER
  5
9
100
AcDbSymbolTableRecord
100
AcDbLayerTableRecord
  2
USP-TXT
 70
     0
 62
     7
  6
CONTINUOUS
  0
ENDTAB
  0
TABLE
  2
STYLE
  5
118
100
AcDbSymbolTable
 70
     1
  0
STYLE
  5
A
102
{ACAD_XDICTIONARY
360
B
102
}
100
AcDbSymbolTableRecord
100
AcDbTextStyleTableRecord
  2
STANDARD
 70
     0
 40
0.0
 41
1.0
 50
0.0
 71
     0
 42
0.3608572556272733
  3
txt
  4

  0
ENDTAB
  0
TABLE
  2
VIEW
  5
11E
100
AcDbSymbolTable
 70
     0
  0
ENDTAB
  0
TABLE
  2
UCS
  5
11F
100
AcDbSymbolTable
 70
     0
  0
ENDTAB
  0
TABLE
  2
APPID
  5
122
100
AcDbSymbolTable
 70
     1
  0
APPID
  5
123
100
AcDbSymbolTableRecord
100
AcDbRegAppTableRecord
  2
ACAD
 70
     0
  0
ENDTAB
  0
TABLE
  2
DIMSTYLE
  5
124
100
AcDbSymbolTable
 70
     1
  0
DIMSTYLE
105
12D
102
{ACAD_XDICTIONARY
360
12E
102
}
100
AcDbSymbolTableRecord
100
AcDbDimStyleTableRecord
  2
STANDARD
 70
     0
  3

  4

  5

  6

  7

 40
1.0
 41
0.18
 42
0.0625
 43
0.38
 44
0.18
 45
0.0
 46
0.0
 47
0.0
 48
0.0
140
0.18
141
0.09
142
0.0
143
25.4
144
1.0
145
0.0
146
1.0
147
0.09
 71
     0
 72
     0
 73
     1
 74
     1
 75
     0
 76
     0
 77
     0
 78
     0
170
     0
171
     2
172
     0
173
     0
174
     0
175
     0
176
     0
177
     0
178
     0
270
     2
271
     4
272
     4
273
     2
274
     2
340
A
275
     0
280
     0
281
     0
282
     0
283
     1
284
     0
285
     0
286
     0
287
     3
288
     0
  0
ENDTAB
  0
TABLE
  2
BLOCK_RECORD
  5
1
100
AcDbSymbolTable
 70
     3
  0
BLOCK_RECORD
  5
2
102
{ACAD_XDICTIONARY
360
10E
102
}
100
AcDbSymbolTableRecord
100
AcDbBlockTableRecord
  2
*MODEL_SPACE
  0
BLOCK_RECORD
  5
112
102
{ACAD_XDICTIONARY
360
113
102
}
100
AcDbSymbolTableRecord
100
AcDbBlockTableRecord
  2
*PAPER_SPACE
  0
BLOCK_RECORD
  5
7
100
AcDbSymbolTableRecord
100
AcDbBlockTableRecord
  2
THO15950_T
  0
BLOCK_RECORD
  5
6F
100
AcDbSymbolTableRecord
100
AcDbBlockTableRecord
  2
THO15950_F
  0
BLOCK_RECORD
  5
D6
100
AcDbSymbolTableRecord
100
AcDbBlockTableRecord
  2
THO15950_S
  0
ENDTAB
  0
ENDSEC
  0
SECTION
  2
BLOCKS
  0
BLOCK
  5
110
100
AcDbEntity
  8
0
100
AcDbBlockBegin
  2
*MODEL_SPACE
 70
     0
 10
0.0
 20
0.0
 30
0.0
  3
*MODEL_SPACE
  1

  0
ENDBLK
  5
111
100
AcDbEntity
  8
0
100
AcDbBlockEnd
  0
BLOCK
  5
115
100
AcDbEntity
 67
     1
  8
0
100
AcDbBlockBegin
  2
*PAPER_SPACE
 70
     0
 10
0.0
 20
0.0
 30
0.0
  3
*PAPER_SPACE
  1

  0
ENDBLK
  5
116
100
AcDbEntity
 67
     1
  8
0
100
AcDbBlockEnd
  0
BLOCK
  5
6B
100
AcDbEntity
  8
0
100
AcDbBlockBegin
  2
THO15950_T
 70
     0
 10
0.0
 20
0.0
 30
0.0
  3
THO15950_T
  1

  0
TEXT
  5
8
100
AcDbEntity
  8
USP-TXT
100
AcDbText
 10
-0.3929878342352064
 20
-0.8377964361307732
 30
0.0
 40
0.3608572556272733
  1
THO15950 - TOP VIEW
 72
     1
 11
2.944941780317073
 21
-0.8377964361307732
 31
0.0
100
AcDbText
  0
LINE
  5
C
100
AcDbEntity
  8
USP-GEO
100
AcDbLine
 10
0.0
 20
3.726099999999998
 30
0.0
 11
1.875000000000106
 21
3.726100000000013
 31
0.0
  0
LINE
  5
E
100
AcDbEntity
  8
USP-GEO
100
AcDbLine
 10
0.0000000000000071
 20
2.174100000000034
 30
0.0
 11
0.6226092115346021
 21
2.174100000000034
 31
0.0
  0
LINE
  5
F
100
AcDbEntity
  8
USP-GEO
100
AcDbLine
 10
0.0000000000000142
 20
2.174100000000027
 30
0.0
 11
0.0
 21
3.726099999999998
 31
0.0
  0
CIRCLE
  5
10
100
AcDbEntity
  8
USP-GEO
100
AcDbCircle
 10
5.577383560634139
 20
3.445349999999979
 30
0.0
 40
0.09
  0
LINE
  5
11
100
AcDbEntity
  8
USP-GEO
100
AcDbLine
 10
4.014883560634036
 20
3.726099999999984
 30
0.0
 11
5.889883560634146
 21
3.726099999999984
 31
0.0
  0
LINE
  5
12
100
AcDbEntity
  8
USP-GEO
100
AcDbLine
 10
5.267274349099547
 20
2.174100000000027
 30
0.0
 11
5.88988356063416
 21
2.174100000000027
 31
0.0
  0
LINE
  5
13
100
AcDbEntity
  8
USP-GEO
100
AcDbLine
 10
1.87500000000011
 20
3.726100000000013
 30
0.0
 11
1.875000000000067
 21
2.174100000000034
 31
0.0
  0
LINE
  5
14
100
AcDbEntity
  8
USP-GEO
100
AcDbLine
 10
4.014883560634075
 20
3.726099999999984
 30
0.0
 11
4.014883560634075
 21
2.174100000000027
 31
0.0
  0
LINE
  5
15
100
AcDbEntity
  8
USP-GEO
100
AcDbLine
 10
2.41369178031708
 20
2.000000000000039
 30
0.0
 11
3.476191780317073
 21
2.000000000000039
 31
0.0
  0
LINE
  5
16
100
AcDbEntity
  8
USP-GEO
100
AcDbLine
 10
2.413691780317069
 20
0.0
 30
0.0
 11
3.476191780317073
 21
0.0
 31
0.0
  0
LINE
  5
17
100
AcDbEntity
  8
USP-GEO
100
AcDbLine
 10
2.111691780317066
 20
1.872706326267962
 30
0.0
 11
2.111691780317066
 21
-0.0000000000001172
 31
0.0
  0
LINE
  5
18
100
AcDbEntity
  8
USP-GEO
100
AcDbLine
 10
2.163691780317069
 20
-0.0000000000001243
 30
0.0
 11
2.163691780317069
 21
1.872706326267962
 31
0.0
  0
LINE
  5
19
100
AcDbEntity
  8
USP-GEO
100
AcDbLine
 10
2.163691780317073
 20
0.0624999999999822
 30
0.0
 11
2.413691780317073
 21
0.0624999999999822
 31
0.0
  0
LINE
  5
1A
100
AcDbEntity
  8
USP-GEO
100
AcDbLine
 10
2.16369178031708
 20
-0.0000000000000178
 30
0.0
 11
2.111691780317073
 21
-0.0000000000000178
 31
0.0
  0
LINE
  5
1B
100
AcDbEntity
  8
USP-GEO
100
AcDbLine
 10
2.428520424079763
 20
0.2951087267624714
 30
0.0
 11
2.569941780317058
 21
0.4365300829997701
 31
0.0
  0
LINE
  5
1C
100
AcDbEntity
  8
USP-GEO
100
AcDbLine
 10
2.569941780317066
 20
0.153687370525148
 30
0.0
 11
2.428520424079753
 21
0.2951087267624608
 31
0.0
  0
LINE
  5
1D
100
AcDbEntity
  8
USP-GEO
100
AcDbLine
 10
2.413691780317069
 20
-0.0000000000000284
 30
0.0
 11
2.413691780317069
 21
0.0624999999999787
 31
0.0
  0
LINE
  5
1E
100
AcDbEntity
  8
USP-GEO
100
AcDbLine
 10
2.569941780317062
 20
0.4365300829997701
 30
0.0
 11
2.711363136554403
 21
0.2951087267624892
 31
0.0
  0
LINE
  5
1F
100
AcDbEntity
  8
USP-GEO
100
AcDbLine
 10
2.711363136554393
 20
0.2951087267624857
 30
0.0
 11
2.569941780317066
 21
0.1536873705251587
 31
0.0
  0
ARC
  5
20
100
AcDbEntity
  8
USP-GEO
100
AcDbCircle
 10
1.341359211534623
 20
2.413850000000092
 30
0.0
 40
0.1562500000000001
100
AcDbArc
 50
0.0
 51
179.9999999999996
  0
LINE
  5
21
100
AcDbEntity
  8
USP-GEO
100
AcDbLine
 10
1.185109211534609
 20
2.174100000000041
 30
0.0
 11
1.497609211534609
 21
2.174100000000041
 31
0.0
  0
LINE
  5
22
100
AcDbEntity
  8
USP-GEO
100
AcDbLine
 10
1.497609211534605
 20
2.226100000000041
 30
0.0
 11
1.185109211534605
 21
2.226100000000041
 31
0.0
  0
ARC
  5
23
100
AcDbEntity
  8
USP-GEO
100
AcDbCircle
 10
0.7788592115346305
 20
2.413850000000085
 30
0.0
 40
0.1562500000000001
100
AcDbArc
 50
0.0000000000026462
 51
179.9999999999965
  0
LINE
  5
24
100
AcDbEntity
  8
USP-GEO
100
AcDbLine
 10
0.6226092115345879
 20
2.174100000000034
 30
0.0
 11
0.9351092115345878
 21
2.174100000000034
 31
0.0
  0
LINE
  5
25
100
AcDbEntity
  8
USP-GEO
100
AcDbLine
 10
0.9351092115345878
 20
2.226100000000041
 30
0.0
 11
0.6226092115345879
 21
2.226100000000041
 31
0.0
  0
LINE
  5
26
100
AcDbEntity
  8
USP-GEO
100
AcDbLine
 10
0.6226092115345985
 20
2.413850000000092
 30
0.0
 11
0.6226092115346127
 21
2.174100000000034
 31
0.0
  0
LINE
  5
27
100
AcDbEntity
  8
USP-GEO
100
AcDbLine
 10
0.9351092115346091
 20
2.174100000000034
 30
0.0
 11
1.185109211534605
 21
2.174100000000034
 31
0.0
  0
LINE
  5
28
100
AcDbEntity
  8
USP-GEO
100
AcDbLine
 10
0.9351092115346162
 20
2.174100000000034
 30
0.0
 11
0.9351092115346162
 21
2.413850000000092
 31
0.0
  0
LINE
  5
29
100
AcDbEntity
  8
USP-GEO
100
AcDbLine
 10
1.185109211534616
 20
2.413850000000092
 30
0.0
 11
1.185109211534616
 21
2.174100000000034
 31
0.0
  0
LINE
  5
2A
100
AcDbEntity
  8
USP-GEO
100
AcDbLine
 10
2.413691780317073
 20
1.937500000000031
 30
0.0
 11
2.413691780317073
 21
2.000000000000039
 31
0.0
  0
LINE
  5
2B
100
AcDbEntity
  8
USP-GEO
100
AcDbLine
 10
2.111691780317073
 20
2.020357335954546
 30
0.0
 11
2.111691780317073
 21
1.872706326267969
 31
0.0
  0
LINE
  5
2C
100
AcDbEntity
  8
USP-GEO
100
AcDbLine
 10
2.16369178031708
 20
2.020357335954532
 30
0.0
 11
2.16369178031708
 21
1.872706326267969
 31
0.0
  0
LINE
  5
2D
100
AcDbEntity
  8
USP-GEO
100
AcDbLine
 10
2.16369178031708
 20
1.937500000000053
 30
0.0
 11
2.413691780317073
 21
1.937500000000039
 31
0.0
  0
LINE
  5
2E
100
AcDbEntity
  8
USP-GEO
100
AcDbLine
 10
1.497609211534584
 20
2.174100000000034
 30
0.0
 11
1.875000000000028
 21
2.174100000000034
 31
0.0
  0
LINE
  5
2F
100
AcDbEntity
  8
USP-GEO
100
AcDbLine
 10
1.497609211534619
 20
2.174100000000027
 30
0.0
 11
1.497609211534619
 21
2.413850000000092
 31
0.0
  0
LINE
  5
30
100
AcDbEntity
  8
USP-GEO
100
AcDbLine
 10
2.16369178031708
 20
2.226100000000013
 30
0.0
 11
2.11169178031707
 21
2.226100000000013
 31
0.0
  0
LINE
  5
31
100
AcDbEntity
  8
USP-GEO
100
AcDbLine
 10
2.163691780317083
 20
2.174100000000006
 30
0.0
 11
2.111691780317073
 21
2.174100000000006
 31
0.0
  0
LINE
  5
32
100
AcDbEntity
  8
USP-GEO
100
AcDbLine
 10
2.111691780317073
 20
2.226100000000005
 30
0.0
 11
2.111691780317073
 21
2.174100000000006
 31
0.0
  0
LINE
  5
33
100
AcDbEntity
  8
USP-GEO
100
AcDbLine
 10
2.163691780317083
 20
2.174100000000006
 30
0.0
 11
2.163691780317083
 21
2.226100000000013
 31
0.0
  0
LINE
  5
34
100
AcDbEntity
  8
USP-GEO
100
AcDbLine
 10
2.111691780317073
 20
2.174099999999999
 30
0.0
 11
2.111691780317073
 21
2.020357335954539
 31
0.0
  0
LINE
  5
35
100
AcDbEntity
  8
USP-GEO
100
AcDbLine
 10
2.16369178031708
 20
2.020357335954532
 30
0.0
 11
2.16369178031708
 21
2.174100000000006
 31
0.0
  0
LINE
  5
36
100
AcDbEntity
  8
USP-GEO
100
AcDbLine
 10
2.015038539058828
 20
2.226100000000034
 30
0.0
 11
1.980390697847347
 21
2.226100000000034
 31
0.0
  0
LINE
  5
37
100
AcDbEntity
  8
USP-GEO
100
AcDbLine
 10
1.937500000000053
 20
2.226100000000041
 30
0.0
 11
1.875000000000056
 21
2.226100000000041
 31
0.0
  0
LINE
  5
38
100
AcDbEntity
  8
USP-GEO
100
AcDbLine
 10
1.937500000000053
 20
2.226100000000034
 30
0.0
 11
1.980390697847344
 21
2.226100000000034
 31
0.0
  0
LINE
  5
39
100
AcDbEntity
  8
USP-GEO
100
AcDbLine
 10
1.980390697847354
 20
2.174100000000027
 30
0.0
 11
2.015038539058828
 21
2.174100000000027
 31
0.0
  0
LINE
  5
3A
100
AcDbEntity
  8
USP-GEO
100
AcDbLine
 10
1.875000000000053
 20
2.174100000000027
 30
0.0
 11
1.937500000000056
 21
2.174100000000027
 31
0.0
  0
LINE
  5
3B
100
AcDbEntity
  8
USP-GEO
100
AcDbLine
 10
1.937500000000056
 20
2.174100000000034
 30
0.0
 11
1.980390697847354
 21
2.174100000000034
 31
0.0
  0
LINE
  5
3C
100
AcDbEntity
  8
USP-GEO
100
AcDbLine
 10
1.980390697847344
 20
2.226100000000034
 30
0.0
 11
1.980390697847344
 21
2.174100000000034
 31
0.0
  0
LINE
  5
3D
100
AcDbEntity
  8
USP-GEO
100
AcDbLine
 10
2.015038539058824
 20
2.174100000000027
 30
0.0
 11
2.111691780317027
 21
2.174100000000027
 31
0.0
  0
LINE
  5
3E
100
AcDbEntity
  8
USP-GEO
100
AcDbLine
 10
2.015038539058828
 20
2.226100000000034
 30
0.0
 11
2.111691780317023
 21
2.226100000000034
 31
0.0
  0
LINE
  5
3F
100
AcDbEntity
  8
USP-GEO
100
AcDbLine
 10
3.72619178031708
 20
-0.0000000000000178
 30
0.0
 11
3.72619178031708
 21
1.872706326267969
 31
0.0
  0
LINE
  5
40
100
AcDbEntity
  8
USP-GEO
100
AcDbLine
 10
3.778191780317072
 20
-0.0000000000000249
 30
0.0
 11
3.778191780317072
 21
1.872706326267962
 31
0.0
  0
LINE
  5
41
100
AcDbEntity
  8
USP-GEO
100
AcDbLine
 10
3.476191780317073
 20
0.0624999999999787
 30
0.0
 11
3.72619178031708
 21
0.0624999999999787
 31
0.0
  0
LINE
  5
42
100
AcDbEntity
  8
USP-GEO
100
AcDbLine
 10
3.319941780317073
 20
0.4365300829997772
 30
0.0
 11
3.461363136554396
 21
0.2951087267624714
 31
0.0
  0
LINE
  5
43
100
AcDbEntity
  8
USP-GEO
100
AcDbLine
 10
3.178520424079756
 20
0.2951087267624786
 30
0.0
 11
3.319941780317073
 21
0.4365300829997807
 31
0.0
  0
LINE
  5
44
100
AcDbEntity
  8
USP-GEO
100
AcDbLine
 10
3.47619178031708
 20
-0.0000000000000107
 30
0.0
 11
3.47619178031708
 21
0.0624999999999787
 31
0.0
  0
LINE
  5
45
100
AcDbEntity
  8
USP-GEO
100
AcDbLine
 10
3.461363136554382
 20
0.2951087267624821
 30
0.0
 11
3.319941780317066
 21
0.1536873705251658
 31
0.0
  0
LINE
  5
46
100
AcDbEntity
  8
USP-GEO
100
AcDbLine
 10
3.319941780317066
 20
0.1536873705251516
 30
0.0
 11
3.178520424079753
 21
0.2951087267624643
 31
0.0
  0
LINE
  5
47
100
AcDbEntity
  8
USP-GEO
100
AcDbLine
 10
3.72619178031708
 20
-0.0000000000000178
 30
0.0
 11
3.778191780317072
 21
-0.0000000000000178
 31
0.0
  0
LINE
  5
48
100
AcDbEntity
  8
USP-GEO
100
AcDbLine
 10
4.014883560634082
 20
2.174100000000027
 30
0.0
 11
4.392274349099537
 21
2.174100000000027
 31
0.0
  0
LINE
  5
49
100
AcDbEntity
  8
USP-GEO
100
AcDbLine
 10
3.726191780317087
 20
1.872706326267977
 30
0.0
 11
3.726191780317087
 21
2.020357335954539
 31
0.0
  0
LINE
  5
4A
100
AcDbEntity
  8
USP-GEO
100
AcDbLine
 10
3.778191780317079
 20
1.872706326267969
 30
0.0
 11
3.778191780317079
 21
2.020357335954539
 31
0.0
  0
LINE
  5
4B
100
AcDbEntity
  8
USP-GEO
100
AcDbLine
 10
3.476191780317076
 20
1.937500000000039
 30
0.0
 11
3.476191780317076
 21
2.000000000000031
 31
0.0
  0
LINE
  5
4C
100
AcDbEntity
  8
USP-GEO
100
AcDbLine
 10
3.476191780317076
 20
1.937500000000039
 30
0.0
 11
3.726191780317073
 21
1.93750000000006
 31
0.0
  0
LINE
  5
4D
100
AcDbEntity
  8
USP-GEO
100
AcDbLine
 10
3.87484502157531
 20
2.226100000000041
 30
0.0
 11
3.778191780317079
 21
2.226100000000041
 31
0.0
  0
LINE
  5
4E
100
AcDbEntity
  8
USP-GEO
100
AcDbLine
 10
3.778191780317072
 20
2.174100000000034
 30
0.0
 11
3.87484502157531
 21
2.174100000000034
 31
0.0
  0
LINE
  5
4F
100
AcDbEntity
  8
USP-GEO
100
AcDbLine
 10
3.778191780317076
 20
2.020357335954539
 30
0.0
 11
3.778191780317076
 21
2.17410000000002
 31
0.0
  0
LINE
  5
50
100
AcDbEntity
  8
USP-GEO
100
AcDbLine
 10
3.726191780317073
 20
2.22610000000002
 30
0.0
 11
3.778191780317079
 21
2.22610000000002
 31
0.0
  0
LINE
  5
51
100
AcDbEntity
  8
USP-GEO
100
AcDbLine
 10
3.726191780317066
 20
2.174100000000013
 30
0.0
 11
3.778191780317076
 21
2.174100000000013
 31
0.0
  0
LINE
  5
52
100
AcDbEntity
  8
USP-GEO
100
AcDbLine
 10
3.726191780317066
 20
2.174100000000013
 30
0.0
 11
3.726191780317066
 21
2.22610000000002
 31
0.0
  0
LINE
  5
53
100
AcDbEntity
  8
USP-GEO
100
AcDbLine
 10
3.778191780317076
 20
2.17410000000002
 30
0.0
 11
3.778191780317076
 21
2.226100000000034
 31
0.0
  0
LINE
  5
54
100
AcDbEntity
  8
USP-GEO
100
AcDbLine
 10
3.726191780317066
 20
2.174100000000013
 30
0.0
 11
3.726191780317066
 21
2.020357335954539
 31
0.0
  0
LINE
  5
55
100
AcDbEntity
  8
USP-GEO
100
AcDbLine
 10
3.909492862786787
 20
2.174100000000027
 30
0.0
 11
3.952383560634082
 21
2.174100000000027
 31
0.0
  0
LINE
  5
56
100
AcDbEntity
  8
USP-GEO
100
AcDbLine
 10
3.952383560634082
 20
2.226100000000041
 30
0.0
 11
3.909492862786784
 21
2.226100000000041
 31
0.0
  0
LINE
  5
57
100
AcDbEntity
  8
USP-GEO
100
AcDbLine
 10
4.014883560634075
 20
2.226100000000034
 30
0.0
 11
3.952383560634082
 21
2.226100000000034
 31
0.0
  0
LINE
  5
58
100
AcDbEntity
  8
USP-GEO
100
AcDbLine
 10
3.952383560634082
 20
2.174100000000034
 30
0.0
 11
4.014883560634086
 21
2.174100000000034
 31
0.0
  0
LINE
  5
59
100
AcDbEntity
  8
USP-GEO
100
AcDbLine
 10
3.90949286278678
 20
2.226100000000041
 30
0.0
 11
3.874845021575303
 21
2.226100000000041
 31
0.0
  0
LINE
  5
5A
100
AcDbEntity
  8
USP-GEO
100
AcDbLine
 10
3.874845021575307
 20
2.174100000000034
 30
0.0
 11
3.909492862786784
 21
2.174100000000034
 31
0.0
  0
LINE
  5
5B
100
AcDbEntity
  8
USP-GEO
100
AcDbLine
 10
3.909492862786784
 20
2.226100000000034
 30
0.0
 11
3.909492862786784
 21
2.174100000000027
 31
0.0
  0
LINE
  5
5C
100
AcDbEntity
  8
USP-GEO
100
AcDbLine
 10
4.70477434909954
 20
2.174100000000041
 30
0.0
 11
4.954774349099523
 21
2.174100000000041
 31
0.0
  0
ARC
  5
5D
100
AcDbEntity
  8
USP-GEO
100
AcDbCircle
 10
4.548524349099523
 20
2.413850000000078
 30
0.0
 40
0.1562500000000001
100
AcDbArc
 50
359.9999999999965
 51
180.0000000000026
  0
LINE
  5
5E
100
AcDbEntity
  8
USP-GEO
100
AcDbLine
 10
4.39227434909954
 20
2.174100000000034
 30
0.0
 11
4.70477434909954
 21
2.174100000000034
 31
0.0
  0
LINE
  5
5F
100
AcDbEntity
  8
USP-GEO
100
AcDbLine
 10
4.70477434909953
 20
2.226100000000034
 30
0.0
 11
4.39227434909953
 21
2.226100000000034
 31
0.0
  0
LINE
  5
60
100
AcDbEntity
  8
USP-GEO
100
AcDbLine
 10
4.39227434909953
 20
2.413850000000071
 30
0.0
 11
4.39227434909953
 21
2.174100000000041
 31
0.0
  0
LINE
  5
61
100
AcDbEntity
  8
USP-GEO
100
AcDbLine
 10
4.70477434909953
 20
2.413850000000071
 30
0.0
 11
4.70477434909953
 21
2.174100000000041
 31
0.0
  0
ARC
  5
62
100
AcDbEntity
  8
USP-GEO
100
AcDbCircle
 10
5.111024349099515
 20
2.413850000000085
 30
0.0
 40
0.1562500000000001
100
AcDbArc
 50
359.9999999999939
 51
180.0
  0
LINE
  5
63
100
AcDbEntity
  8
USP-GEO
100
AcDbLine
 10
4.954774349099544
 20
2.174100000000027
 30
0.0
 11
5.267274349099544
 21
2.174100000000027
 31
0.0
  0
LINE
  5
64
100
AcDbEntity
  8
USP-GEO
100
AcDbLine
 10
5.267274349099544
 20
2.226100000000027
 30
0.0
 11
4.954774349099544
 21
2.226100000000027
 31
0.0
  0
LINE
  5
65
100
AcDbEntity
  8
USP-GEO
100
AcDbLine
 10
4.954774349099519
 20
2.413850000000085
 30
0.0
 11
4.954774349099519
 21
2.174100000000034
 31
0.0
  0
LINE
  5
66
100
AcDbEntity
  8
USP-GEO
100
AcDbLine
 10
5.267274349099544
 20
2.413850000000071
 30
0.0
 11
5.267274349099544
 21
2.174100000000027
 31
0.0
  0
CIRCLE
  5
67
100
AcDbEntity
  8
USP-GEO
100
AcDbCircle
 10
0.3125
 20
3.445350000000008
 30
0.0
 40
0.09
  0
CIRCLE
  5
68
100
AcDbEntity
  8
USP-GEO
100
AcDbCircle
 10
1.625000000000085
 20
3.257849999999994
 30
0.0
 40
0.09
  0
CIRCLE
  5
69
100
AcDbEntity
  8
USP-GEO
100
AcDbCircle
 10
4.264883560634061
 20
3.257849999999994
 30
0.0
 40
0.09
  0
LINE
  5
6A
100
AcDbEntity
  8
USP-GEO
100
AcDbLine
 10
5.889883560634157
 20
3.726099999999991
 30
0.0
 11
5.889883560634157
 21
2.174100000000034
 31
0.0
  0
ENDBLK
  5
6D
100
AcDbEntity
  8
0
100
AcDbBlockEnd
  0
BLOCK
  5
D3
100
AcDbEntity
  8
0
100
AcDbBlockBegin
  2
THO15950_F
 70
     0
 10
0.0
 20
0.0
 30
0.0
  3
THO15950_F
  1

  0
TEXT
  5
70
100
AcDbEntity
  8
USP-TXT
100
AcDbText
 10
-0.7538450898624931
 20
-0.8377964361307697
 30
0.0000000000000001
 40
0.3608572556272733
  1
THO15950 - FRONT VIEW
 72
     1
 11
2.944941780317058
 21
-0.8377964361307697
 31
0.0000000000000001
100
AcDbText
  0
LINE
  5
71
100
AcDbEntity
  8
USP-GEO
100
AcDbLine
 10
0.2654344443624126
 20
9.302785101071805
 30
0.0000000000000018
 11
0.0150385390587218
 21
9.405554422189901
 31
0.0000000000000018
210
0.0
220
1.0
230
0.0000000000000002
  0
LINE
  5
72
100
AcDbEntity
  8
USP-GEO
100
AcDbLine
 10
-0.0000000000000071
 20
9.60394355797597
 30
0.0000000000000019
 11
0.6226092115345879
 21
9.603943557975984
 31
0.000000000000002
210
0.0
220
1.0
230
0.0000000000000002
  0
LINE
  5
73
100
AcDbEntity
  8
USP-HID
100
AcDbLine
 10
1.875000000000028
 20
9.551943557975956
 30
-0.0000000000000001
 11
-0.0000000000000036
 21
9.551943557975956
 31
-0.0000000000000001
  0
LINE
  5
76
100
AcDbEntity
  8
USP-GEO
100
AcDbLine
 10
-0.0000000000000142
 20
9.41294038250281
 30
0.0000000000000018
 11
0.0
 21
9.603943557975966
 31
0.0000000000000019
210
0.0
220
1.0
230
0.0000000000000002
  0
ARC
  5
77
100
AcDbEntity
  8
USP-GEO
100
AcDbCircle
 10
0.062499999999929
 20
9.521193557975887
 30
0.0000000000000019
 40
0.125
100
AcDbArc
 50
240.0000000000242
 51
247.6854136150891
  0
LINE
  5
78
100
AcDbEntity
  8
USP-GEO
100
AcDbLine
 10
2.163691780317055
 20
1.621028917915836
 30
0.0000000000000004
 11
2.163691780317055
 21
9.132043745423786
 31
0.000000000000002
210
0.0
220
1.0
230
0.0000000000000002
  0
LINE
  5
79
100
AcDbEntity
  8
USP-GEO
100
AcDbLine
 10
3.778191780317058
 20
1.621028917916245
 30
0.0000000000000006
 11
3.778191780317058
 21
9.132043745423793
 31
0.0000000000000022
210
0.0
220
1.0
230
0.0000000000000002
  0
LINE
  5
7A
100
AcDbEntity
  8
USP-GEO
100
AcDbLine
 10
3.726191780317066
 20
1.621028917916245
 30
0.0000000000000006
 11
3.726191780317066
 21
9.132043745423793
 31
0.0000000000000022
210
0.0
220
1.0
230
0.0000000000000002
  0
LINE
  5
7B
100
AcDbEntity
  8
USP-GEO
100
AcDbLine
 10
2.111691780317052
 20
9.132043745423771
 30
0.000000000000002
 11
2.111691780317052
 21
1.62102891791584
 31
0.0000000000000004
210
0.0
220
1.0
230
0.0000000000000002
  0
LINE
  5
7C
100
AcDbEntity
  8
USP-GEO
100
AcDbLine
 10
2.413691780317055
 20
0.0000000000000036
 30
0.0
 11
3.476191780317066
 21
0.0000000000000036
 31
0.0000000000000002
210
0.0
220
1.0
230
0.0000000000000002
  0
LINE
  5
7D
100
AcDbEntity
  8
USP-GEO
100
AcDbLine
 10
2.413691780317055
 20
0.0520000000000032
 30
0.0
 11
3.476191780317058
 21
0.0520000000000032
 31
0.0000000000000002
210
0.0
220
1.0
230
0.0000000000000002
  0
LINE
  5
7E
100
AcDbEntity
  8
USP-GEO
100
AcDbLine
 10
2.163691780317066
 20
1.621028917915811
 30
0.0000000000000004
 11
2.163691780317066
 21
0.3020000000000067
 31
0.0000000000000001
210
0.0
220
1.0
230
0.0000000000000002
  0
LINE
  5
7F
100
AcDbEntity
  8
USP-GEO
100
AcDbLine
 10
2.111691780317059
 20
1.621028917915815
 30
0.0000000000000004
 11
2.111691780317059
 21
0.3020000000000138
 31
0.0000000000000001
210
0.0
220
1.0
230
0.0000000000000002
  0
LINE
  5
80
100
AcDbEntity
  8
USP-GEO
100
AcDbLine
 10
2.111691780317059
 20
0.0
 30
0.0
 11
2.413691780317062
 21
0.0
 31
0.0
210
0.0
220
1.0
230
0.0000000000000002
  0
LINE
  5
81
100
AcDbEntity
  8
USP-GEO
100
AcDbLine
 10
2.163691780317058
 20
0.0519999999999996
 30
0.0
 11
2.413691780317058
 21
0.0519999999999996
 31
0.0
210
0.0
220
1.0
230
0.0000000000000002
  0
LINE
  5
82
100
AcDbEntity
  8
USP-GEO
100
AcDbLine
 10
2.163691780317058
 20
0.3020000000000031
 30
0.0000000000000001
 11
2.163691780317058
 21
0.0519999999999925
 31
0.0
210
0.0
220
1.0
230
0.0000000000000002
  0
LINE
  5
83
100
AcDbEntity
  8
USP-GEO
100
AcDbLine
 10
2.111691780317052
 20
0.3020000000000103
 30
0.0000000000000001
 11
2.111691780317052
 21
0.0
 31
0.0
210
0.0
220
1.0
230
0.0000000000000002
  0
LINE
  5
84
100
AcDbEntity
  8
USP-GEO
100
AcDbLine
 10
2.163691780317055
 20
0.3020000000000067
 30
0.0000000000000001
 11
2.111691780317048
 21
0.3020000000000067
 31
0.0000000000000001
210
0.0
220
1.0
230
0.0000000000000002
  0
LINE
  5
85
100
AcDbEntity
  8
USP-GEO
100
AcDbLine
 10
2.413691780317055
 20
0.0520000000000103
 30
0.0
 11
2.413691780317055
 21
0.0
 31
0.0
210
0.0
220
1.0
230
0.0000000000000002
  0
LINE
  5
86
100
AcDbEntity
  8
USP-GEO
100
AcDbLine
 10
2.163691780317066
 20
1.621028917915811
 30
0.0000000000000004
 11
2.111691780317059
 21
1.621028917915811
 31
0.0000000000000004
210
0.0
220
1.0
230
0.0000000000000002
  0
LINE
  5
87
100
AcDbEntity
  8
USP-GEO
100
AcDbLine
 10
3.778191780317065
 20
0.3020000000000103
 30
0.0000000000000003
 11
3.778191780317065
 21
1.621028917916245
 31
0.0000000000000006
210
0.0
220
1.0
230
0.0000000000000002
  0
LINE
  5
88
100
AcDbEntity
  8
USP-GEO
100
AcDbLine
 10
3.726191780317066
 20
0.3020000000000174
 30
0.0000000000000003
 11
3.726191780317066
 21
1.621028917916245
 31
0.0000000000000006
210
0.0
220
1.0
230
0.0000000000000002
  0
LINE
  5
89
100
AcDbEntity
  8
USP-GEO
100
AcDbLine
 10
3.476191780317058
 20
0.0
 30
0.0000000000000002
 11
3.778191780317058
 21
0.0
 31
0.0000000000000002
210
0.0
220
1.0
230
0.0000000000000002
  0
LINE
  5
8A
100
AcDbEntity
  8
USP-GEO
100
AcDbLine
 10
3.476191780317058
 20
0.0519999999999925
 30
0.0000000000000002
 11
3.726191780317066
 21
0.0519999999999925
 31
0.0000000000000002
210
0.0
220
1.0
230
0.0000000000000002
  0
LINE
  5
8B
100
AcDbEntity
  8
USP-GEO
100
AcDbLine
 10
3.476191780317058
 20
0.0519999999999996
 30
0.0000000000000002
 11
3.476191780317058
 21
0.0
 31
0.0000000000000002
210
0.0
220
1.0
230
0.0000000000000002
  0
LINE
  5
8C
100
AcDbEntity
  8
USP-GEO
100
AcDbLine
 10
3.778191780317058
 20
0.0000000000000107
 30
0.0000000000000002
 11
3.778191780317058
 21
0.3020000000000031
 31
0.0000000000000003
210
0.0
220
1.0
230
0.0000000000000002
  0
LINE
  5
8D
100
AcDbEntity
  8
USP-GEO
100
AcDbLine
 10
3.726191780317058
 20
0.0519999999999996
 30
0.0000000000000002
 11
3.726191780317058
 21
0.3020000000000103
 31
0.0000000000000003
210
0.0
220
1.0
230
0.0000000000000002
  0
LINE
  5
8E
100
AcDbEntity
  8
USP-GEO
100
AcDbLine
 10
3.726191780317066
 20
0.3020000000000174
 30
0.0000000000000003
 11
3.778191780317065
 21
0.3020000000000174
 31
0.0000000000000003
210
0.0
220
1.0
230
0.0000000000000002
  0
LINE
  5
8F
100
AcDbEntity
  8
USP-GEO
100
AcDbLine
 10
3.726191780317066
 20
1.621028917916245
 30
0.0000000000000006
 11
3.778191780317058
 21
1.621028917916245
 31
0.0000000000000006
210
0.0
220
1.0
230
0.0000000000000002
  0
LINE
  5
90
100
AcDbEntity
  8
USP-GEO
100
AcDbLine
 10
4.104091780317027
 20
4.441772201738661
 30
0.0000000000000012
 11
3.962670424079718
 21
4.58319355797597
 31
0.0000000000000012
210
0.0
220
1.0
230
0.0000000000000002
  0
LINE
  5
91
100
AcDbEntity
  8
USP-GEO
100
AcDbLine
 10
4.24551313655435
 20
4.583193557975977
 30
0.0000000000000013
 11
4.104091780317027
 21
4.441772201738658
 31
0.0000000000000012
210
0.0
220
1.0
230
0.0000000000000002
  0
LINE
  5
92
100
AcDbEntity
  8
USP-GEO
100
AcDbLine
 10
5.476798106585132
 20
9.131987303399746
 30
0.0000000000000024
 11
3.970817402053611
 21
3.091828607391896
 31
0.0000000000000009
210
0.0
220
1.0
230
0.0000000000000002
  0
LINE
  5
93
100
AcDbEntity
  8
USP-GEO
100
AcDbLine
 10
1.919066158580505
 20
3.091828607391889
 30
0.0000000000000007
 11
0.4130854540489822
 21
9.131987303399739
 31
0.0000000000000018
210
0.0
220
1.0
230
0.0000000000000002
  0
LINE
  5
94
100
AcDbEntity
  8
USP-HID
100
AcDbLine
 10
5.889883560634142
 20
9.551943557975956
 30
-0.0000000000000001
 11
4.014883560634064
 21
9.551943557975956
 31
-0.0000000000000001
  0
LINE
  5
95
100
AcDbEntity
  8
USP-GEO
100
AcDbLine
 10
1.64437042407976
 20
4.583193557975988
 30
0.000000000000001
 11
1.785791780317083
 21
4.724614914213308
 31
0.000000000000001
210
0.0
220
1.0
230
0.0000000000000002
  0
LINE
  5
96
100
AcDbEntity
  8
USP-GEO
100
AcDbLine
 10
1.785791780317069
 20
4.724614914213294
 30
0.000000000000001
 11
1.927213136554382
 21
4.583193557975981
 31
0.000000000000001
210
0.0
220
1.0
230
0.0000000000000002
  0
ARC
  5
97
100
AcDbEntity
  8
USP-GEO
100
AcDbCircle
 10
1.786572229754028
 20
2.426330635702687
 30
0.0000000000000005
 40
0.5000000000000002
100
AcDbArc
 50
49.44036850054283
 51
51.79899049592084
  0
ARC
  5
98
100
AcDbEntity
  8
USP-GEO
100
AcDbCircle
 10
2.404214021718495
 20
3.212789555191733
 30
0.0000000000000007
 40
0.5000000000000002
100
AcDbArc
 50
194.000000000001
 51
231.9127064025942
  0
LINE
  5
99
100
AcDbEntity
  8
USP-GEO
100
AcDbLine
 10
1.927213136554385
 20
4.583193557975992
 30
0.000000000000001
 11
1.785791780317062
 21
4.441772201738672
 31
0.0000000000000009
210
0.0
220
1.0
230
0.0000000000000002
  0
LINE
  5
9A
100
AcDbEntity
  8
USP-GEO
100
AcDbLine
 10
1.785791780317083
 20
4.441772201738661
 30
0.0000000000000009
 11
1.64437042407976
 21
4.583193557975985
 31
0.000000000000001
210
0.0
220
1.0
230
0.0000000000000002
  0
ARC
  5
9B
100
AcDbEntity
  8
USP-GEO
100
AcDbCircle
 10
3.485669538915608
 20
3.212789555191719
 30
0.0000000000000009
 40
0.5000000000000002
100
AcDbArc
 50
308.0872935974067
 51
346.0000000000013
  0
ARC
  5
9C
100
AcDbEntity
  8
USP-GEO
100
AcDbCircle
 10
4.103311330880085
 20
2.426330635702676
 30
0.0000000000000008
 40
0.5000000000000002
100
AcDbArc
 50
128.2010095040793
 51
130.5596314994547
  0
ARC
  5
9D
100
AcDbEntity
  8
USP-GEO
100
AcDbCircle
 10
5.719372038154126
 20
9.071506829499849
 30
0.0000000000000025
 40
0.2500000000000001
100
AcDbArc
 50
112.3145863849161
 51
166.0000000000038
  0
LINE
  5
9E
100
AcDbEntity
  8
USP-GEO
100
AcDbLine
 10
5.267274349099533
 20
9.603943557975952
 30
0.0000000000000025
 11
5.889883560634146
 21
9.603943557975981
 31
0.0000000000000026
210
0.0
220
1.0
230
0.0000000000000002
  0
LINE
  5
9F
100
AcDbEntity
  8
USP-GEO
100
AcDbLine
 10
3.962670424079718
 20
4.583193557975985
 30
0.0000000000000012
 11
4.104091780317034
 21
4.724614914213301
 31
0.0000000000000013
210
0.0
220
1.0
230
0.0000000000000002
  0
LINE
  5
A0
100
AcDbEntity
  8
USP-GEO
100
AcDbLine
 10
4.10409178031703
 20
4.72461491421329
 30
0.0000000000000013
 11
4.245513136554343
 21
4.583193557975977
 31
0.0000000000000013
210
0.0
220
1.0
230
0.0000000000000002
  0
LINE
  5
A1
100
AcDbEntity
  8
USP-GEO
100
AcDbLine
 10
1.497609211534609
 20
9.603943557975973
 30
0.0000000000000021
 11
1.185109211534609
 21
9.603943557975973
 31
0.000000000000002
210
0.0
220
1.0
230
0.0000000000000002
  0
LINE
  5
A2
100
AcDbEntity
  8
USP-GEO
100
AcDbLine
 10
1.185109211534609
 20
9.551943557975963
 30
0.000000000000002
 11
1.497609211534609
 21
9.551943557975963
 31
0.000000000000002
210
0.0
220
1.0
230
0.0000000000000002
  0
ARC
  5
A3
100
AcDbEntity
  8
USP-GEO
100
AcDbCircle
 10
1.341359211534594
 20
9.052193557976007
 30
0.0000000000000019
 40
0.15625
100
AcDbArc
 50
180.0000000000038
 51
359.999999999996
  0
LINE
  5
A4
100
AcDbEntity
  8
USP-GEO
100
AcDbLine
 10
1.185109211534587
 20
9.603943557975966
 30
0.000000000000002
 11
1.185109211534587
 21
9.052193557975996
 31
0.0000000000000019
210
0.0
220
1.0
230
0.0000000000000002
  0
LINE
  5
A5
100
AcDbEntity
  8
USP-GEO
100
AcDbLine
 10
0.9351092115345807
 20
9.052193557976
 30
0.0000000000000019
 11
0.9351092115345949
 21
9.603943557975966
 31
0.000000000000002
210
0.0
220
1.0
230
0.0000000000000002
  0
LINE
  5
A6
100
AcDbEntity
  8
USP-GEO
100
AcDbLine
 10
0.6226092115345879
 20
9.603943557975984
 30
0.000000000000002
 11
0.6226092115345736
 21
9.052193557975996
 31
0.0000000000000018
210
0.0
220
1.0
230
0.0000000000000002
  0
ARC
  5
A7
100
AcDbEntity
  8
USP-GEO
100
AcDbCircle
 10
0.7788592115345736
 20
9.052193557976
 30
0.0000000000000018
 40
0.15625
100
AcDbArc
 50
180.0000000000012
 51
0.0
  0
ARC
  5
A8
100
AcDbEntity
  8
USP-GEO
100
AcDbCircle
 10
0.1705115224799698
 20
9.071506829499853
 30
0.0000000000000018
 40
0.2500000000000001
100
AcDbArc
 50
13.99999999999206
 51
67.68541361508202
  0
CIRCLE
  5
A9
100
AcDbEntity
  8
USP-GEO
100
AcDbCircle
 10
1.058325875594029
 20
8.895943557975989
 30
0.0000000000000018
 40
0.0900000000000001
  0
LINE
  5
AA
100
AcDbEntity
  8
USP-GEO
100
AcDbLine
 10
0.9351092115346162
 20
9.603943557975966
 30
0.000000000000002
 11
0.6226092115346163
 21
9.603943557975966
 31
0.000000000000002
210
0.0
220
1.0
230
0.0000000000000002
  0
LINE
  5
AB
100
AcDbEntity
  8
USP-GEO
100
AcDbLine
 10
0.6226092115346234
 20
9.551943557975967
 30
0.0000000000000019
 11
0.9351092115346233
 21
9.551943557975967
 31
0.000000000000002
210
0.0
220
1.0
230
0.0000000000000002
  0
LINE
  5
AC
100
AcDbEntity
  8
USP-GEO
100
AcDbLine
 10
0.9351092115345949
 20
9.603943557975966
 30
0.000000000000002
 11
1.185109211534591
 21
9.603943557975966
 31
0.000000000000002
210
0.0
220
1.0
230
0.0000000000000002
  0
LINE
  5
AD
100
AcDbEntity
  8
USP-GEO
100
AcDbLine
 10
1.875000000000014
 20
9.603943557975956
 30
0.0000000000000021
 11
1.875000000000042
 21
9.489443557975906
 31
0.0000000000000021
210
0.0
220
1.0
230
0.0000000000000002
  0
LINE
  5
AE
100
AcDbEntity
  8
USP-GEO
100
AcDbLine
 10
1.497609211534584
 20
9.052193557975996
 30
0.0000000000000019
 11
1.49760921153457
 21
9.603943557975966
 31
0.0000000000000021
210
0.0
220
1.0
230
0.0000000000000002
  0
LINE
  5
AF
100
AcDbEntity
  8
USP-GEO
100
AcDbLine
 10
2.163691780317069
 20
9.365941733139571
 30
0.0000000000000021
 11
2.111691780317059
 21
9.365941733139571
 31
0.0000000000000021
210
0.0
220
1.0
230
0.0000000000000002
  0
LINE
  5
B0
100
AcDbEntity
  8
USP-GEO
100
AcDbLine
 10
2.163691780317066
 20
9.302841543095802
 30
0.0000000000000021
 11
2.163691780317066
 21
9.132043745423786
 31
0.000000000000002
210
0.0
220
1.0
230
0.0000000000000002
  0
LINE
  5
B1
100
AcDbEntity
  8
USP-GEO
100
AcDbLine
 10
2.111691780317059
 20
9.302841543095794
 30
0.0000000000000021
 11
2.111691780317059
 21
9.132043745423771
 31
0.000000000000002
210
0.0
220
1.0
230
0.0000000000000002
  0
LINE
  5
B2
100
AcDbEntity
  8
USP-GEO
100
AcDbLine
 10
2.163691780317066
 20
9.302841543095805
 30
0.0000000000000021
 11
2.163691780317066
 21
9.365941733139578
 31
0.0000000000000021
210
0.0
220
1.0
230
0.0000000000000002
  0
LINE
  5
B3
100
AcDbEntity
  8
USP-GEO
100
AcDbLine
 10
2.111691780317059
 20
9.365941733139578
 30
0.0000000000000021
 11
2.111691780317059
 21
9.302841543095812
 31
0.0000000000000021
210
0.0
220
1.0
230
0.0000000000000002
  0
ARC
  5
B4
100
AcDbEntity
  8
USP-GEO
100
AcDbCircle
 10
2.062500000000035
 20
9.521193557975898
 30
0.0000000000000021
 40
0.125
100
AcDbArc
 50
228.9380685317194
 51
247.6854136150794
  0
ARC
  5
B5
100
AcDbEntity
  8
USP-GEO
100
AcDbCircle
 10
1.937500000000039
 20
9.489443557975913
 30
0.0000000000000021
 40
0.0625
100
AcDbArc
 50
180.0000000000065
 51
270.0000000000032
  0
LINE
  5
B6
100
AcDbEntity
  8
USP-GEO
100
AcDbLine
 10
1.937500000000042
 20
9.426943557975903
 30
0.0000000000000021
 11
1.98039069784734
 21
9.426943557975903
 31
0.0000000000000021
210
0.0
220
1.0
230
0.0000000000000002
  0
LINE
  5
B7
100
AcDbEntity
  8
USP-GEO
100
AcDbLine
 10
2.01503853905881
 20
9.405554422189922
 30
0.0000000000000021
 11
2.111691780317013
 21
9.365885291115542
 31
0.0000000000000021
210
0.0
220
1.0
230
0.0000000000000002
  0
LINE
  5
B8
100
AcDbEntity
  8
USP-GEO
100
AcDbLine
 10
1.49760921153457
 20
9.60394355797597
 30
0.0000000000000021
 11
1.875000000000014
 21
9.603943557975956
 31
0.0000000000000021
210
0.0
220
1.0
230
0.0000000000000002
  0
LINE
  5
B9
100
AcDbEntity
  8
USP-GEO
100
AcDbLine
 10
4.014883560634068
 20
9.603943557975931
 30
0.0000000000000024
 11
4.392274349099523
 21
9.603943557975945
 31
0.0000000000000024
210
0.0
220
1.0
230
0.0000000000000002
  0
LINE
  5
BA
100
AcDbEntity
  8
USP-GEO
100
AcDbLine
 10
4.014883560634064
 20
9.489443557975903
 30
0.0000000000000023
 11
4.014883560634064
 21
9.603943557975931
 31
0.0000000000000024
210
0.0
220
1.0
230
0.0000000000000002
  0
LINE
  5
BB
100
AcDbEntity
  8
USP-GEO
100
AcDbLine
 10
3.778191780317058
 20
9.365885291115549
 30
0.0000000000000023
 11
3.874845021575296
 21
9.405554422189926
 31
0.0000000000000023
210
0.0
220
1.0
230
0.0000000000000002
  0
LINE
  5
BC
100
AcDbEntity
  8
USP-GEO
100
AcDbLine
 10
3.726191780317051
 20
9.365941733139578
 30
0.0000000000000023
 11
3.778191780317062
 21
9.365941733139578
 31
0.0000000000000023
210
0.0
220
1.0
230
0.0000000000000002
  0
LINE
  5
BD
100
AcDbEntity
  8
USP-GEO
100
AcDbLine
 10
3.778191780317065
 20
9.132043745423793
 30
0.0000000000000022
 11
3.778191780317065
 21
9.302841543095816
 31
0.0000000000000023
210
0.0
220
1.0
230
0.0000000000000002
  0
LINE
  5
BE
100
AcDbEntity
  8
USP-GEO
100
AcDbLine
 10
3.726191780317073
 20
9.132043745423793
 30
0.0000000000000022
 11
3.726191780317073
 21
9.302841543095809
 31
0.0000000000000023
210
0.0
220
1.0
230
0.0000000000000002
  0
LINE
  5
BF
100
AcDbEntity
  8
USP-GEO
100
AcDbLine
 10
3.778191780317062
 20
9.302841543095809
 30
0.0000000000000023
 11
3.778191780317062
 21
9.365941733139578
 31
0.0000000000000023
210
0.0
220
1.0
230
0.0000000000000002
  0
LINE
  5
C0
100
AcDbEntity
  8
USP-GEO
100
AcDbLine
 10
3.726191780317051
 20
9.365941733139578
 30
0.0000000000000023
 11
3.726191780317051
 21
9.302841543095812
 31
0.0000000000000023
210
0.0
220
1.0
230
0.0000000000000002
  0
ARC
  5
C1
100
AcDbEntity
  8
USP-GEO
100
AcDbCircle
 10
3.952383560634071
 20
9.489443557975906
 30
0.0000000000000023
 40
0.0625
100
AcDbArc
 50
269.9999999999951
 51
359.9999999999959
  0
ARC
  5
C2
100
AcDbEntity
  8
USP-GEO
100
AcDbCircle
 10
3.827383560634071
 20
9.521193557975891
 30
0.0000000000000023
 40
0.125
100
AcDbArc
 50
292.3145863849205
 51
311.0619314682826
  0
LINE
  5
C3
100
AcDbEntity
  8
USP-GEO
100
AcDbLine
 10
3.909492862786773
 20
9.426943557975906
 30
0.0000000000000023
 11
3.952383560634068
 21
9.426943557975906
 31
0.0000000000000023
210
0.0
220
1.0
230
0.0000000000000002
  0
LINE
  5
C4
100
AcDbEntity
  8
USP-GEO
100
AcDbLine
 10
5.267274349099533
 20
9.052193557975989
 30
0.0000000000000024
 11
5.267274349099533
 21
9.603943557975952
 31
0.0000000000000025
210
0.0
220
1.0
230
0.0000000000000002
  0
LINE
  5
C5
100
AcDbEntity
  8
USP-GEO
100
AcDbLine
 10
4.954774349099494
 20
9.603943557975959
 30
0.0000000000000025
 11
4.954774349099523
 21
9.052193557975989
 31
0.0000000000000024
210
0.0
220
1.0
230
0.0000000000000002
  0
LINE
  5
C6
100
AcDbEntity
  8
USP-GEO
100
AcDbLine
 10
4.704774349099526
 20
9.052193557975982
 30
0.0000000000000023
 11
4.704774349099526
 21
9.603943557975966
 31
0.0000000000000025
210
0.0
220
1.0
230
0.0000000000000002
  0
LINE
  5
C7
100
AcDbEntity
  8
USP-GEO
100
AcDbLine
 10
4.392274349099515
 20
9.603943557975966
 30
0.0000000000000024
 11
4.392274349099515
 21
9.052193557975982
 31
0.0000000000000023
210
0.0
220
1.0
230
0.0000000000000002
  0
CIRCLE
  5
C8
100
AcDbEntity
  8
USP-GEO
100
AcDbCircle
 10
4.831557685040088
 20
8.895943557975975
 30
0.0000000000000023
 40
0.0900000000000001
  0
ARC
  5
C9
100
AcDbEntity
  8
USP-GEO
100
AcDbCircle
 10
4.548524349099526
 20
9.052193557975993
 30
0.0000000000000023
 40
0.15625
100
AcDbArc
 50
180.0000000000038
 51
359.9999999999965
  0
ARC
  5
CA
100
AcDbEntity
  8
USP-GEO
100
AcDbCircle
 10
5.11102434909953
 20
9.052193557975979
 30
0.0000000000000024
 40
0.15625
100
AcDbArc
 50
179.999999999996
 51
0.0000000000051907
  0
LINE
  5
CB
100
AcDbEntity
  8
USP-GEO
100
AcDbLine
 10
4.704774349099526
 20
9.603943557975966
 30
0.0000000000000025
 11
4.954774349099508
 21
9.603943557975952
 31
0.0000000000000025
210
0.0
220
1.0
230
0.0000000000000002
  0
LINE
  5
CC
100
AcDbEntity
  8
USP-GEO
100
AcDbLine
 10
4.704774349099508
 20
9.603943557975995
 30
0.0000000000000025
 11
4.392274349099508
 21
9.603943557975995
 31
0.0000000000000024
210
0.0
220
1.0
230
0.0000000000000002
  0
LINE
  5
CD
100
AcDbEntity
  8
USP-GEO
100
AcDbLine
 10
4.392274349099505
 20
9.551943557975974
 30
0.0000000000000024
 11
4.704774349099505
 21
9.551943557975974
 31
0.0000000000000024
210
0.0
220
1.0
230
0.0000000000000002
  0
LINE
  5
CE
100
AcDbEntity
  8
USP-GEO
100
AcDbLine
 10
5.267274349099501
 20
9.603943557975981
 30
0.0000000000000025
 11
4.954774349099501
 21
9.603943557975981
 31
0.0000000000000025
210
0.0
220
1.0
230
0.0000000000000002
  0
LINE
  5
CF
100
AcDbEntity
  8
USP-GEO
100
AcDbLine
 10
4.954774349099494
 20
9.551943557975977
 30
0.0000000000000025
 11
5.267274349099494
 21
9.551943557975977
 31
0.0000000000000025
210
0.0
220
1.0
230
0.0000000000000002
  0
LINE
  5
D0
100
AcDbEntity
  8
USP-GEO
100
AcDbLine
 10
5.889883560634146
 20
9.603943557975981
 30
0.0000000000000026
 11
5.889883560634132
 21
9.412940382502817
 31
0.0000000000000026
210
0.0
220
1.0
230
0.0000000000000002
  0
LINE
  5
D1
100
AcDbEntity
  8
USP-GEO
100
AcDbLine
 10
5.874845021575413
 20
9.405554422189901
 30
0.0000000000000025
 11
5.624449116271705
 21
9.302785101071773
 31
0.0000000000000025
210
0.0
220
1.0
230
0.0000000000000002
  0
ARC
  5
D2
100
AcDbEntity
  8
USP-GEO
100
AcDbCircle
 10
5.827383560634181
 20
9.521193557975884
 30
0.0000000000000026
 40
0.125
100
AcDbArc
 50
292.3145863849219
 51
299.9999999999765
  0
ENDBLK
  5
D4
100
AcDbEntity
  8
0
100
AcDbBlockEnd
  0
BLOCK
  5
10C
100
AcDbEntity
  8
0
100
AcDbBlockBegin
  2
THO15950_S
 70
     0
 10
0.0
 20
0.0
 30
0.0
  3
THO15950_S
  1

  0
ARC
  5
D7
100
AcDbEntity
  8
USP-GEO
100
AcDbCircle
 10
1.226099999999959
 20
2.427000000000024
 30
-0.0000000000000001
 40
0.5000000000000157
100
AcDbArc
 50
0.0000000000008142
 51
49.32254796613155
  0
LINE
  5
D8
100
AcDbEntity
  8
USP-GEO
100
AcDbLine
 10
2.851099999999963
 20
4.583249999999967
 30
0.0000000000000002
 11
2.851099999999963
 21
1.208250000000003
 31
0.0000000000000002
210
0.0000000000000002
220
1.0
230
0.0
  0
LINE
  5
D9
100
AcDbEntity
  8
USP-GEO
100
AcDbLine
 10
2.538599999999959
 20
1.208249999999996
 30
0.0000000000000001
 11
2.538599999999959
 21
4.583249999999967
 31
0.0000000000000001
210
0.0000000000000002
220
1.0
230
0.0
  0
LINE
  5
DA
100
AcDbEntity
  8
USP-GEO
100
AcDbLine
 10
2.288599999999959
 20
4.583249999999964
 30
0.0000000000000001
 11
2.288599999999973
 21
1.208250000000006
 31
0.0000000000000001
210
0.0000000000000002
220
1.0
230
0.0
  0
LINE
  5
DB
100
AcDbEntity
  8
USP-GEO
100
AcDbLine
 10
1.976099999999981
 20
1.208249999999999
 30
0.0
 11
1.976099999999952
 21
4.583249999999978
 31
0.0
210
0.0000000000000002
220
1.0
230
0.0
  0
LINE
  5
DC
100
AcDbEntity
  8
USP-GEO
100
AcDbLine
 10
1.853393673732036
 20
9.132043745423775
 30
0.0
 11
3.726100000000116
 21
1.621028917915843
 31
0.0000000000000004
210
0.0000000000000002
220
1.0
230
0.0
  0
TEXT
  5
DD
100
AcDbEntity
  8
USP-TXT
100
AcDbText
 10
-1.595165366428033
 20
-0.8377964361307768
 30
0.0
 40
0.3608572556272733
  1
THO15950 - SIDE VIEW
 72
     1
 11
1.863050000000004
 21
-0.8377964361307768
 31
0.0
100
AcDbText
  0
ARC
  5
DE
100
AcDbEntity
  8
USP-GEO
100
AcDbCircle
 10
2.132349999999995
 20
1.208250000000006
 30
0.0000000000000001
 40
0.15625
100
AcDbArc
 50
180.0000000000025
 51
359.9999999999994
  0
LINE
  5
DF
100
AcDbEntity
  8
USP-GEO
100
AcDbLine
 10
3.663600000000005
 20
-0.0000000000000036
 30
0.0000000000000004
 11
1.788599999999959
 21
-0.0000000000000036
 31
0.0
210
0.0000000000000002
220
1.0
230
0.0
  0
LINE
  5
E0
100
AcDbEntity
  8
USP-HID
100
AcDbLine
 10
1.788599999999966
 20
0.0520000000000032
 30
0.0
 11
3.663600000000016
 21
0.0520000000000138
 31
0.0000000000000004
  0
LINE
  5
E1
100
AcDbEntity
  8
USP-GEO
100
AcDbLine
 10
1.726099999999973
 20
0.3020000000000138
 30
0.0
 11
1.726099999999973
 21
2.427000000000031
 31
0.0
210
0.0000000000000002
220
1.0
230
0.0
  0
LINE
  5
E2
100
AcDbEntity
  8
USP-GEO
100
AcDbLine
 10
1.788599999999959
 20
-0.0000000000000036
 30
0.0
 11
1.788599999999973
 21
0.302000000000028
 31
0.0
210
0.0000000000000002
220
1.0
230
0.0
  0
LINE
  5
E3
100
AcDbEntity
  8
USP-GEO
100
AcDbLine
 10
1.788599999999966
 20
0.0520000000000032
 30
0.0
 11
1.726099999999959
 21
0.0520000000000032
 31
0.0
210
0.0000000000000002
220
1.0
230
0.0
  0
LINE
  5
E4
100
AcDbEntity
  8
USP-GEO
100
AcDbLine
 10
1.726099999999966
 20
0.0000000000000071
 30
0.0
 11
1.788599999999959
 21
0.0000000000000071
 31
0.0
210
0.0000000000000002
220
1.0
230
0.0
  0
LINE
  5
E5
100
AcDbEntity
  8
USP-GEO
100
AcDbLine
 10
1.726099999999959
 20
0.0520000000000032
 30
0.0
 11
1.726099999999959
 21
0.0
 31
0.0
210
0.0000000000000002
220
1.0
230
0.0
  0
LINE
  5
E6
100
AcDbEntity
  8
USP-GEO
100
AcDbLine
 10
1.788599999999973
 20
0.3020000000000174
 30
0.0
 11
1.726099999999973
 21
0.3020000000000174
 31
0.0
210
0.0000000000000002
220
1.0
230
0.0
  0
LINE
  5
E7
100
AcDbEntity
  8
USP-GEO
100
AcDbLine
 10
3.726100000000009
 20
1.621028917915818
 30
0.0000000000000004
 11
3.726100000000009
 21
0.3020000000000174
 31
0.0000000000000004
210
0.0000000000000002
220
1.0
230
0.0
  0
LINE
  5
E8
100
AcDbEntity
  8
USP-GEO
100
AcDbLine
 10
3.663600000000037
 20
0.3020000000000138
 30
0.0000000000000004
 11
3.663600000000023
 21
0.0000000000000036
 31
0.0000000000000004
210
0.0000000000000002
220
1.0
230
0.0
  0
LINE
  5
E9
100
AcDbEntity
  8
USP-GEO
100
AcDbLine
 10
3.726100000000023
 20
0.0520000000000138
 30
0.0000000000000004
 11
3.663600000000016
 21
0.0520000000000138
 31
0.0000000000000004
210
0.0000000000000002
220
1.0
230
0.0
  0
LINE
  5
EA
100
AcDbEntity
  8
USP-GEO
100
AcDbLine
 10
3.663600000000016
 20
0.0000000000000036
 30
0.0000000000000004
 11
3.726100000000016
 21
0.0000000000000036
 31
0.0000000000000004
210
0.0000000000000002
220
1.0
230
0.0
  0
LINE
  5
EB
100
AcDbEntity
  8
USP-GEO
100
AcDbLine
 10
3.726100000000023
 20
0.0520000000000138
 30
0.0000000000000004
 11
3.726100000000023
 21
0.0000000000000036
 31
0.0000000000000004
210
0.0000000000000002
220
1.0
230
0.0
  0
LINE
  5
EC
100
AcDbEntity
  8
USP-GEO
100
AcDbLine
 10
3.726100000000016
 20
0.3020000000000174
 30
0.0000000000000004
 11
3.663600000000037
 21
0.3020000000000174
 31
0.0000000000000004
210
0.0000000000000002
220
1.0
230
0.0
  0
CIRCLE
  5
ED
100
AcDbEntity
  8
USP-GEO
100
AcDbCircle
 10
3.426100000000019
 20
1.410749999999989
 30
0.0000000000000003
 40
0.2187500000000001
  0
ARC
  5
EE
100
AcDbEntity
  8
USP-GEO
100
AcDbCircle
 10
2.694849999999973
 20
1.208249999999996
 30
0.0000000000000002
 40
0.15625
100
AcDbArc
 50
180.0
 51
0.0000000000026462
  0
LINE
  5
EF
100
AcDbEntity
  8
USP-GEO
100
AcDbLine
 10
3.049323746645125
 20
1.028776253354937
 30
0.0000000000000002
 11
3.4028762533549
 21
1.028776253354937
 31
0.0000000000000003
210
0.0000000000000002
220
1.0
230
0.0
  0
LINE
  5
F0
100
AcDbEntity
  8
USP-GEO
100
AcDbLine
 10
3.049327724120772
 20
1.028772275879273
 30
0.0000000000000002
 11
3.402872275879264
 21
1.028772275879273
 31
0.0000000000000003
210
0.0000000000000002
220
1.0
230
0.0
  0
LINE
  5
F1
100
AcDbEntity
  8
USP-GEO
100
AcDbLine
 10
3.226100000000005
 20
0.8519999999999932
 30
0.0000000000000003
 11
3.049323746645107
 21
1.028776253354919
 31
0.0000000000000002
210
0.0000000000000002
220
1.0
230
0.0
  0
LINE
  5
F2
100
AcDbEntity
  8
USP-GEO
100
AcDbLine
 10
3.4028762533549
 20
1.028776253354934
 30
0.0000000000000003
 11
3.226100000000005
 21
0.8520000000000074
 31
0.0000000000000003
210
0.0000000000000002
220
1.0
230
0.0
  0
CIRCLE
  5
F3
100
AcDbEntity
  8
USP-GEO
100
AcDbCircle
 10
2.051100000000026
 20
6.070750000000003
 30
0.0000000000000001
 40
0.15625
  0
ARC
  5
F4
100
AcDbEntity
  8
USP-GEO
100
AcDbCircle
 10
2.132349999999988
 20
4.583249999999974
 30
0.0000000000000001
 40
0.15625
100
AcDbArc
 50
359.9999999999939
 51
179.9999999999986
  0
LINE
  5
F5
100
AcDbEntity
  8
USP-GEO
100
AcDbLine
 10
1.551999999999956
 20
3.091828607391892
 30
0.0
 11
1.551999999999956
 21
9.131987303399743
 31
0.0
210
0.0000000000000002
220
1.0
230
0.0
  0
LINE
  5
F6
100
AcDbEntity
  8
USP-GEO
100
AcDbLine
 10
1.499999999999964
 20
3.091828607391896
 30
0.0
 11
1.499999999999964
 21
9.131987303399743
 31
0.0
210
0.0000000000000002
220
1.0
230
0.0
  0
LINE
  5
F7
100
AcDbEntity
  8
USP-GEO
100
AcDbLine
 10
1.499999999999964
 20
2.819253634308072
 30
0.0
 11
1.551999999999978
 21
2.819253634308072
 31
0.0
210
0.0000000000000002
220
1.0
230
0.0
  0
LINE
  5
F8
100
AcDbEntity
  8
USP-GEO
100
AcDbLine
 10
1.551999999999956
 20
2.806195450922125
 30
0.0
 11
1.499999999999957
 21
2.806195450922125
 31
0.0
210
0.0000000000000002
220
1.0
230
0.0
  0
LINE
  5
F9
100
AcDbEntity
  8
USP-GEO
100
AcDbLine
 10
1.499999999999964
 20
2.819253634308083
 30
0.0
 11
1.499999999999964
 21
2.806195450922128
 31
0.0
210
0.0000000000000002
220
1.0
230
0.0
  0
LINE
  5
FA
100
AcDbEntity
  8
USP-GEO
100
AcDbLine
 10
1.551999999999964
 20
2.806195450922118
 30
0.0
 11
1.551999999999964
 21
2.819253634308079
 31
0.0
210
0.0000000000000002
220
1.0
230
0.0
  0
LINE
  5
FB
100
AcDbEntity
  8
USP-GEO
100
AcDbLine
 10
1.551999999999964
 20
2.819253634308083
 30
0.0
 11
1.551999999999964
 21
3.091828607391892
 31
0.0
210
0.0000000000000002
220
1.0
230
0.0
  0
LINE
  5
FC
100
AcDbEntity
  8
USP-GEO
100
AcDbLine
 10
1.499999999999957
 20
2.819253634308079
 30
0.0
 11
1.499999999999957
 21
3.091828607391896
 31
0.0
210
0.0000000000000002
220
1.0
230
0.0
  0
LINE
  5
FD
100
AcDbEntity
  8
USP-GEO
100
AcDbLine
 10
0.0
 20
9.551943557975956
 30
-0.0000000000000003
 11
1.499999999999992
 21
9.551943557975956
 31
0.0
210
0.0000000000000002
220
1.0
230
0.0
  0
LINE
  5
FE
100
AcDbEntity
  8
USP-GEO
100
AcDbLine
 10
1.551999999999971
 20
9.603943557975977
 30
0.0
 11
0.0
 21
9.603943557975977
 31
-0.0000000000000003
210
0.0000000000000002
220
1.0
230
0.0
  0
LINE
  5
FF
100
AcDbEntity
  8
USP-GEO
100
AcDbLine
 10
0.0
 20
9.551943557975956
 30
-0.0000000000000003
 11
0.0
 21
9.603943557975977
 31
-0.0000000000000003
210
0.0000000000000002
220
1.0
230
0.0
  0
LINE
  5
100
100
AcDbEntity
  8
USP-GEO
100
AcDbLine
 10
1.551999999999971
 20
9.412940382502814
 30
0.0
 11
1.551999999999971
 21
9.60394355797597
 31
0.0
210
0.0000000000000002
220
1.0
230
0.0
  0
LINE
  5
101
100
AcDbEntity
  8
USP-GEO
100
AcDbLine
 10
1.499999999999964
 20
9.412940382502821
 30
0.0
 11
1.499999999999964
 21
9.55194355797597
 31
0.0
210
0.0000000000000002
220
1.0
230
0.0
  0
ARC
  5
102
100
AcDbEntity
  8
USP-GEO
100
AcDbCircle
 10
1.61081974216303
 20
9.071563271523856
 30
0.0
 40
0.2500000000000001
100
AcDbArc
 50
14.00000000000038
 51
67.68541361508467
  0
LINE
  5
103
100
AcDbEntity
  8
USP-GEO
100
AcDbLine
 10
1.551999999999964
 20
9.405554422189918
 30
0.0
 11
1.551999999999964
 21
9.41294038250281
 31
0.0
210
0.0000000000000002
220
1.0
230
0.0
  0
LINE
  5
104
100
AcDbEntity
  8
USP-GEO
100
AcDbLine
 10
1.499999999999964
 20
9.405554422189918
 30
0.0
 11
1.499999999999964
 21
9.412940382502807
 31
0.0
210
0.0000000000000002
220
1.0
230
0.0
  0
LINE
  5
105
100
AcDbEntity
  8
USP-GEO
100
AcDbLine
 10
1.499999999999964
 20
9.412940382502821
 30
0.0
 11
1.551999999999978
 21
9.412940382502821
 31
0.0
210
0.0000000000000002
220
1.0
230
0.0
  0
LINE
  5
106
100
AcDbEntity
  8
USP-GEO
100
AcDbLine
 10
1.551999999999971
 20
9.131987303399739
 30
0.0
 11
1.551999999999971
 21
9.302785101071791
 31
0.0
210
0.0000000000000002
220
1.0
230
0.0
  0
LINE
  5
107
100
AcDbEntity
  8
USP-GEO
100
AcDbLine
 10
1.499999999999964
 20
9.302785101071783
 30
0.0
 11
1.499999999999964
 21
9.131987303399743
 31
0.0
210
0.0000000000000002
220
1.0
230
0.0
  0
LINE
  5
108
100
AcDbEntity
  8
USP-GEO
100
AcDbLine
 10
1.551999999999999
 20
9.365941733139582
 30
0.0
 11
1.705742664045459
 21
9.302841543095816
 31
0.0
210
0.0000000000000002
220
1.0
230
0.0
  0
LINE
  5
109
100
AcDbEntity
  8
USP-GEO
100
AcDbLine
 10
1.499999999999964
 20
9.405554422189901
 30
0.0
 11
1.499999999999964
 21
9.302785101071805
 31
0.0
210
0.0000000000000002
220
1.0
230
0.0
  0
LINE
  5
10A
100
AcDbEntity
  8
USP-GEO
100
AcDbLine
 10
1.551999999999971
 20
9.302785101071808
 30
0.0
 11
1.551999999999971
 21
9.405554422189904
 31
0.0
210
0.0000000000000002
220
1.0
230
0.0
  0
ARC
  5
10B
100
AcDbEntity
  8
USP-GEO
100
AcDbCircle
 10
2.694849999999973
 20
4.583249999999967
 30
0.0000000000000002
 40
0.15625
100
AcDbArc
 50
359.9999999999994
 51
180.0
  0
ENDBLK
  5
10D
100
AcDbEntity
  8
0
100
AcDbBlockEnd
  0
ENDSEC
  0
SECTION
  2
ENTITIES
  0
INSERT
  5
3
100
AcDbEntity
  8
USP
100
AcDbBlockReference
  2
THO15950_T
 10
8.969614760991145
 20
12.33469381690028
 30
-0.0000000000000015
  0
INSERT
  5
6E
100
AcDbEntity
  8
USP
100
AcDbBlockReference
  2
THO15950_F
 10
8.969614760991159
 20
0.8382865680568693
 30
-0.0000000000000016
  0
INSERT
  5
D5
100
AcDbEntity
  8
USP
100
AcDbBlockReference
  2
THO15950_S
 10
1.59564181121934
 20
0.8382865680568693
 30
-0.0000000000000014
  0
ENDSEC
  0
SECTION
  2
OBJECTS
  0
DICTIONARY
  5
129
102
{ACAD_XDICTIONARY
360
12A
102
}
100
AcDbDictionary
  3
ACAD_GROUP
350
126
  3
ACAD_MLINESTYLE
350
127
  0
DICTIONARY
  5
11B
100
AcDbDictionary
280
     1
  0
DICTIONARY
  5
11D
100
AcDbDictionary
280
     1
  0
DICTIONARY
  5
6
100
AcDbDictionary
280
     1
  0
DICTIONARY
  5
B
100
AcDbDictionary
280
     1
  0
DICTIONARY
  5
12E
100
AcDbDictionary
280
     1
  0
DICTIONARY
  5
10E
100
AcDbDictionary
280
     1
  3
ACAD_LAYOUTSELFREF
360
10F
  0
DICTIONARY
  5
113
100
AcDbDictionary
280
     1
  3
ACAD_LAYOUTSELFREF
360
114
  0
DICTIONARY
  5
12A
100
AcDbDictionary
280
     1
  3
ACAD_XREC_ROUNDTRIP
360
12B
  0
DICTIONARY
  5
126
102
{ACAD_REACTORS
330
129
102
}
100
AcDbDictionary
  0
DICTIONARY
  5
127
102
{ACAD_XDICTIONARY
360
128
102
}
102
{ACAD_REACTORS
330
129
102
}
100
AcDbDictionary
  3
STANDARD
350
12C
  0
XRECORD
  5
10F
102
{ACAD_REACTORS
330
10E
102
}
100
AcDbXrecord
340
2
  0
XRECORD
  5
114
102
{ACAD_REACTORS
330
113
102
}
100
AcDbXrecord
340
114
  0
XRECORD
  5
12B
102
{ACAD_REACTORS
330
12A
102
}
100
AcDbXrecord
102
EXTNAMES
  1
ACDBVARIABLEDICTIONARY
  2
AcDbVariableDictionary
  0
DICTIONARY
  5
128
100
AcDbDictionary
280
     1
  0
MLINESTYLE
  5
12C
102
{ACAD_REACTORS
330
127
102
}
100
AcDbMlineStyle
  2
STANDARD
 70
     0
  3

 62
   256
 51
90.0
 52
90.0
 71
     2
 49
0.5
 62
   256
  6
BYLAYER
 49
-0.5
 62
   256
  6
BYLAYER
  0
ENDSEC
  0
EOF
