  0
SECTION
  2
HEADER
  9
$ACADVER
  1
AC1014
  9
$ACADMAINTVER
 70
     9
  9
$DWGCODEPAGE
  3
ANSI_1252
  9
$INSBASE
 10
0.0
 20
0.0
 30
0.0
  9
$EXTMIN
 10
0.000642704291252
 20
0.0006301660639066
 30
-0.000000000000009
  9
$EXTMAX
 10
21.06190172701546
 20
20.65142674540049
 30
-0.0000000000000058
  9
$LIMMIN
 10
0.0
 20
0.0
  9
$LIMMAX
 10
12.0
 20
9.0
  9
$ORTHOMODE
 70
     0
  9
$REGENMODE
 70
     1
  9
$FILLMODE
 70
     1
  9
$QTEXTMODE
 70
     0
  9
$MIRRTEXT
 70
     1
  9
$DRAGMODE
 70
     2
  9
$LTSCALE
 40
1.0
  9
$OSMODE
 70
    37
  9
$ATTMODE
 70
     1
  9
$TEXTSIZE
 40
0.6192700636950761
  9
$TRACEWID
 40
0.05
  9
$TEXTSTYLE
  7
STANDARD
  9
$CLAYER
  8
0
  9
$CELTYPE
  6
BYLAYER
  9
$CECOLOR
 62
   256
  9
$CELTSCALE
 40
1.0
  9
$DELOBJ
 70
     1
  9
$DISPSILH
 70
     0
  9
$DIMSCALE
 40
1.0
  9
$DIMASZ
 40
0.18
  9
$DIMEXO
 40
0.0625
  9
$DIMDLI
 40
0.38
  9
$DIMRND
 40
0.0
  9
$DIMDLE
 40
0.0
  9
$DIMEXE
 40
0.18
  9
$DIMTP
 40
0.0
  9
$DIMTM
 40
0.0
  9
$DIMTXT
 40
0.18
  9
$DIMCEN
 40
0.09
  9
$DIMTSZ
 40
0.0
  9
$DIMTOL
 70
     0
  9
$DIMLIM
 70
     0
  9
$DIMTIH
 70
     1
  9
$DIMTOH
 70
     1
  9
$DIMSE1
 70
     0
  9
$DIMSE2
 70
     0
  9
$DIMTAD
 70
     0
  9
$DIMZIN
 70
     0
  9
$DIMBLK
  1

  9
$DIMASO
 70
     1
  9
$DIMSHO
 70
     1
  9
$DIMPOST
  1

  9
$DIMAPOST
  1

  9
$DIMALT
 70
     0
  9
$DIMALTD
 70
     2
  9
$DIMALTF
 40
25.4
  9
$DIMLFAC
 40
1.0
  9
$DIMTOFL
 70
     0
  9
$DIMTVP
 40
0.0
  9
$DIMTIX
 70
     0
  9
$DIMSOXD
 70
     0
  9
$DIMSAH
 70
     0
  9
$DIMBLK1
  1

  9
$DIMBLK2
  1

  9
$DIMSTYLE
  2
STANDARD
  9
$DIMCLRD
 70
     0
  9
$DIMCLRE
 70
     0
  9
$DIMCLRT
 70
     0
  9
$DIMTFAC
 40
1.0
  9
$DIMGAP
 40
0.09
  9
$DIMJUST
 70
     0
  9
$DIMSD1
 70
     0
  9
$DIMSD2
 70
     0
  9
$DIMTOLJ
 70
     1
  9
$DIMTZIN
 70
     0
  9
$DIMALTZ
 70
     0
  9
$DIMALTTZ
 70
     0
  9
$DIMFIT
 70
     3
  9
$DIMUPT
 70
     0
  9
$DIMUNIT
 70
     2
  9
$DIMDEC
 70
     4
  9
$DIMTDEC
 70
     4
  9
$DIMALTU
 70
     2
  9
$DIMALTTD
 70
     2
  9
$DIMTXSTY
  7
STANDARD
  9
$DIMAUNIT
 70
     0
  9
$LUNITS
 70
     2
  9
$LUPREC
 70
     4
  9
$SKETCHINC
 40
0.1
  9
$FILLETRAD
 40
0.5
  9
$AUNITS
 70
     0
  9
$AUPREC
 70
     0
  9
$MENU
  1
.
  9
$ELEVATION
 40
0.0
  9
$PELEVATION
 40
0.0
  9
$THICKNESS
 40
0.0
  9
$LIMCHECK
 70
     0
  9
$BLIPMODE
 70
     0
  9
$CHAMFERA
 40
0.5
  9
$CHAMFERB
 40
0.5
  9
$CHAMFERC
 40
1.0
  9
$CHAMFERD
 40
0.0
  9
$SKPOLY
 70
     0
  9
$TDCREATE
 40
2451667.537949421
  9
$TDUPDATE
 40
2452759.747600902
  9
$TDINDWG
 40
0.0087401736
  9
$TDUSRTIMER
 40
0.0087401736
  9
$USRTIMER
 70
     1
  9
$ANGBASE
 50
0.0
  9
$ANGDIR
 70
     0
  9
$PDMODE
 70
     0
  9
$PDSIZE
 40
0.0
  9
$PLINEWID
 40
0.0
  9
$COORDS
 70
     1
  9
$SPLFRAME
 70
     0
  9
$SPLINETYPE
 70
     6
  9
$SPLINESEGS
 70
     8
  9
$ATTDIA
 70
     0
  9
$ATTREQ
 70
     1
  9
$HANDLING
 70
     1
  9
$HANDSEED
  5
17D
  9
$SURFTAB1
 70
     6
  9
$SURFTAB2
 70
     6
  9
$SURFTYPE
 70
     6
  9
$SURFU
 70
     6
  9
$SURFV
 70
     6
  9
$UCSNAME
  2

  9
$UCSORG
 10
0.0
 20
0.0
 30
0.0
  9
$UCSXDIR
 10
1.0
 20
0.0
 30
0.0
  9
$UCSYDIR
 10
0.0
 20
1.0
 30
0.0
  9
$PUCSNAME
  2

  9
$PUCSORG
 10
0.0
 20
0.0
 30
0.0
  9
$PUCSXDIR
 10
1.0
 20
0.0
 30
0.0
  9
$PUCSYDIR
 10
0.0
 20
1.0
 30
0.0
  9
$USERI1
 70
     0
  9
$USERI2
 70
     0
  9
$USERI3
 70
     0
  9
$USERI4
 70
     0
  9
$USERI5
 70
     0
  9
$USERR1
 40
0.0
  9
$USERR2
 40
0.0
  9
$USERR3
 40
0.0
  9
$USERR4
 40
0.0
  9
$USERR5
 40
0.0
  9
$WORLDVIEW
 70
     1
  9
$SHADEDGE
 70
     3
  9
$SHADEDIF
 70
    70
  9
$TILEMODE
 70
     1
  9
$MAXACTVP
 70
    48
  9
$PINSBASE
 10
0.0
 20
0.0
 30
0.0
  9
$PLIMCHECK
 70
     0
  9
$PEXTMIN
 10
1.000000000000000E+20
 20
1.000000000000000E+20
 30
1.000000000000000E+20
  9
$PEXTMAX
 10
-1.000000000000000E+20
 20
-1.000000000000000E+20
 30
-1.000000000000000E+20
  9
$PLIMMIN
 10
0.0
 20
0.0
  9
$PLIMMAX
 10
12.0
 20
9.0
  9
$UNITMODE
 70
     0
  9
$VISRETAIN
 70
     1
  9
$PLINEGEN
 70
     0
  9
$PSLTSCALE
 70
     1
  9
$TREEDEPTH
 70
  3020
  9
$PICKSTYLE
 70
     1
  9
$CMLSTYLE
  2
STANDARD
  9
$CMLJUST
 70
     0
  9
$CMLSCALE
 40
1.0
  9
$PROXYGRAPHICS
 70
     1
  9
$MEASUREMENT
 70
     0
  0
ENDSEC
  0
SECTION
  2
CLASSES
  0
CLASS
  1
ACDBDICTIONARYWDFLT
  2
AcDbDictionaryWithDefault
  3
AutoCAD 2000
 90
        0
280
     1
281
     0
  0
CLASS
  1
ACDBPLACEHOLDER
  2
AcDbPlaceHolder
  3
AutoCAD 2000
 90
        0
280
     1
281
     0
  0
CLASS
  1
LAYOUT
  2
AcDbLayout
  3
AutoCAD 2000
 90
        0
280
     1
281
     0
  0
CLASS
  1
LONG_TRANSACTION
  2
AcDbLongTransaction
  3
AutoCAD 2000
 90
        0
280
     1
281
     0
  0
CLASS
  1
LWPOLYLINE
  2
AcDbPolyline
  3
"AutoCAD"
 90
        0
280
     1
281
     1
  0
CLASS
  1
HATCH
  2
AcDbHatch
  3
"ACAD_SEDONA"
 90
        0
280
     1
281
     1
  0
CLASS
  1
XRECORD
  2
AcDbXrecord
  3
"<Built In>"
 90
        0
280
     0
281
     0
  0
CLASS
  1
LONG_TRANSACTION
  2
AcDbLongTransaction
  3
AutoCAD 2000
 90
        0
280
     1
281
     0
  0
CLASS
  1
LWPOLYLINE
  2
AcDbPolyline
  3
"AutoCAD"
 90
        0
280
     1
281
     1
  0
CLASS
  1
HATCH
  2
AcDbHatch
  3
"ACAD_SEDONA"
 90
        0
280
     1
281
     1
  0
CLASS
  1
XRECORD
  2
AcDbXrecord
  3
"<Built In>"
 90
        0
280
     0
281
     0
  0
CLASS
  1
LONG_TRANSACTION
  2
AcDbLongTransaction
  3
AutoCAD 2000
 90
        0
280
     1
281
     0
  0
CLASS
  1
LWPOLYLINE
  2
AcDbPolyline
  3
"AutoCAD"
 90
        0
280
     1
281
     1
  0
CLASS
  1
HATCH
  2
AcDbHatch
  3
"ACAD_SEDONA"
 90
        0
280
     1
281
     1
  0
CLASS
  1
XRECORD
  2
AcDbXrecord
  3
"<Built In>"
 90
        0
280
     0
281
     0
  0
CLASS
  1
DICTIONARYVAR
  2
AcDbDictionaryVar
  3
"AutoCAD"
 90
        0
280
     0
281
     0
  0
CLASS
  1
LONG_TRANSACTION
  2
AcDbLongTransaction
  3
AutoCAD 2000
 90
        0
280
     0
281
     0
  0
CLASS
  1
LWPOLYLINE
  2
AcDbPolyline
  3
"AutoCAD"
 90
        0
280
     0
281
     1
  0
CLASS
  1
HATCH
  2
AcDbHatch
  3
"ACAD_SEDONA"
 90
        0
280
     0
281
     1
  0
CLASS
  1
XRECORD
  2
AcDbXrecord
  3
"<Built In>"
 90
        0
280
     0
281
     0
  0
CLASS
  1
LONG_TRANSACTION
  2
AcDbLongTransaction
  3
AutoCAD 2000
 90
        0
280
     0
281
     0
  0
CLASS
  1
LWPOLYLINE
  2
AcDbPolyline
  3
"AutoCAD"
 90
        0
280
     0
281
     1
  0
CLASS
  1
HATCH
  2
AcDbHatch
  3
"ACAD_SEDONA"
 90
        0
280
     0
281
     1
  0
CLASS
  1
XRECORD
  2
AcDbXrecord
  3
"<Built In>"
 90
        0
280
     0
281
     0
  0
ENDSEC
  0
SECTION
  2
TABLES
  0
TABLE
  2
VPORT
  5
15D
100
AcDbSymbolTable
 70
     1
  0
VPORT
  5
179
100
AcDbSymbolTableRecord
100
AcDbViewportTableRecord
  2
*ACTIVE
 70
     0
 10
0.0
 20
0.0
 11
1.0
 21
1.0
 12
10.53175445841662
 22
10.58084238267277
 13
0.0
 23
0.0
 14
0.5
 24
0.5
 15
0.5
 25
0.5
 16
0.0
 26
0.0
 36
1.0
 17
0.0
 27
0.0
 37
0.0
 40
21.3125386178165
 41
1.457627118644067
 42
50.0
 43
0.0
 44
0.0
 50
0.0
 51
0.0
 71
     0
 72
   100
 73
     1
 74
     3
 75
     0
 76
     0
 77
     0
 78
     0
  0
ENDTAB
  0
TABLE
  2
LTYPE
  5
156
100
AcDbSymbolTable
 70
     2
  0
LTYPE
  5
157
102
{ACAD_XDICTIONARY
360
158
102
}
100
AcDbSymbolTableRecord
100
AcDbLinetypeTableRecord
  2
BYBLOCK
 70
     0
  3

 72
    65
 73
     0
 40
0.0
  0
LTYPE
  5
159
102
{ACAD_XDICTIONARY
360
15A
102
}
100
AcDbSymbolTableRecord
100
AcDbLinetypeTableRecord
  2
BYLAYER
 70
     0
  3

 72
    65
 73
     0
 40
0.0
  0
LTYPE
  5
5
102
{ACAD_XDICTIONARY
360
6
102
}
100
AcDbSymbolTableRecord
100
AcDbLinetypeTableRecord
  2
CONTINUOUS
 70
     0
  3
Solid line
 72
    65
 73
     0
 40
0.0
  0
LTYPE
  5
91
100
AcDbSymbolTableRecord
100
AcDbLinetypeTableRecord
  2
HIDDEN
 70
     0
  3
Hidden __ __ __ __ __ __ __ __ __ __ __ __ __ _
 72
    65
 73
     2
 40
0.375
 49
0.25
 74
     0
 49
-0.125
 74
     0
  0
ENDTAB
  0
TABLE
  2
LAYER
  5
154
100
AcDbSymbolTable
 70
     5
  0
LAYER
  5
80
100
AcDbSymbolTableRecord
100
AcDbLayerTableRecord
  2
0
 70
     0
 62
     7
  6
CONTINUOUS
  0
LAYER
  5
4
100
AcDbSymbolTableRecord
100
AcDbLayerTableRecord
  2
USP
 70
     0
 62
     7
  6
CONTINUOUS
  0
LAYER
  5
90
100
AcDbSymbolTableRecord
100
AcDbLayerTableRecord
  2
USP-HID
 70
     0
 62
     7
  6
HIDDEN
  0
LAYER
  5
D
100
AcDbSymbolTableRecord
100
AcDbLayerTableRecord
  2
USP-GEO
 70
     0
 62
     7
  6
CONTINUOUS
  0
LAYER
  5
9
100
AcDbSymbolTableRecord
100
AcDbLayerTableRecord
  2
USP-TXT
 70
     0
 62
     7
  6
CONTINUOUS
  0
ENDTAB
  0
TABLE
  2
STYLE
  5
155
100
AcDbSymbolTable
 70
     1
  0
STYLE
  5
A
102
{ACAD_XDICTIONARY
360
B
102
}
100
AcDbSymbolTableRecord
100
AcDbTextStyleTableRecord
  2
STANDARD
 70
     0
 40
0.0
 41
1.0
 50
0.0
 71
     0
 42
0.6192700636950761
  3
txt
  4

  0
ENDTAB
  0
TABLE
  2
VIEW
  5
15B
100
AcDbSymbolTable
 70
     0
  0
ENDTAB
  0
TABLE
  2
UCS
  5
15C
100
AcDbSymbolTable
 70
     0
  0
ENDTAB
  0
TABLE
  2
APPID
  5
15F
100
AcDbSymbolTable
 70
     1
  0
APPID
  5
160
100
AcDbSymbolTableRecord
100
AcDbRegAppTableRecord
  2
ACAD
 70
     0
  0
ENDTAB
  0
TABLE
  2
DIMSTYLE
  5
161
100
AcDbSymbolTable
 70
     1
  0
DIMSTYLE
105
16A
102
{ACAD_XDICTIONARY
360
16B
102
}
100
AcDbSymbolTableRecord
100
AcDbDimStyleTableRecord
  2
STANDARD
 70
     0
  3

  4

  5

  6

  7

 40
1.0
 41
0.18
 42
0.0625
 43
0.38
 44
0.18
 45
0.0
 46
0.0
 47
0.0
 48
0.0
140
0.18
141
0.09
142
0.0
143
25.4
144
1.0
145
0.0
146
1.0
147
0.09
 71
     0
 72
     0
 73
     1
 74
     1
 75
     0
 76
     0
 77
     0
 78
     0
170
     0
171
     2
172
     0
173
     0
174
     0
175
     0
176
     0
177
     0
178
     0
270
     2
271
     4
272
     4
273
     2
274
     2
340
A
275
     0
280
     0
281
     0
282
     0
283
     1
284
     0
285
     0
286
     0
287
     3
288
     0
  0
ENDTAB
  0
TABLE
  2
BLOCK_RECORD
  5
1
100
AcDbSymbolTable
 70
     3
  0
BLOCK_RECORD
  5
2
102
{ACAD_XDICTIONARY
360
14B
102
}
100
AcDbSymbolTableRecord
100
AcDbBlockTableRecord
  2
*MODEL_SPACE
  0
BLOCK_RECORD
  5
14F
102
{ACAD_XDICTIONARY
360
150
102
}
100
AcDbSymbolTableRecord
100
AcDbBlockTableRecord
  2
*PAPER_SPACE
  0
BLOCK_RECORD
  5
7
100
AcDbSymbolTableRecord
100
AcDbBlockTableRecord
  2
THO15118_T
  0
BLOCK_RECORD
  5
83
100
AcDbSymbolTableRecord
100
AcDbBlockTableRecord
  2
THO15118_S
  0
BLOCK_RECORD
  5
CF
100
AcDbSymbolTableRecord
100
AcDbBlockTableRecord
  2
THO15118_F
  0
ENDTAB
  0
ENDSEC
  0
SECTION
  2
BLOCKS
  0
BLOCK
  5
14D
100
AcDbEntity
  8
0
100
AcDbBlockBegin
  2
*MODEL_SPACE
 70
     0
 10
0.0
 20
0.0
 30
0.0
  3
*MODEL_SPACE
  1

  0
ENDBLK
  5
14E
100
AcDbEntity
  8
0
100
AcDbBlockEnd
  0
BLOCK
  5
152
100
AcDbEntity
 67
     1
  8
0
100
AcDbBlockBegin
  2
*PAPER_SPACE
 70
     0
 10
0.0
 20
0.0
 30
0.0
  3
*PAPER_SPACE
  1

  0
ENDBLK
  5
153
100
AcDbEntity
 67
     1
  8
0
100
AcDbBlockEnd
  0
BLOCK
  5
7F
100
AcDbEntity
  8
0
100
AcDbBlockBegin
  2
THO15118_T
 70
     0
 10
0.0
 20
0.0
 30
0.0
  3
THO15118_T
  1

  0
TEXT
  5
8
100
AcDbEntity
  8
USP-TXT
100
AcDbText
 10
-1.894076239059047
 20
-1.395784512800901
 30
0.0
 40
0.5263795541408146
  1
THO15118 - TOP VIEW
 72
     1
 11
2.843339748208284
 21
-1.395784512800901
 31
0.0
100
AcDbText
  0
LINE
  5
C
100
AcDbEntity
  8
USP-GEO
100
AcDbLine
 10
1.247609211534578
 20
1.98935000000004
 30
0.0
 11
1.560109211534614
 21
1.989350000000047
 31
0.0
  0
ARC
  5
E
100
AcDbEntity
  8
USP-GEO
100
AcDbCircle
 10
1.403859211534597
 20
2.343100000000113
 30
0.0
 40
0.1562500000000013
100
AcDbArc
 50
359.9999999999947
 51
179.9999999999985
  0
LINE
  5
F
100
AcDbEntity
  8
USP-GEO
100
AcDbLine
 10
0.0
 20
3.655350000000023
 30
0.0
 11
2.000000000000074
 21
3.655350000000023
 31
0.0
  0
LINE
  5
10
100
AcDbEntity
  8
USP-GEO
100
AcDbLine
 10
-0.0000000000000115
 20
2.124599999999979
 30
0.0
 11
-0.0000000000000115
 21
3.655350000000034
 31
0.0
  0
LINE
  5
11
100
AcDbEntity
  8
USP-GEO
100
AcDbLine
 10
0.0039692704309573
 20
2.041350000000036
 30
0.0
 11
0.6851092115345807
 21
2.041350000000036
 31
0.0
  0
ARC
  5
12
100
AcDbEntity
  8
USP-GEO
100
AcDbCircle
 10
0.1249999999999654
 20
2.124599999999986
 30
0.0
 40
0.125
100
AcDbArc
 50
180.0000000000032
 51
194.4775121858996
  0
LINE
  5
13
100
AcDbEntity
  8
USP-GEO
100
AcDbLine
 10
0.0039692704309608
 20
2.09335000000005
 30
0.0
 11
0.0039692704309608
 21
2.041350000000036
 31
0.0
  0
ARC
  5
14
100
AcDbEntity
  8
USP-GEO
100
AcDbCircle
 10
0.8413592115346109
 20
2.343100000000113
 30
0.0
 40
0.1562500000000038
100
AcDbArc
 50
359.9999999999973
 51
180.000000000005
  0
LINE
  5
15
100
AcDbEntity
  8
USP-GEO
100
AcDbLine
 10
0.6851092115345736
 20
1.989350000000047
 30
0.0
 11
0.9976092115345815
 21
1.989350000000047
 31
0.0
  0
LINE
  5
16
100
AcDbEntity
  8
USP-GEO
100
AcDbLine
 10
0.6851092115345736
 20
1.989350000000055
 30
0.0
 11
0.6851092115345914
 21
2.343100000000099
 31
0.0
  0
LINE
  5
17
100
AcDbEntity
  8
USP-GEO
100
AcDbLine
 10
0.9976092115345815
 20
1.989350000000044
 30
0.0
 11
0.9976092115345993
 21
2.343100000000106
 31
0.0
  0
LINE
  5
18
100
AcDbEntity
  8
USP-GEO
100
AcDbLine
 10
1.247609211534603
 20
2.343100000000116
 30
0.0
 11
1.247609211534598
 21
1.989350000000044
 31
0.0
  0
LINE
  5
19
100
AcDbEntity
  8
USP-GEO
100
AcDbLine
 10
0.9976092115345878
 20
2.041350000000036
 30
0.0
 11
1.247609211534594
 21
2.041350000000036
 31
0.0
  0
CIRCLE
  5
1A
100
AcDbEntity
  8
USP-GEO
100
AcDbCircle
 10
0.374999999999968
 20
3.374600000000029
 30
0.0
 40
0.09
  0
LINE
  5
1B
100
AcDbEntity
  8
USP-GEO
100
AcDbLine
 10
3.686679496416477
 20
3.655350000000055
 30
0.0
 11
5.686679496416592
 21
3.655350000000055
 31
0.0
  0
LINE
  5
1C
100
AcDbEntity
  8
USP-GEO
100
AcDbLine
 10
5.001570284881928
 20
2.041350000000036
 30
0.0
 11
5.682710225985589
 21
2.041350000000036
 31
0.0
  0
LINE
  5
1D
100
AcDbEntity
  8
USP-GEO
100
AcDbLine
 10
2.000000000000071
 20
3.655350000000023
 30
0.0
 11
2.000000000000043
 21
2.124599999999968
 31
0.0
  0
LINE
  5
1E
100
AcDbEntity
  8
USP-GEO
100
AcDbLine
 10
3.686679496416518
 20
2.124600000000004
 30
0.0
 11
3.686679496416476
 21
3.655350000000055
 31
0.0
  0
LINE
  5
1F
100
AcDbEntity
  8
USP-GEO
100
AcDbLine
 10
3.374589748208285
 20
0.0624999999999822
 30
0.0
 11
3.593339748208277
 21
0.0624999999999822
 31
0.0
  0
LINE
  5
20
100
AcDbEntity
  8
USP-GEO
100
AcDbLine
 10
3.593339748208276
 20
1.937500000000028
 30
0.0
 11
3.374589748208286
 21
1.937500000000039
 31
0.0
  0
ARC
  5
21
100
AcDbEntity
  8
USP-GEO
100
AcDbCircle
 10
2.093339748208284
 20
0.3000000000000007
 30
0.0
 40
0.301999999999997
100
AcDbArc
 50
99.91490897607967
 51
260.0850910239203
  0
ELLIPSE
  5
22
100
AcDbEntity
  8
USP-GEO
100
AcDbEllipse
 10
1.887038996876658
 20
0.2999999999999971
 30
0.0
 11
0.0000000000000003
 21
-0.0780000000000014
 31
0.0
210
0.0
220
0.0
230
1.0
 40
0.7071067811865659
 41
-0.0000000000000059
 42
6.28318530717958
  0
ELLIPSE
  5
23
100
AcDbEntity
  8
USP-GEO
100
AcDbEllipse
 10
1.925387374006562
 20
0.3000000000000007
 30
0.0
 11
0.0000000000000007
 21
-0.0780000000000013
 31
0.0
210
0.0
220
0.0
230
1.0
 40
0.7071067811865636
 41
-2.786533188343338
 42
-0.3550594652463424
  0
LINE
  5
24
100
AcDbEntity
  8
USP-GEO
100
AcDbLine
 10
2.09333974820828
 20
0.0
 30
0.0
 11
2.09333974820828
 21
1.603468569830518
 31
0.0
  0
LINE
  5
25
100
AcDbEntity
  8
USP-GEO
100
AcDbLine
 10
2.041339748208276
 20
1.603468569830525
 30
0.0
 11
2.041339748208276
 21
0.0000000000000071
 31
0.0
  0
LINE
  5
26
100
AcDbEntity
  8
USP-GEO
100
AcDbLine
 10
2.326918391970963
 20
0.2951087267624643
 30
0.0
 11
2.468339748208268
 21
0.4365300829997701
 31
0.0
  0
LINE
  5
27
100
AcDbEntity
  8
USP-GEO
100
AcDbLine
 10
2.468339748208272
 20
0.4365300829997807
 30
0.0
 11
2.609761104445616
 21
0.2951087267624928
 31
0.0
  0
LINE
  5
28
100
AcDbEntity
  8
USP-GEO
100
AcDbLine
 10
3.21833974820829
 20
0.4365300829997914
 30
0.0
 11
3.359761104445608
 21
0.2951087267624892
 31
0.0
  0
LINE
  5
29
100
AcDbEntity
  8
USP-GEO
100
AcDbLine
 10
3.076918391970963
 20
0.2951087267624857
 30
0.0
 11
3.218339748208277
 21
0.4365300829997878
 31
0.0
  0
LINE
  5
2A
100
AcDbEntity
  8
USP-GEO
100
AcDbLine
 10
2.312089748208286
 20
0.0
 30
0.0
 11
3.374589748208281
 21
0.0
 31
0.0
  0
LINE
  5
2B
100
AcDbEntity
  8
USP-GEO
100
AcDbLine
 10
2.468339748208298
 20
0.1536873705251729
 30
0.0
 11
2.326918391970981
 21
0.2951087267624892
 31
0.0
  0
LINE
  5
2C
100
AcDbEntity
  8
USP-GEO
100
AcDbLine
 10
2.09333974820828
 20
0.0624999999999822
 30
0.0
 11
2.312089748208283
 21
0.0624999999999822
 31
0.0
  0
ARC
  5
2D
100
AcDbEntity
  8
USP-GEO
100
AcDbCircle
 10
2.093339748208284
 20
0.3000000000000007
 30
0.0
 40
0.301999999999997
100
AcDbArc
 50
263.4023522462017
 51
270.0
  0
LINE
  5
2E
100
AcDbEntity
  8
USP-GEO
100
AcDbLine
 10
2.093339748208284
 20
-0.0019999999999953
 30
0.0
 11
2.093339748208284
 21
0.0
 31
0.0
  0
LINE
  5
2F
100
AcDbEntity
  8
USP-GEO
100
AcDbLine
 10
2.09333974820828
 20
0.0
 30
0.0
 11
2.041339748208276
 21
0.0
 31
0.0
  0
LINE
  5
30
100
AcDbEntity
  8
USP-GEO
100
AcDbLine
 10
2.312089748208284
 20
0.0
 30
0.0
 11
2.312089748208284
 21
0.0624999999999787
 31
0.0
  0
LINE
  5
31
100
AcDbEntity
  8
USP-GEO
100
AcDbLine
 10
2.609761104445604
 20
0.2951087267624892
 30
0.0
 11
2.46833974820827
 21
0.1536873705251551
 31
0.0
  0
LINE
  5
32
100
AcDbEntity
  8
USP-GEO
100
AcDbLine
 10
3.21833974820829
 20
0.1536873705251693
 30
0.0
 11
3.076918391970972
 21
0.2951087267624857
 31
0.0
  0
LINE
  5
33
100
AcDbEntity
  8
USP-GEO
100
AcDbLine
 10
3.374589748208288
 20
-0.0000000000000036
 30
0.0
 11
3.374589748208288
 21
0.0624999999999822
 31
0.0
  0
LINE
  5
34
100
AcDbEntity
  8
USP-GEO
100
AcDbLine
 10
3.359761104445603
 20
0.295108726762475
 30
0.0
 11
3.21833974820828
 21
0.153687370525148
 31
0.0
  0
LINE
  5
35
100
AcDbEntity
  8
USP-GEO
100
AcDbLine
 10
2.31208974820829
 20
2.000000000000042
 30
0.0
 11
3.374589748208284
 21
2.000000000000042
 31
0.0
  0
LINE
  5
36
100
AcDbEntity
  8
USP-GEO
100
AcDbLine
 10
1.989339748208269
 20
1.437500000000024
 30
0.0
 11
1.989339748208269
 21
1.750000000000028
 31
0.0
  0
LINE
  5
37
100
AcDbEntity
  8
USP-GEO
100
AcDbLine
 10
1.989339748208278
 20
0.8750000000000497
 30
0.0
 11
1.989339748208278
 21
1.187500000000049
 31
0.0
  0
LINE
  5
38
100
AcDbEntity
  8
USP-GEO
100
AcDbLine
 10
1.989339748208276
 20
0.8750000000000461
 30
0.0
 11
2.041339748208272
 21
0.8750000000000426
 31
0.0
  0
LINE
  5
39
100
AcDbEntity
  8
USP-GEO
100
AcDbLine
 10
2.093339748208282
 20
0.6210543990150406
 30
0.0
 11
2.144499547896087
 21
0.5
 31
0.0
  0
LINE
  5
3A
100
AcDbEntity
  8
USP-GEO
100
AcDbLine
 10
2.144499547896085
 20
0.5
 30
0.0
 11
2.093339748208281
 21
0.3789456009849488
 31
0.0
  0
LINE
  5
3B
100
AcDbEntity
  8
USP-GEO
100
AcDbLine
 10
1.989339748208285
 20
1.187500000000085
 30
0.0
 11
2.041339748208273
 21
1.187500000000081
 31
0.0
  0
LINE
  5
3C
100
AcDbEntity
  8
USP-GEO
100
AcDbLine
 10
1.989339748208267
 20
1.437500000000021
 30
0.0
 11
2.041339748208272
 21
1.437500000000017
 31
0.0
  0
LINE
  5
3D
100
AcDbEntity
  8
USP-GEO
100
AcDbLine
 10
1.560109211534609
 20
2.04135000000004
 30
0.0
 11
2.003969270431045
 21
2.04135000000004
 31
0.0
  0
LINE
  5
3E
100
AcDbEntity
  8
USP-GEO
100
AcDbLine
 10
1.560109211534606
 20
1.989350000000047
 30
0.0
 11
1.560109211534608
 21
2.343100000000099
 31
0.0
  0
ARC
  5
3F
100
AcDbEntity
  8
USP-GEO
100
AcDbCircle
 10
2.125000000000049
 20
2.124599999999972
 30
0.0
 40
0.125
100
AcDbArc
 50
180.0000000000016
 51
194.4775121858945
  0
LINE
  5
40
100
AcDbEntity
  8
USP-GEO
100
AcDbLine
 10
2.093339748208281
 20
1.937500000000031
 30
0.0
 11
2.312089748208284
 21
1.937500000000042
 31
0.0
  0
LINE
  5
41
100
AcDbEntity
  8
USP-GEO
100
AcDbLine
 10
1.989339748208277
 20
1.75000000000006
 30
0.0
 11
2.041339748208276
 21
1.750000000000056
 31
0.0
  0
LINE
  5
42
100
AcDbEntity
  8
USP-GEO
100
AcDbLine
 10
2.093339748208284
 20
2.041350000000093
 30
0.0
 11
2.093339748208284
 21
2.093350000000096
 31
0.0
  0
LINE
  5
43
100
AcDbEntity
  8
USP-GEO
100
AcDbLine
 10
2.093339748208275
 20
2.005151209149477
 30
0.0
 11
2.093339748208275
 21
2.041350000000083
 31
0.0
  0
LINE
  5
44
100
AcDbEntity
  8
USP-GEO
100
AcDbLine
 10
2.093339748208277
 20
2.005151209149484
 30
0.0
 11
2.093339748208277
 21
1.754747586201109
 31
0.0
  0
LINE
  5
45
100
AcDbEntity
  8
USP-GEO
100
AcDbLine
 10
2.093339748208277
 20
1.754747586201119
 30
0.0
 11
2.093339748208277
 21
1.603468569830511
 31
0.0
  0
LINE
  5
46
100
AcDbEntity
  8
USP-GEO
100
AcDbLine
 10
2.003969270431046
 20
2.04135000000004
 30
0.0
 11
2.041339748208224
 21
2.04135000000004
 31
0.0
  0
LINE
  5
47
100
AcDbEntity
  8
USP-GEO
100
AcDbLine
 10
2.003969270431042
 20
2.093350000000047
 30
0.0
 11
2.003969270431042
 21
2.04135000000004
 31
0.0
  0
LINE
  5
48
100
AcDbEntity
  8
USP-GEO
100
AcDbLine
 10
2.041339748208272
 20
2.093350000000107
 30
0.0
 11
2.041339748208272
 21
2.04135000000009
 31
0.0
  0
LINE
  5
49
100
AcDbEntity
  8
USP-GEO
100
AcDbLine
 10
2.041339748209393
 20
2.093350000000043
 30
0.0
 11
2.003969270431046
 21
2.093350000000043
 31
0.0
  0
LINE
  5
4A
100
AcDbEntity
  8
USP-GEO
100
AcDbLine
 10
2.093339748208284
 20
2.041350000000093
 30
0.0
 11
2.041339748208272
 21
2.041350000000093
 31
0.0
  0
LINE
  5
4B
100
AcDbEntity
  8
USP-GEO
100
AcDbLine
 10
2.093339748208279
 20
2.093350000000096
 30
0.0
 11
2.041339748208281
 21
2.093350000000096
 31
0.0
  0
LINE
  5
4C
100
AcDbEntity
  8
USP-GEO
100
AcDbLine
 10
2.041339748208271
 20
2.04135000000009
 30
0.0
 11
2.041339748208271
 21
2.005151209149492
 31
0.0
  0
LINE
  5
4D
100
AcDbEntity
  8
USP-GEO
100
AcDbLine
 10
2.041339748208271
 20
2.005151209149492
 30
0.0
 11
2.041339748208271
 21
1.754747586201112
 31
0.0
  0
LINE
  5
4E
100
AcDbEntity
  8
USP-GEO
100
AcDbLine
 10
2.04133974820828
 20
1.754747586201126
 30
0.0
 11
2.04133974820828
 21
1.603468569830518
 31
0.0
  0
LINE
  5
4F
100
AcDbEntity
  8
USP-GEO
100
AcDbLine
 10
2.312089748208284
 20
1.937500000000035
 30
0.0
 11
2.312089748208284
 21
2.000000000000042
 31
0.0
  0
LINE
  5
50
100
AcDbEntity
  8
USP-GEO
100
AcDbLine
 10
3.374589748208286
 20
1.937500000000039
 30
0.0
 11
3.374589748208286
 21
2.000000000000035
 31
0.0
  0
ARC
  5
51
100
AcDbEntity
  8
USP-GEO
100
AcDbCircle
 10
3.593339748208272
 20
0.29999999999999
 30
0.0
 40
0.301999999999997
100
AcDbArc
 50
279.9149089760817
 51
80.08509102391856
  0
LINE
  5
52
100
AcDbEntity
  8
USP-GEO
100
AcDbLine
 10
3.593339748208288
 20
-0.0000000000000142
 30
0.0
 11
3.593339748208288
 21
1.603468569830514
 31
0.0
  0
ELLIPSE
  5
53
100
AcDbEntity
  8
USP-GEO
100
AcDbEllipse
 10
3.799640499539904
 20
0.29999999999999
 30
0.0
 11
-0.0000000000000005
 21
-0.0780000000000014
 31
0.0
210
0.0
220
0.0
230
1.0
 40
0.7071067811865478
 41
0.0000000000000005
 42
6.283185307179587
  0
ELLIPSE
  5
54
100
AcDbEntity
  8
USP-GEO
100
AcDbEllipse
 10
3.76129212241
 20
0.2999999999999936
 30
0.0
 11
-0.0000000000000008
 21
-0.0780000000000013
 31
0.0
210
0.0
220
0.0
230
1.0
 40
0.7071067811865458
 41
0.3550594652463453
 42
2.786533188343339
  0
LINE
  5
55
100
AcDbEntity
  8
USP-GEO
100
AcDbLine
 10
3.645339748208295
 20
-0.0000000000000142
 30
0.0
 11
3.645339748208295
 21
1.603468569830514
 31
0.0
  0
ARC
  5
56
100
AcDbEntity
  8
USP-GEO
100
AcDbCircle
 10
3.593339748208272
 20
0.29999999999999
 30
0.0
 40
0.301999999999997
100
AcDbArc
 50
269.9999999999998
 51
276.5976477538063
  0
LINE
  5
57
100
AcDbEntity
  8
USP-GEO
100
AcDbLine
 10
3.593339748208272
 20
-0.002000000000006
 30
0.0
 11
3.593339748208272
 21
-0.0000000000000036
 31
0.0
  0
LINE
  5
58
100
AcDbEntity
  8
USP-GEO
100
AcDbLine
 10
3.593339748208288
 20
-0.0000000000000142
 30
0.0
 11
3.645339748208295
 21
-0.0000000000000142
 31
0.0
  0
LINE
  5
59
100
AcDbEntity
  8
USP-GEO
100
AcDbLine
 10
4.439070284881964
 20
2.041350000000036
 30
0.0
 11
4.689070284881921
 21
2.041350000000036
 31
0.0
  0
LINE
  5
5A
100
AcDbEntity
  8
USP-GEO
100
AcDbLine
 10
3.69733974820829
 20
1.437500000000028
 30
0.0
 11
3.697339748208291
 21
1.750000000000035
 31
0.0
  0
LINE
  5
5B
100
AcDbEntity
  8
USP-GEO
100
AcDbLine
 10
3.697339748208285
 20
0.8750000000000426
 30
0.0
 11
3.697339748208285
 21
1.187500000000046
 31
0.0
  0
LINE
  5
5C
100
AcDbEntity
  8
USP-GEO
100
AcDbLine
 10
3.645339748208284
 20
0.8750000000000426
 30
0.0
 11
3.69733974820844
 21
0.875000000000039
 31
0.0
  0
LINE
  5
5D
100
AcDbEntity
  8
USP-GEO
100
AcDbLine
 10
3.542179948520479
 20
0.5
 30
0.0
 11
3.593339748208279
 21
0.3789456009849665
 31
0.0
  0
LINE
  5
5E
100
AcDbEntity
  8
USP-GEO
100
AcDbLine
 10
3.593339748208277
 20
0.6210543990150157
 30
0.0
 11
3.54217994852048
 21
0.5
 31
0.0
  0
LINE
  5
5F
100
AcDbEntity
  8
USP-GEO
100
AcDbLine
 10
3.645339748208282
 20
1.437500000000031
 30
0.0
 11
3.697339748208444
 21
1.437500000000028
 31
0.0
  0
LINE
  5
60
100
AcDbEntity
  8
USP-GEO
100
AcDbLine
 10
3.645339748208294
 20
1.187500000000081
 30
0.0
 11
3.697339748208461
 21
1.187500000000078
 31
0.0
  0
LINE
  5
61
100
AcDbEntity
  8
USP-GEO
100
AcDbLine
 10
3.682710225985508
 20
2.041350000000036
 30
0.0
 11
4.126570284881962
 21
2.041350000000036
 31
0.0
  0
ARC
  5
62
100
AcDbEntity
  8
USP-GEO
100
AcDbCircle
 10
3.561679496416527
 20
2.124600000000015
 30
0.0
 40
0.125
100
AcDbArc
 50
345.522487814082
 51
359.9999999999943
  0
LINE
  5
63
100
AcDbEntity
  8
USP-GEO
100
AcDbLine
 10
3.645339748208286
 20
1.750000000000071
 30
0.0
 11
3.697339748208465
 21
1.750000000000067
 31
0.0
  0
LINE
  5
64
100
AcDbEntity
  8
USP-GEO
100
AcDbLine
 10
3.593339748208283
 20
1.603468569830511
 30
0.0
 11
3.593339748208283
 21
1.754747586201123
 31
0.0
  0
LINE
  5
65
100
AcDbEntity
  8
USP-GEO
100
AcDbLine
 10
3.593339748208282
 20
2.005151209149488
 30
0.0
 11
3.593339748208282
 21
1.754747586201112
 31
0.0
  0
LINE
  5
66
100
AcDbEntity
  8
USP-GEO
100
AcDbLine
 10
3.593339748208288
 20
2.041350000000083
 30
0.0
 11
3.593339748208288
 21
2.005151209149484
 31
0.0
  0
LINE
  5
67
100
AcDbEntity
  8
USP-GEO
100
AcDbLine
 10
3.593339748208283
 20
2.04135000000009
 30
0.0
 11
3.593339748208283
 21
2.093350000000096
 31
0.0
  0
LINE
  5
68
100
AcDbEntity
  8
USP-GEO
100
AcDbLine
 10
3.645339748208315
 20
2.041350000000036
 30
0.0
 11
3.682710225985511
 21
2.041350000000036
 31
0.0
  0
LINE
  5
69
100
AcDbEntity
  8
USP-GEO
100
AcDbLine
 10
3.682710225985512
 20
2.093350000000043
 30
0.0
 11
3.645339748207145
 21
2.093350000000043
 31
0.0
  0
LINE
  5
6A
100
AcDbEntity
  8
USP-GEO
100
AcDbLine
 10
3.645339748208288
 20
2.041350000000086
 30
0.0
 11
3.645339748208288
 21
2.093350000000089
 31
0.0
  0
LINE
  5
6B
100
AcDbEntity
  8
USP-GEO
100
AcDbLine
 10
3.682710225985506
 20
2.093350000000043
 30
0.0
 11
3.682710225985506
 21
2.041350000000036
 31
0.0
  0
LINE
  5
6C
100
AcDbEntity
  8
USP-GEO
100
AcDbLine
 10
3.645339748208289
 20
1.603468569830511
 30
0.0
 11
3.645339748208289
 21
1.754747586201116
 31
0.0
  0
LINE
  5
6D
100
AcDbEntity
  8
USP-GEO
100
AcDbLine
 10
3.645339748208288
 20
1.754747586201109
 30
0.0
 11
3.645339748208288
 21
2.005151209149492
 31
0.0
  0
LINE
  5
6E
100
AcDbEntity
  8
USP-GEO
100
AcDbLine
 10
3.645339748208294
 20
2.005151209149488
 30
0.0
 11
3.645339748208294
 21
2.041350000000093
 31
0.0
  0
LINE
  5
6F
100
AcDbEntity
  8
USP-GEO
100
AcDbLine
 10
3.593339748208283
 20
2.04135000000009
 30
0.0
 11
3.645339748208288
 21
2.04135000000009
 31
0.0
  0
LINE
  5
70
100
AcDbEntity
  8
USP-GEO
100
AcDbLine
 10
3.593339748208283
 20
2.093350000000096
 30
0.0
 11
3.645339748208282
 21
2.093350000000096
 31
0.0
  0
LINE
  5
71
100
AcDbEntity
  8
USP-GEO
100
AcDbLine
 10
4.126570284881896
 20
1.98935000000003
 30
0.0
 11
4.126570284881911
 21
2.343100000000077
 31
0.0
  0
LINE
  5
72
100
AcDbEntity
  8
USP-GEO
100
AcDbLine
 10
4.439070284881933
 20
1.989350000000023
 30
0.0
 11
4.439070284881947
 21
2.343100000000099
 31
0.0
  0
LINE
  5
73
100
AcDbEntity
  8
USP-GEO
100
AcDbLine
 10
4.439070284881933
 20
1.989350000000015
 30
0.0
 11
4.126570284881896
 21
1.989350000000026
 31
0.0
  0
ARC
  5
74
100
AcDbEntity
  8
USP-GEO
100
AcDbCircle
 10
4.282820284881916
 20
2.343100000000092
 30
0.0
 40
0.1562500000000013
100
AcDbArc
 50
0.0000000000026462
 51
180.000000000005
  0
LINE
  5
75
100
AcDbEntity
  8
USP-GEO
100
AcDbLine
 10
5.001570284881941
 20
1.989350000000026
 30
0.0
 11
4.689070284881932
 21
1.98935000000003
 31
0.0
  0
ARC
  5
76
100
AcDbEntity
  8
USP-GEO
100
AcDbCircle
 10
4.845320284881905
 20
2.343100000000088
 30
0.0
 40
0.1562500000000038
100
AcDbArc
 50
359.9999999999908
 51
180.0000000000012
  0
LINE
  5
77
100
AcDbEntity
  8
USP-GEO
100
AcDbLine
 10
4.689070284881932
 20
1.989350000000019
 30
0.0
 11
4.689070284881918
 21
2.343100000000085
 31
0.0
  0
LINE
  5
78
100
AcDbEntity
  8
USP-GEO
100
AcDbLine
 10
5.001570284881923
 20
1.989350000000026
 30
0.0
 11
5.001570284881935
 21
2.343100000000063
 31
0.0
  0
CIRCLE
  5
79
100
AcDbEntity
  8
USP-GEO
100
AcDbCircle
 10
1.687500000000067
 20
3.187100000000032
 30
0.0
 40
0.09
  0
CIRCLE
  5
7A
100
AcDbEntity
  8
USP-GEO
100
AcDbCircle
 10
3.999179496416504
 20
3.187100000000057
 30
0.0
 40
0.09
  0
CIRCLE
  5
7B
100
AcDbEntity
  8
USP-GEO
100
AcDbCircle
 10
5.311679496416594
 20
3.374600000000057
 30
0.0
 40
0.09
  0
LINE
  5
7C
100
AcDbEntity
  8
USP-GEO
100
AcDbLine
 10
5.686679496416596
 20
3.655350000000055
 30
0.0
 11
5.686679496416582
 21
2.124600000000011
 31
0.0
  0
ARC
  5
7D
100
AcDbEntity
  8
USP-GEO
100
AcDbCircle
 10
5.561679496416608
 20
2.124600000000022
 30
0.0
 40
0.125
100
AcDbArc
 50
345.522487814075
 51
359.9999999999951
  0
LINE
  5
7E
100
AcDbEntity
  8
USP-GEO
100
AcDbLine
 10
5.682710225985585
 20
2.093350000000036
 30
0.0
 11
5.682710225985585
 21
2.041350000000033
 31
0.0
  0
ENDBLK
  5
81
100
AcDbEntity
  8
0
100
AcDbBlockEnd
  0
BLOCK
  5
CC
100
AcDbEntity
  8
0
100
AcDbBlockBegin
  2
THO15118_S
 70
     0
 10
0.0
 20
0.0
 30
0.0
  3
THO15118_S
  1

  0
LINE
  5
84
100
AcDbEntity
  8
USP-GEO
100
AcDbLine
 10
1.613999999999983
 20
4.588057545446
 30
0.0
 11
1.613999999999986
 21
11.55197214840834
 31
0.0
210
0.0000000000000002
220
1.0
230
0.0
  0
LINE
  5
85
100
AcDbEntity
  8
USP-GEO
100
AcDbLine
 10
1.561999999999965
 20
4.588057545445996
 30
0.0
 11
1.561999999999969
 21
11.55197214840835
 31
0.0
210
0.0000000000000002
220
1.0
230
0.0
  0
LINE
  5
86
100
AcDbEntity
  8
USP-GEO
100
AcDbLine
 10
2.40534999999997
 20
5.160578643762692
 30
0.0000000000000001
 11
2.26392864376266
 21
5.302000000000001
 31
0.0000000000000001
210
0.0000000000000002
220
1.0
230
0.0
  0
LINE
  5
87
100
AcDbEntity
  8
USP-GEO
100
AcDbLine
 10
2.546771356237307
 20
5.302000000000012
 30
0.0000000000000002
 11
2.405349999999977
 21
5.160578643762681
 31
0.0000000000000001
210
0.0000000000000002
220
1.0
230
0.0
  0
LINE
  5
88
100
AcDbEntity
  8
USP-GEO
100
AcDbLine
 10
2.051881430169498
 20
11.55197214840842
 30
0.0000000000000001
 11
3.655350000000012
 21
2.458250000000075
 31
0.0000000000000004
210
0.0000000000000002
220
1.0
230
0.0
  0
TEXT
  5
89
100
AcDbEntity
  8
USP-TXT
100
AcDbText
 10
-3.085200838647594
 20
-1.395784512800885
 30
0.0
 40
0.5263795541408146
  1
THO15118 - SIDE VIEW
 72
     1
 11
1.827675000000006
 21
-1.395784512800885
 31
0.0
100
AcDbText
  0
CIRCLE
  5
8A
100
AcDbEntity
  8
USP-GEO
100
AcDbCircle
 10
3.355350000000019
 20
1.348000000000013
 30
0.0000000000000003
 40
0.2974894956128656
  0
LINE
  5
8B
100
AcDbEntity
  8
USP-GEO
100
AcDbLine
 10
3.155350000000019
 20
0.8956719498370553
 30
0.0000000000000003
 11
3.287932521472495
 21
1.015832521472505
 31
0.0000000000000003
210
0.0000000000000002
220
1.0
230
0.0
  0
LINE
  5
8C
100
AcDbEntity
  8
USP-GEO
100
AcDbLine
 10
3.022767478527544
 20
1.015832521472498
 30
0.0000000000000003
 11
3.287932521472491
 21
1.015832521472498
 31
0.0000000000000003
210
0.0000000000000002
220
1.0
230
0.0
  0
LINE
  5
8D
100
AcDbEntity
  8
USP-GEO
100
AcDbLine
 10
3.287932521472487
 20
1.015832521472505
 30
0.0000000000000003
 11
3.155350000000019
 21
0.8832500000000376
 31
0.0000000000000003
210
0.0000000000000002
220
1.0
230
0.0
  0
LINE
  5
8E
100
AcDbEntity
  8
USP-GEO
100
AcDbLine
 10
1.717849999999991
 20
0.000000000000016
 30
0.0
 11
3.592850000000037
 21
0.000000000000016
 31
0.0000000000000004
210
0.0000000000000002
220
1.0
230
0.0
  0
LINE
  5
8F
100
AcDbEntity
  8
USP-HID
100
AcDbLine
 10
3.592850000000041
 20
0.0520000000000049
 30
0.0000000000000004
 11
1.717849999999984
 21
0.0520000000000103
 31
0.0
  0
LINE
  5
92
100
AcDbEntity
  8
USP-GEO
100
AcDbLine
 10
1.655349999999977
 20
0.3332500000000316
 30
0.0
 11
1.655349999999977
 21
3.887809792517154
 31
0.0
210
0.0000000000000002
220
1.0
230
0.0
  0
LINE
  5
93
100
AcDbEntity
  8
USP-GEO
100
AcDbLine
 10
1.717849999999977
 20
0.3332500000000333
 30
0.0
 11
1.655349999999977
 21
0.3332500000000333
 31
0.0
210
0.0000000000000002
220
1.0
230
0.0
  0
LINE
  5
94
100
AcDbEntity
  8
USP-GEO
100
AcDbLine
 10
1.717849999999977
 20
0.0000000000000089
 30
0.0
 11
1.717849999999977
 21
0.3332500000000458
 31
0.0
210
0.0000000000000002
220
1.0
230
0.0
  0
LINE
  5
95
100
AcDbEntity
  8
USP-GEO
100
AcDbLine
 10
1.717849999999984
 20
0.0520000000000103
 30
0.0
 11
1.655349999999977
 21
0.0520000000000103
 31
0.0
210
0.0000000000000002
220
1.0
230
0.0
  0
LINE
  5
96
100
AcDbEntity
  8
USP-GEO
100
AcDbLine
 10
1.655349999999977
 20
0.0520000000000085
 30
0.0
 11
1.655349999999977
 21
0.0000000000000178
 31
0.0
210
0.0000000000000002
220
1.0
230
0.0
  0
LINE
  5
97
100
AcDbEntity
  8
USP-GEO
100
AcDbLine
 10
1.65534999999998
 20
0.0
 30
0.0
 11
1.717849999999984
 21
0.0
 31
0.0
210
0.0000000000000002
220
1.0
230
0.0
  0
LINE
  5
98
100
AcDbEntity
  8
USP-GEO
100
AcDbLine
 10
2.780349999999952
 20
4.645750000000019
 30
0.0000000000000002
 11
2.78034999999997
 21
1.254249999999974
 31
0.0000000000000002
210
0.0000000000000002
220
1.0
230
0.0
  0
LINE
  5
99
100
AcDbEntity
  8
USP-GEO
100
AcDbLine
 10
2.467849999999966
 20
1.254249999999982
 30
0.0000000000000001
 11
2.467849999999938
 21
4.645750000000008
 31
0.0000000000000001
210
0.0000000000000002
220
1.0
230
0.0
  0
LINE
  5
9A
100
AcDbEntity
  8
USP-GEO
100
AcDbLine
 10
2.217849999999977
 20
4.645750000000022
 30
0.0000000000000001
 11
2.217849999999994
 21
1.254249999999974
 31
0.0000000000000001
210
0.0000000000000002
220
1.0
230
0.0
  0
LINE
  5
9B
100
AcDbEntity
  8
USP-GEO
100
AcDbLine
 10
1.905349999999991
 20
1.254249999999982
 30
0.0
 11
1.905349999999963
 21
4.645750000000012
 31
0.0
210
0.0000000000000002
220
1.0
230
0.0
  0
ARC
  5
9C
100
AcDbEntity
  8
USP-GEO
100
AcDbCircle
 10
2.061599999999991
 20
1.254249999999982
 30
0.0000000000000001
 40
0.1562499999999988
100
AcDbArc
 50
180.0
 51
359.9999999999966
  0
ARC
  5
9D
100
AcDbEntity
  8
USP-GEO
100
AcDbCircle
 10
2.624099999999966
 20
1.254249999999981
 30
0.0000000000000002
 40
0.1562499999999988
100
AcDbArc
 50
179.9999999999992
 51
359.9999999999973
  0
LINE
  5
9E
100
AcDbEntity
  8
USP-GEO
100
AcDbLine
 10
3.022767478527544
 20
1.015832521472507
 30
0.0000000000000003
 11
3.155350000000019
 21
0.8956719498370535
 31
0.0000000000000003
210
0.0000000000000002
220
1.0
230
0.0
  0
LINE
  5
9F
100
AcDbEntity
  8
USP-GEO
100
AcDbLine
 10
3.155350000000016
 20
0.883250000000034
 30
0.0000000000000003
 11
3.022767478527544
 21
1.015832521472505
 31
0.0000000000000003
210
0.0000000000000002
220
1.0
230
0.0
  0
ARC
  5
A0
100
AcDbEntity
  8
USP-GEO
100
AcDbCircle
 10
1.155349999999984
 20
3.887809792517161
 30
-0.0000000000000001
 40
0.5000000000000002
100
AcDbArc
 50
359.999999999999
 51
23.4655014854823
  0
LINE
  5
A1
100
AcDbEntity
  8
USP-GEO
100
AcDbLine
 10
1.613999999999983
 20
4.281345713398296
 30
0.0
 11
1.613999999999983
 21
4.588057545445996
 31
0.0
210
0.0000000000000002
220
1.0
230
0.0
  0
LINE
  5
A2
100
AcDbEntity
  8
USP-GEO
100
AcDbLine
 10
1.613999999999983
 20
4.086908204113024
 30
0.0
 11
1.613999999999983
 21
4.281345713398296
 31
0.0
210
0.0000000000000002
220
1.0
230
0.0
  0
LINE
  5
A3
100
AcDbEntity
  8
USP-GEO
100
AcDbLine
 10
1.561999999999976
 20
4.281345713398296
 30
0.0
 11
1.561999999999976
 21
4.086908204112999
 31
0.0
210
0.0000000000000002
220
1.0
230
0.0
  0
LINE
  5
A4
100
AcDbEntity
  8
USP-GEO
100
AcDbLine
 10
1.613999999999986
 20
4.086908204113031
 30
0.0
 11
1.561999999999976
 21
4.086908204113003
 31
0.0
210
0.0000000000000002
220
1.0
230
0.0
  0
LINE
  5
A5
100
AcDbEntity
  8
USP-GEO
100
AcDbLine
 10
1.561999999999962
 20
4.281345713398303
 30
0.0
 11
1.561999999999962
 21
4.588057545445993
 31
0.0
210
0.0000000000000002
220
1.0
230
0.0
  0
ARC
  5
A6
100
AcDbEntity
  8
USP-GEO
100
AcDbCircle
 10
2.061599999999994
 20
4.645750000000019
 30
0.0000000000000001
 40
0.1562500000000013
100
AcDbArc
 50
0.0000000000013231
 51
180.0000000000025
  0
ARC
  5
A7
100
AcDbEntity
  8
USP-GEO
100
AcDbCircle
 10
2.62409999999997
 20
4.645750000000019
 30
0.0000000000000002
 40
0.1562500000000013
100
AcDbArc
 50
0.0
 51
180.0000000000052
  0
LINE
  5
A8
100
AcDbEntity
  8
USP-GEO
100
AcDbLine
 10
3.655350000000012
 20
2.458250000000075
 30
0.0000000000000004
 11
3.655350000000012
 21
0.3332500000000262
 31
0.0000000000000004
210
0.0000000000000002
220
1.0
230
0.0
  0
LINE
  5
A9
100
AcDbEntity
  8
USP-GEO
100
AcDbLine
 10
3.655350000000016
 20
0.3332500000000227
 30
0.0000000000000004
 11
3.592850000000041
 21
0.3332500000000227
 31
0.0000000000000004
210
0.0000000000000002
220
1.0
230
0.0
  0
LINE
  5
AA
100
AcDbEntity
  8
USP-GEO
100
AcDbLine
 10
3.592850000000041
 20
0.3332500000000298
 30
0.0000000000000004
 11
3.592850000000041
 21
0.000000000000016
 31
0.0000000000000004
210
0.0000000000000002
220
1.0
230
0.0
  0
LINE
  5
AB
100
AcDbEntity
  8
USP-GEO
100
AcDbLine
 10
3.655350000000016
 20
0.0520000000000049
 30
0.0000000000000004
 11
3.592850000000041
 21
0.0520000000000049
 31
0.0000000000000004
210
0.0000000000000002
220
1.0
230
0.0
  0
LINE
  5
AC
100
AcDbEntity
  8
USP-GEO
100
AcDbLine
 10
3.592850000000037
 20
0.0000000000000018
 30
0.0000000000000004
 11
3.655350000000023
 21
0.0000000000000018
 31
0.0000000000000004
210
0.0000000000000002
220
1.0
230
0.0
  0
LINE
  5
AD
100
AcDbEntity
  8
USP-GEO
100
AcDbLine
 10
3.655350000000016
 20
0.0520000000000032
 30
0.0000000000000004
 11
3.655350000000016
 21
0.0000000000000071
 31
0.0000000000000004
210
0.0000000000000002
220
1.0
230
0.0
  0
ELLIPSE
  5
AE
100
AcDbEntity
  8
USP-GEO
100
AcDbEllipse
 10
3.355350000000022
 20
1.554300751331664
 30
0.0000000000000003
 11
0.0780000000000015
 21
-0.0000000000000003
 31
0.0
210
-0.0000000000000002
220
0.0
230
1.0
 40
0.7071067811865293
 41
0.0000000000000008
 42
6.283185307179587
  0
ELLIPSE
  5
AF
100
AcDbEntity
  8
USP-GEO
100
AcDbEllipse
 10
3.355350000000019
 20
1.515952374201759
 30
0.0000000000000003
 11
0.0780000000000013
 21
-0.0000000000000006
 31
0.0
210
-0.0000000000000002
220
0.0
230
1.0
 40
0.7071067811865319
 41
0.355059465246355
 42
2.356194490192356
  0
ELLIPSE
  5
B0
100
AcDbEntity
  8
USP-GEO
100
AcDbEllipse
 10
3.355350000000019
 20
1.515952374201759
 30
0.0000000000000003
 11
0.0780000000000013
 21
-0.0000000000000006
 31
0.0
210
-0.0000000000000002
220
0.0
230
1.0
 40
0.7071067811865319
 41
2.356194490192356
 42
2.786533188343321
  0
ARC
  5
B1
100
AcDbEntity
  8
USP-GEO
100
AcDbCircle
 10
3.355350000000019
 20
1.348000000000011
 30
0.0000000000000003
 40
0.3019999999999972
100
AcDbArc
 50
353.4023522462018
 51
6.597647753798799
  0
LINE
  5
B2
100
AcDbEntity
  8
USP-GEO
100
AcDbLine
 10
2.263928643762671
 20
5.302000000000004
 30
0.0000000000000001
 11
2.405349999999991
 21
5.443421356237324
 31
0.0000000000000001
210
0.0000000000000002
220
1.0
230
0.0
  0
LINE
  5
B3
100
AcDbEntity
  8
USP-GEO
100
AcDbLine
 10
2.40534999999997
 20
5.443421356237328
 30
0.0000000000000001
 11
2.54677135623729
 21
5.302000000000008
 31
0.0000000000000002
210
0.0000000000000002
220
1.0
230
0.0
  0
CIRCLE
  5
B4
100
AcDbEntity
  8
USP-GEO
100
AcDbCircle
 10
2.178250483888454
 20
8.274867472239561
 30
0.0000000000000001
 40
0.125
  0
LINE
  5
B5
100
AcDbEntity
  8
USP-GEO
100
AcDbLine
 10
1.155999999999906
 20
12.03099999999999
 30
-0.0000000000000001
 11
1.312249999999924
 21
12.03099999999999
 31
-0.0000000000000001
210
0.0000000000000002
220
1.0
230
0.0
  0
LINE
  5
B6
100
AcDbEntity
  8
USP-GEO
100
AcDbLine
 10
1.530750000000043
 20
11.92699999999999
 30
0.0
 11
0.0
 21
11.92699999999999
 31
-0.0000000000000003
210
0.0000000000000002
220
1.0
230
0.0
  0
LINE
  5
B7
100
AcDbEntity
  8
USP-GEO
100
AcDbLine
 10
1.530750000000043
 20
11.97899999999998
 30
0.0
 11
-0.0000000000000107
 21
11.97899999999998
 31
-0.0000000000000003
210
0.0000000000000002
220
1.0
230
0.0
  0
LINE
  5
B8
100
AcDbEntity
  8
USP-GEO
100
AcDbLine
 10
0.0
 20
11.92699999999998
 30
-0.0000000000000003
 11
0.0
 21
11.97899999999999
 31
-0.0000000000000003
210
0.0000000000000002
220
1.0
230
0.0
  0
LINE
  5
B9
100
AcDbEntity
  8
USP-GEO
100
AcDbLine
 10
1.155999999999906
 20
12.03099999999999
 30
-0.0000000000000001
 11
1.155999999999906
 21
11.97899999999999
 31
-0.0000000000000001
210
0.0000000000000002
220
1.0
230
0.0
  0
LINE
  5
BA
100
AcDbEntity
  8
USP-GEO
100
AcDbLine
 10
1.665999999999979
 20
11.83612561624176
 30
0.0
 11
1.90060241379891
 21
11.73983837556364
 31
0.0
210
0.0000000000000002
220
1.0
230
0.0
  0
LINE
  5
BB
100
AcDbEntity
  8
USP-GEO
100
AcDbLine
 10
1.665999999999982
 20
11.48925000000005
 30
0.0
 11
1.665999999999971
 21
12.03099999999998
 31
0.0
210
0.0000000000000002
220
1.0
230
0.0
  0
LINE
  5
BC
100
AcDbEntity
  8
USP-GEO
100
AcDbLine
 10
1.613999999999983
 20
11.73983837556359
 30
0.0
 11
1.613999999999983
 21
11.84261086421397
 31
0.0
210
0.0000000000000002
220
1.0
230
0.0
  0
LINE
  5
BD
100
AcDbEntity
  8
USP-GEO
100
AcDbLine
 10
1.561999999999983
 20
11.84261086421397
 30
0.0
 11
1.561999999999983
 21
11.73983837556359
 31
0.0
210
0.0000000000000002
220
1.0
230
0.0
  0
LINE
  5
BE
100
AcDbEntity
  8
USP-GEO
100
AcDbLine
 10
1.665999999999982
 20
11.33300000000007
 30
0.0
 11
1.61399999999999
 21
11.33300000000008
 31
0.0
210
0.0000000000000002
220
1.0
230
0.0
  0
LINE
  5
BF
100
AcDbEntity
  8
USP-GEO
100
AcDbLine
 10
1.665999999999982
 20
11.48925000000005
 30
0.0
 11
1.665999999999982
 21
11.33300000000007
 31
0.0
210
0.0000000000000002
220
1.0
230
0.0
  0
LINE
  5
C0
100
AcDbEntity
  8
USP-GEO
100
AcDbLine
 10
1.613999999999986
 20
11.55197214840834
 30
0.0
 11
1.613999999999986
 21
11.73983837556357
 31
0.0
210
0.0000000000000002
220
1.0
230
0.0
  0
LINE
  5
C1
100
AcDbEntity
  8
USP-GEO
100
AcDbLine
 10
1.561999999999976
 20
11.73983837556357
 30
0.0
 11
1.561999999999976
 21
11.55197214840835
 31
0.0
210
0.0000000000000002
220
1.0
230
0.0
  0
LINE
  5
C2
100
AcDbEntity
  8
USP-GEO
100
AcDbLine
 10
1.665999999999968
 20
12.03099999999998
 30
0.0
 11
1.312249999999924
 21
12.031
 31
-0.0000000000000001
210
0.0000000000000002
220
1.0
230
0.0
  0
LINE
  5
C3
100
AcDbEntity
  8
USP-GEO
100
AcDbLine
 10
1.561999999999972
 20
11.92699999999998
 30
0.0
 11
1.530750000000043
 21
11.92699999999998
 31
0.0
210
0.0000000000000002
220
1.0
230
0.0
  0
LINE
  5
C4
100
AcDbEntity
  8
USP-GEO
100
AcDbLine
 10
1.561999999999972
 20
11.97899999999998
 30
0.0
 11
1.530750000000043
 21
11.97899999999998
 31
0.0
210
0.0000000000000002
220
1.0
230
0.0
  0
LINE
  5
C5
100
AcDbEntity
  8
USP-GEO
100
AcDbLine
 10
1.561999999999972
 20
11.92699999999998
 30
0.0
 11
1.561999999999972
 21
11.97899999999999
 31
0.0
210
0.0000000000000002
220
1.0
230
0.0
  0
LINE
  5
C6
100
AcDbEntity
  8
USP-GEO
100
AcDbLine
 10
1.613999999999993
 20
11.92699999999998
 30
0.0
 11
1.613999999999993
 21
11.97899999999998
 31
0.0
210
0.0000000000000002
220
1.0
230
0.0
  0
LINE
  5
C7
100
AcDbEntity
  8
USP-GEO
100
AcDbLine
 10
1.613999999999986
 20
11.84261086421396
 30
0.0
 11
1.613999999999986
 21
11.92699999999999
 31
0.0
210
0.0000000000000002
220
1.0
230
0.0
  0
LINE
  5
C8
100
AcDbEntity
  8
USP-GEO
100
AcDbLine
 10
1.561999999999972
 20
11.92699999999998
 30
0.0
 11
1.613999999999993
 21
11.92699999999998
 31
0.0
210
0.0000000000000002
220
1.0
230
0.0
  0
LINE
  5
C9
100
AcDbEntity
  8
USP-GEO
100
AcDbLine
 10
1.561999999999972
 20
11.84261086421398
 30
0.0
 11
1.561999999999972
 21
11.92699999999998
 31
0.0
210
0.0000000000000002
220
1.0
230
0.0
  0
LINE
  5
CA
100
AcDbEntity
  8
USP-GEO
100
AcDbLine
 10
1.561999999999972
 20
11.97899999999999
 30
0.0
 11
1.613999999999986
 21
11.97899999999999
 31
0.0
210
0.0000000000000002
220
1.0
230
0.0
  0
ARC
  5
CB
100
AcDbEntity
  8
USP-GEO
100
AcDbCircle
 10
1.805679491916453
 20
11.50856010399167
 30
0.0
 40
0.2500000000000001
100
AcDbArc
 50
10.00000000000267
 51
67.68541361507939
  0
ENDBLK
  5
CD
100
AcDbEntity
  8
0
100
AcDbBlockEnd
  0
BLOCK
  5
149
100
AcDbEntity
  8
0
100
AcDbBlockBegin
  2
THO15118_F
 70
     0
 10
0.0
 20
0.0
 30
0.0
  3
THO15118_F
  1

  0
LINE
  5
D0
100
AcDbEntity
  8
USP-GEO
100
AcDbLine
 10
3.645339748208328
 20
2.458249999999992
 30
0.0000000000000007
 11
3.645339748208328
 21
11.55197214840837
 31
0.0000000000000028
210
0.0
220
1.0
230
0.0000000000000002
  0
LINE
  5
D1
100
AcDbEntity
  8
USP-GEO
100
AcDbLine
 10
5.207458318038881
 20
11.55197214840837
 30
0.000000000000003
 11
3.97953228218693
 21
4.58805754544603
 31
0.0000000000000013
210
0.0
220
1.0
230
0.0000000000000002
  0
LINE
  5
D2
100
AcDbEntity
  8
USP-GEO
100
AcDbLine
 10
2.041339748208311
 20
11.5519721484084
 30
0.0000000000000026
 11
2.041339748208311
 21
2.458250000000059
 31
0.0000000000000005
210
0.0
220
1.0
230
0.0000000000000002
  0
LINE
  5
D3
100
AcDbEntity
  8
USP-GEO
100
AcDbLine
 10
1.707147214229706
 20
4.588057545445984
 30
0.000000000000001
 11
0.4792211783777561
 21
11.55197214840832
 31
0.0000000000000024
210
0.0
220
1.0
230
0.0000000000000002
  0
LINE
  5
D4
100
AcDbEntity
  8
USP-GEO
100
AcDbLine
 10
2.093339748208315
 20
2.458250000000074
 30
0.0000000000000006
 11
2.093339748208315
 21
11.5519721484084
 31
0.0000000000000026
210
0.0
220
1.0
230
0.0000000000000002
  0
LINE
  5
D5
100
AcDbEntity
  8
USP-GEO
100
AcDbLine
 10
3.593339748208322
 20
2.458249999999999
 30
0.0000000000000007
 11
3.593339748208322
 21
11.55197214840838
 31
0.0000000000000028
210
0.0
220
1.0
230
0.0000000000000002
  0
TEXT
  5
D6
100
AcDbEntity
  8
USP-TXT
100
AcDbText
 10
-2.420455793199829
 20
-1.39578451280091
 30
0.0000000000000001
 40
0.5263795541408146
  1
THO15118 - FRONT VIEW
 72
     1
 11
2.843339748208315
 21
-1.39578451280091
 31
0.0000000000000001
100
AcDbText
  0
LINE
  5
D7
100
AcDbEntity
  8
USP-GEO
100
AcDbLine
 10
3.593339748208322
 20
1.382698703145806
 30
0.0000000000000005
 11
3.593339748208322
 21
2.458249999999999
 31
0.0000000000000007
210
0.0
220
1.0
230
0.0000000000000002
  0
LINE
  5
D8
100
AcDbEntity
  8
USP-GEO
100
AcDbLine
 10
3.697339748208328
 20
1.631527776417028
 30
0.0000000000000006
 11
3.697339748208328
 21
4.629249999999952
 31
0.0000000000000012
210
0.0
220
1.0
230
0.0000000000000002
  0
LINE
  5
D9
100
AcDbEntity
  8
USP-GEO
100
AcDbLine
 10
2.093339748208315
 20
2.458250000000074
 30
0.0000000000000006
 11
2.093339748208315
 21
1.382698703145777
 31
0.0000000000000003
210
0.0
220
1.0
230
0.0000000000000002
  0
LINE
  5
DA
100
AcDbEntity
  8
USP-GEO
100
AcDbLine
 10
1.989339748208317
 20
4.645750000000003
 30
0.000000000000001
 11
1.989339748208319
 21
1.631527776417048
 31
0.0000000000000004
210
0.0
220
1.0
230
0.0000000000000002
  0
LINE
  5
DB
100
AcDbEntity
  8
USP-GEO
100
AcDbLine
 10
2.041339748208311
 20
2.458250000000059
 30
0.0000000000000005
 11
2.041339748208311
 21
0.3332500000000103
 31
0.0000000000000001
210
0.0
220
1.0
230
0.0000000000000002
  0
LINE
  5
DC
100
AcDbEntity
  8
USP-GEO
100
AcDbLine
 10
3.645339748208318
 20
0.333249999999996
 30
0.0000000000000003
 11
3.645339748208318
 21
2.458249999999992
 31
0.0000000000000007
210
0.0
220
1.0
230
0.0000000000000002
  0
LINE
  5
DD
100
AcDbEntity
  8
USP-GEO
100
AcDbLine
 10
2.312089748208318
 20
-0.0000000000000089
 30
0.0
 11
3.374589748208311
 21
-0.0000000000000089
 31
0.0000000000000002
210
0.0
220
1.0
230
0.0000000000000002
  0
LINE
  5
DE
100
AcDbEntity
  8
USP-GEO
100
AcDbLine
 10
2.312089748208322
 20
0.0519999999999872
 30
0.0
 11
3.374589748208315
 21
0.0519999999999872
 31
0.0000000000000002
210
0.0
220
1.0
230
0.0000000000000002
  0
LINE
  5
DF
100
AcDbEntity
  8
USP-GEO
100
AcDbLine
 10
2.093339748208315
 20
1.313301296854216
 30
0.0000000000000003
 11
2.093339748208315
 21
0.3332500000000031
 31
0.0000000000000001
210
0.0
220
1.0
230
0.0000000000000002
  0
LINE
  5
E0
100
AcDbEntity
  8
USP-GEO
100
AcDbLine
 10
2.312089748208322
 20
0.0519999999999872
 30
0.0
 11
2.312089748208322
 21
-0.0000000000000089
 31
0.0
210
0.0
220
1.0
230
0.0000000000000002
  0
LINE
  5
E1
100
AcDbEntity
  8
USP-GEO
100
AcDbLine
 10
2.041339748208303
 20
0.3332500000000138
 30
0.0000000000000001
 11
2.041339748208303
 21
0.0
 31
0.0
210
0.0
220
1.0
230
0.0000000000000002
  0
LINE
  5
E2
100
AcDbEntity
  8
USP-GEO
100
AcDbLine
 10
2.041339748208304
 20
0.0
 30
0.0
 11
2.312089748208322
 21
0.0
 31
0.0
210
0.0
220
1.0
230
0.0000000000000002
  0
LINE
  5
E3
100
AcDbEntity
  8
USP-GEO
100
AcDbLine
 10
2.093339748208315
 20
0.051999999999989
 30
0.0
 11
2.312089748208318
 21
0.051999999999989
 31
0.0
210
0.0
220
1.0
230
0.0000000000000002
  0
LINE
  5
E4
100
AcDbEntity
  8
USP-GEO
100
AcDbLine
 10
2.093339748208315
 20
0.3332500000000174
 30
0.0000000000000001
 11
2.093339748208315
 21
0.051999999999989
 31
0.0
210
0.0
220
1.0
230
0.0000000000000002
  0
LINE
  5
E5
100
AcDbEntity
  8
USP-GEO
100
AcDbLine
 10
2.093339748208315
 20
0.3332500000000031
 30
0.0000000000000001
 11
2.041339748208308
 21
0.3332500000000031
 31
0.0000000000000001
210
0.0
220
1.0
230
0.0000000000000002
  0
ARC
  5
E6
100
AcDbEntity
  8
USP-GEO
100
AcDbCircle
 10
2.09333974820832
 20
1.347999999999995
 30
0.0000000000000003
 40
0.301999999999997
100
AcDbArc
 50
99.91490897607956
 51
120.0320821011625
  0
LINE
  5
E7
100
AcDbEntity
  8
USP-GEO
100
AcDbLine
 10
2.144499547896121
 20
0.9176480994475539
 30
0.0000000000000002
 11
2.093339748208316
 21
1.027360643929929
 31
0.0000000000000002
210
0.0
220
1.0
230
0.0000000000000002
  0
LINE
  5
E8
100
AcDbEntity
  8
USP-GEO
100
AcDbLine
 10
2.097371542970217
 20
0.8956719498370393
 30
0.0000000000000002
 11
2.144499547896119
 21
0.9176480994475575
 31
0.0000000000000002
210
0.0
220
1.0
230
0.0000000000000002
  0
ARC
  5
E9
100
AcDbEntity
  8
USP-GEO
100
AcDbCircle
 10
2.09333974820832
 20
1.347999999999995
 30
0.0000000000000003
 40
0.301999999999997
100
AcDbArc
 50
149.9679178988302
 51
260.0850910239202
  0
LINE
  5
EA
100
AcDbEntity
  8
USP-GEO
100
AcDbLine
 10
2.097371542970217
 20
0.8956719498370393
 30
0.0000000000000002
 11
2.093339748208318
 21
0.9043181616060067
 31
0.0000000000000002
210
0.0
220
1.0
230
0.0000000000000002
  0
LINE
  5
EB
100
AcDbEntity
  8
USP-GEO
100
AcDbLine
 10
1.942193325809245
 20
1.609455080264199
 30
0.0000000000000003
 11
1.831884667944141
 21
1.499146422399098
 31
0.0000000000000003
210
0.0
220
1.0
230
0.0000000000000002
  0
LINE
  5
EC
100
AcDbEntity
  8
USP-GEO
100
AcDbLine
 10
2.093339748208318
 20
1.313301296854216
 30
0.0000000000000003
 11
2.09333974820832
 21
1.382698703145777
 31
0.0000000000000003
210
0.0
220
1.0
230
0.0000000000000002
  0
ARC
  5
ED
100
AcDbEntity
  8
USP-GEO
100
AcDbCircle
 10
2.09333974820832
 20
1.347999999999995
 30
0.0000000000000003
 40
0.0346987031457799
100
AcDbArc
 50
90.00000000000662
 51
269.9999999999948
  0
LINE
  5
EE
100
AcDbEntity
  8
USP-GEO
100
AcDbLine
 10
3.593339748208322
 20
0.3332499999999943
 30
0.0000000000000003
 11
3.593339748208322
 21
1.313301296854159
 31
0.0000000000000005
210
0.0
220
1.0
230
0.0000000000000002
  0
LINE
  5
EF
100
AcDbEntity
  8
USP-GEO
100
AcDbLine
 10
3.645339748208328
 20
-0.0000000000000124
 30
0.0000000000000002
 11
3.645339748208328
 21
0.3332500000000014
 31
0.0000000000000003
210
0.0
220
1.0
230
0.0000000000000002
  0
LINE
  5
F0
100
AcDbEntity
  8
USP-GEO
100
AcDbLine
 10
3.374589748208315
 20
0.0519999999999925
 30
0.0000000000000002
 11
3.374589748208315
 21
-0.0000000000000036
 31
0.0000000000000002
210
0.0
220
1.0
230
0.0000000000000002
  0
LINE
  5
F1
100
AcDbEntity
  8
USP-GEO
100
AcDbLine
 10
3.374589748208315
 20
-0.0000000000000036
 30
0.0000000000000002
 11
3.645339748208328
 21
-0.0000000000000036
 31
0.0000000000000002
210
0.0
220
1.0
230
0.0000000000000002
  0
LINE
  5
F2
100
AcDbEntity
  8
USP-GEO
100
AcDbLine
 10
3.374589748208322
 20
0.0519999999999925
 30
0.0000000000000002
 11
3.593339748208315
 21
0.0519999999999925
 31
0.0000000000000002
210
0.0
220
1.0
230
0.0000000000000002
  0
LINE
  5
F3
100
AcDbEntity
  8
USP-GEO
100
AcDbLine
 10
3.593339748208322
 20
0.3332499999999943
 30
0.0000000000000003
 11
3.645339748208318
 21
0.3332499999999943
 31
0.0000000000000003
210
0.0
220
1.0
230
0.0000000000000002
  0
LINE
  5
F4
100
AcDbEntity
  8
USP-GEO
100
AcDbLine
 10
3.593339748208315
 20
0.0519999999999925
 30
0.0000000000000002
 11
3.593339748208315
 21
0.333249999999996
 31
0.0000000000000003
210
0.0
220
1.0
230
0.0000000000000002
  0
ARC
  5
F5
100
AcDbEntity
  8
USP-GEO
100
AcDbCircle
 10
3.593339748208308
 20
1.347999999999982
 30
0.0000000000000005
 40
0.301999999999997
100
AcDbArc
 50
59.96791789883674
 51
80.08509102391835
  0
LINE
  5
F6
100
AcDbEntity
  8
USP-GEO
100
AcDbLine
 10
3.744486170607387
 20
1.60945508026419
 30
0.0000000000000006
 11
3.854794828472492
 21
1.499146422399089
 31
0.0000000000000006
210
0.0
220
1.0
230
0.0000000000000002
  0
ARC
  5
F7
100
AcDbEntity
  8
USP-GEO
100
AcDbCircle
 10
3.593339748208308
 20
1.347999999999982
 30
0.0000000000000005
 40
0.301999999999997
100
AcDbArc
 50
279.9149089760818
 51
30.0320821011694
  0
LINE
  5
F8
100
AcDbEntity
  8
USP-GEO
100
AcDbLine
 10
3.589307953446418
 20
0.8956719498370375
 30
0.0000000000000004
 11
3.593339748208322
 21
0.9043181616060156
 31
0.0000000000000004
210
0.0
220
1.0
230
0.0000000000000002
  0
LINE
  5
F9
100
AcDbEntity
  8
USP-GEO
100
AcDbLine
 10
3.589307953446418
 20
0.8956719498370375
 30
0.0000000000000004
 11
3.542179948520512
 21
0.9176480994475575
 31
0.0000000000000004
210
0.0
220
1.0
230
0.0000000000000002
  0
LINE
  5
FA
100
AcDbEntity
  8
USP-GEO
100
AcDbLine
 10
3.542179948520512
 20
0.9176480994475557
 30
0.0000000000000004
 11
3.593339748208315
 21
1.027360643929915
 31
0.0000000000000004
210
0.0
220
1.0
230
0.0000000000000002
  0
ARC
  5
FB
100
AcDbEntity
  8
USP-GEO
100
AcDbCircle
 10
3.593339748208308
 20
1.347999999999981
 30
0.0000000000000005
 40
0.0346987031458207
100
AcDbArc
 50
270.0000000000186
 51
89.99999999997873
  0
LINE
  5
FC
100
AcDbEntity
  8
USP-GEO
100
AcDbLine
 10
3.593339748208308
 20
1.313301296854159
 30
0.0000000000000005
 11
3.593339748208308
 21
1.382698703145807
 31
0.0000000000000005
210
0.0
220
1.0
230
0.0000000000000002
  0
LINE
  5
FD
100
AcDbEntity
  8
USP-GEO
100
AcDbLine
 10
2.093339748208315
 20
2.458250000000074
 30
0.0000000000000006
 11
2.041339748208311
 21
2.458250000000074
 31
0.0000000000000005
210
0.0
220
1.0
230
0.0000000000000002
  0
ARC
  5
FE
100
AcDbEntity
  8
USP-GEO
100
AcDbCircle
 10
2.199551090735788
 20
4.674881634279458
 30
0.0000000000000011
 40
0.5000000000000002
100
AcDbArc
 50
190.0000000000014
 51
231.9127064021344
  0
ARC
  5
FF
100
AcDbEntity
  8
USP-GEO
100
AcDbCircle
 10
1.582689748208302
 20
3.887809792517099
 30
0.0000000000000008
 40
0.5000000000000038
100
AcDbArc
 50
35.58038510428877
 51
51.91270640213438
  0
LINE
  5
100
100
AcDbEntity
  8
USP-GEO
100
AcDbLine
 10
1.989339748208314
 20
4.645750000000003
 30
0.000000000000001
 11
1.989339748208315
 21
4.802000000000003
 31
0.0000000000000011
210
0.0
220
1.0
230
0.0000000000000002
  0
LINE
  5
101
100
AcDbEntity
  8
USP-GEO
100
AcDbLine
 10
1.989339748208315
 20
4.802000000000003
 30
0.0000000000000011
 11
2.041339748208311
 21
4.801999999999999
 31
0.0000000000000011
210
0.0
220
1.0
230
0.0000000000000002
  0
LINE
  5
102
100
AcDbEntity
  8
USP-GEO
100
AcDbLine
 10
3.593339748208322
 20
2.458249999999999
 30
0.0000000000000007
 11
3.645339748208328
 21
2.458249999999999
 31
0.0000000000000007
210
0.0
220
1.0
230
0.0000000000000002
  0
ARC
  5
103
100
AcDbEntity
  8
USP-GEO
100
AcDbCircle
 10
4.103989748208334
 20
3.887809792517145
 30
0.0000000000000011
 40
0.5000000000000002
100
AcDbArc
 50
128.0872935978658
 51
144.4196148957103
  0
LINE
  5
104
100
AcDbEntity
  8
USP-GEO
100
AcDbLine
 10
3.697339748208321
 20
4.629249999999952
 30
0.0000000000000012
 11
3.697339748208321
 21
4.785499999999952
 31
0.0000000000000013
210
0.0
220
1.0
230
0.0000000000000002
  0
LINE
  5
105
100
AcDbEntity
  8
USP-GEO
100
AcDbLine
 10
3.645339748208321
 20
4.785499999999956
 30
0.0000000000000013
 11
3.697339748208321
 21
4.785499999999952
 31
0.0000000000000013
210
0.0
220
1.0
230
0.0000000000000002
  0
ARC
  5
106
100
AcDbEntity
  8
USP-GEO
100
AcDbCircle
 10
3.487128405680838
 20
4.674881634279493
 30
0.0000000000000012
 40
0.5000000000000002
100
AcDbArc
 50
308.0872935978666
 51
349.9999999999998
  0
LINE
  5
107
100
AcDbEntity
  8
USP-GEO
100
AcDbLine
 10
1.641268391971028
 20
7.051999999999971
 30
0.0000000000000015
 11
1.782689748208342
 21
7.19342135623728
 31
0.0000000000000016
210
0.0
220
1.0
230
0.0000000000000002
  0
LINE
  5
108
100
AcDbEntity
  8
USP-GEO
100
AcDbLine
 10
1.782689748208362
 20
6.910578643762661
 30
0.0000000000000015
 11
1.641268391971038
 21
7.051999999999978
 31
0.0000000000000015
210
0.0
220
1.0
230
0.0000000000000002
  0
LINE
  5
109
100
AcDbEntity
  8
USP-GEO
100
AcDbLine
 10
1.782689748208355
 20
7.193421356237287
 30
0.0000000000000016
 11
1.924111104445671
 21
7.051999999999978
 31
0.0000000000000016
210
0.0
220
1.0
230
0.0000000000000002
  0
LINE
  5
10A
100
AcDbEntity
  8
USP-GEO
100
AcDbLine
 10
1.924111104445662
 20
7.051999999999981
 30
0.0000000000000016
 11
1.782689748208339
 21
6.910578643762665
 31
0.0000000000000015
210
0.0
220
1.0
230
0.0000000000000002
  0
LINE
  5
10B
100
AcDbEntity
  8
USP-GEO
100
AcDbLine
 10
4.045411104445598
 20
7.052000000000006
 30
0.0000000000000018
 11
3.903989748208282
 21
6.91057864376269
 31
0.0000000000000018
210
0.0
220
1.0
230
0.0000000000000002
  0
LINE
  5
10C
100
AcDbEntity
  8
USP-GEO
100
AcDbLine
 10
3.903989748208275
 20
7.193421356237312
 30
0.0000000000000018
 11
4.045411104445591
 21
7.051999999999996
 31
0.0000000000000018
210
0.0
220
1.0
230
0.0000000000000002
  0
LINE
  5
10D
100
AcDbEntity
  8
USP-GEO
100
AcDbLine
 10
3.762568391970958
 20
7.052000000000006
 30
0.0000000000000018
 11
3.903989748208275
 21
7.193421356237323
 31
0.0000000000000018
210
0.0
220
1.0
230
0.0000000000000002
  0
LINE
  5
10E
100
AcDbEntity
  8
USP-GEO
100
AcDbLine
 10
3.903989748208271
 20
6.910578643762672
 30
0.0000000000000018
 11
3.762568391970951
 21
7.051999999999992
 31
0.0000000000000018
210
0.0
220
1.0
230
0.0000000000000002
  0
LINE
  5
10F
100
AcDbEntity
  8
USP-GEO
100
AcDbLine
 10
4.439070284881967
 20
12.03099999999999
 30
0.000000000000003
 11
4.126570284881932
 21
12.03099999999998
 31
0.0000000000000029
210
0.0
220
1.0
230
0.0000000000000002
  0
ARC
  5
110
100
AcDbEntity
  8
USP-GEO
100
AcDbCircle
 10
4.282820284881957
 20
11.48925000000006
 30
0.0000000000000028
 40
0.1562500000000075
100
AcDbArc
 50
180.0
 51
0.0
  0
LINE
  5
111
100
AcDbEntity
  8
USP-HID
100
AcDbLine
 10
3.672798520440355
 20
11.90099999999998
 30
-0.0000000000000001
 11
5.672798520440441
 21
11.90099999999998
 31
-0.0000000000000001
  0
ARC
  5
112
100
AcDbEntity
  8
USP-GEO
100
AcDbCircle
 10
0.8413592115346126
 20
11.48925000000005
 30
0.0000000000000024
 40
0.156249999999995
100
AcDbArc
 50
180.0000000000065
 51
359.9999999999934
  0
LINE
  5
113
100
AcDbEntity
  8
USP-GEO
100
AcDbLine
 10
0.6851092115346092
 20
12.03099999999996
 30
0.0000000000000025
 11
0.9976092115346162
 21
12.03099999999996
 31
0.0000000000000025
210
0.0
220
1.0
230
0.0000000000000002
  0
LINE
  5
114
100
AcDbEntity
  8
USP-HID
100
AcDbLine
 10
0.0138809759761713
 20
11.90099999999998
 30
-0.0000000000000001
 11
2.013880975976258
 21
11.90099999999998
 31
-0.0000000000000001
  0
ARC
  5
115
100
AcDbEntity
  8
USP-GEO
100
AcDbCircle
 10
0.1249999999999964
 20
11.95824999999993
 30
0.0000000000000024
 40
0.1250000000000071
100
AcDbArc
 50
194.4775121859089
 51
247.6854136150894
  0
LINE
  5
116
100
AcDbEntity
  8
USP-GEO
100
AcDbLine
 10
0.0039692704309928
 20
11.97899999999997
 30
0.0000000000000024
 11
0.6851092115346163
 21
11.97899999999997
 31
0.0000000000000025
210
0.0
220
1.0
230
0.0000000000000002
  0
LINE
  5
117
100
AcDbEntity
  8
USP-GEO
100
AcDbLine
 10
0.0039692704309857
 20
11.92699999999997
 30
0.0000000000000024
 11
0.0039692704309857
 21
11.97899999999997
 31
0.0000000000000024
210
0.0
220
1.0
230
0.0000000000000002
  0
LINE
  5
118
100
AcDbEntity
  8
USP-GEO
100
AcDbLine
 10
0.0000000000000231
 20
11.92699999999997
 30
0.0000000000000024
 11
0.0000000000000231
 21
11.97899999999996
 31
0.0000000000000024
210
0.0
220
1.0
230
0.0000000000000002
  0
LINE
  5
119
100
AcDbEntity
  8
USP-GEO
100
AcDbLine
 10
0.0039692704310017
 20
11.97899999999996
 30
0.0000000000000024
 11
0.0
 21
11.97899999999996
 31
0.0000000000000024
210
0.0
220
1.0
230
0.0000000000000002
  0
LINE
  5
11A
100
AcDbEntity
  8
USP-GEO
100
AcDbLine
 10
0.0039692704309928
 20
11.92699999999996
 30
0.0000000000000024
 11
-0.0000000000000071
 21
11.92699999999996
 31
0.0000000000000024
210
0.0
220
1.0
230
0.0000000000000002
  0
ARC
  5
11B
100
AcDbEntity
  8
USP-GEO
100
AcDbCircle
 10
0.2330192401246922
 20
11.50856010399162
 30
0.0000000000000023
 40
0.2500000000000001
100
AcDbArc
 50
9.999999999992747
 51
67.68541361508161
  0
LINE
  5
11C
100
AcDbEntity
  8
USP-GEO
100
AcDbLine
 10
0.3279421620071332
 20
11.73983837556357
 30
0.0000000000000024
 11
0.0775385390587946
 21
11.84261086421395
 31
0.0000000000000024
210
0.0
220
1.0
230
0.0000000000000002
  0
LINE
  5
11D
100
AcDbEntity
  8
USP-GEO
100
AcDbLine
 10
0.6851092115346181
 20
11.48925000000004
 30
0.0000000000000024
 11
0.6851092115346127
 21
12.03099999999996
 31
0.0000000000000025
210
0.0
220
1.0
230
0.0000000000000002
  0
LINE
  5
11E
100
AcDbEntity
  8
USP-GEO
100
AcDbLine
 10
1.560109211534644
 20
11.97899999999995
 30
0.0000000000000026
 11
2.003969270431081
 21
11.97899999999997
 31
0.0000000000000027
210
0.0
220
1.0
230
0.0000000000000002
  0
CIRCLE
  5
11F
100
AcDbEntity
  8
USP-GEO
100
AcDbCircle
 10
1.120825875594057
 20
11.33300000000003
 30
0.0000000000000024
 40
0.0900000000000001
  0
LINE
  5
120
100
AcDbEntity
  8
USP-GEO
100
AcDbLine
 10
1.247609211534614
 20
12.03099999999997
 30
0.0000000000000026
 11
1.560109211534649
 21
12.03099999999997
 31
0.0000000000000026
210
0.0
220
1.0
230
0.0000000000000002
  0
ARC
  5
121
100
AcDbEntity
  8
USP-GEO
100
AcDbCircle
 10
1.403859211534625
 20
11.48925000000005
 30
0.0000000000000025
 40
0.1562500000000076
100
AcDbArc
 50
180.0000000000065
 51
0.0
  0
LINE
  5
122
100
AcDbEntity
  8
USP-GEO
100
AcDbLine
 10
1.24760921153463
 20
11.48925000000004
 30
0.0000000000000025
 11
1.247609211534616
 21
12.03099999999997
 31
0.0000000000000026
210
0.0
220
1.0
230
0.0000000000000002
  0
LINE
  5
123
100
AcDbEntity
  8
USP-GEO
100
AcDbLine
 10
0.9976092115346162
 20
12.03099999999996
 30
0.0000000000000025
 11
0.9976092115345984
 21
11.48925000000003
 31
0.0000000000000024
210
0.0
220
1.0
230
0.0000000000000002
  0
LINE
  5
124
100
AcDbEntity
  8
USP-GEO
100
AcDbLine
 10
0.9976092115346233
 20
11.97899999999998
 30
0.0000000000000025
 11
1.24760921153463
 21
11.97899999999997
 31
0.0000000000000026
210
0.0
220
1.0
230
0.0000000000000002
  0
LINE
  5
125
100
AcDbEntity
  8
USP-GEO
100
AcDbLine
 10
1.560109211534649
 20
12.03099999999997
 30
0.0000000000000026
 11
1.560109211534626
 21
11.48925000000005
 31
0.0000000000000025
210
0.0
220
1.0
230
0.0000000000000002
  0
LINE
  5
126
100
AcDbEntity
  8
USP-GEO
100
AcDbLine
 10
2.041339748208315
 20
11.73983837556359
 30
0.0000000000000026
 11
2.041339748208315
 21
11.5519721484084
 31
0.0000000000000026
210
0.0
220
1.0
230
0.0000000000000002
  0
LINE
  5
127
100
AcDbEntity
  8
USP-GEO
100
AcDbLine
 10
2.093339748208313
 20
11.73983837556359
 30
0.0000000000000026
 11
2.093339748208313
 21
11.5519721484084
 31
0.0000000000000026
210
0.0
220
1.0
230
0.0000000000000002
  0
LINE
  5
128
100
AcDbEntity
  8
USP-GEO
100
AcDbLine
 10
2.041339748208306
 20
11.86537394135121
 30
0.0000000000000026
 11
2.041339748208306
 21
11.84261086421401
 31
0.0000000000000026
210
0.0
220
1.0
230
0.0000000000000002
  0
LINE
  5
129
100
AcDbEntity
  8
USP-GEO
100
AcDbLine
 10
2.09333974820832
 20
11.86537394135121
 30
0.0000000000000026
 11
2.041339748208308
 21
11.86537394135121
 31
0.0000000000000026
210
0.0
220
1.0
230
0.0000000000000002
  0
LINE
  5
12A
100
AcDbEntity
  8
USP-GEO
100
AcDbLine
 10
2.003969270431078
 20
11.97899999999997
 30
0.0000000000000027
 11
2.003969270431078
 21
11.92699999999998
 31
0.0000000000000026
210
0.0
220
1.0
230
0.0000000000000002
  0
ARC
  5
12B
100
AcDbEntity
  8
USP-GEO
100
AcDbCircle
 10
2.125000000000083
 20
11.95824999999993
 30
0.0000000000000027
 40
0.1250000000000071
100
AcDbArc
 50
194.4775121859053
 51
227.9883255139384
  0
LINE
  5
12C
100
AcDbEntity
  8
USP-GEO
100
AcDbLine
 10
2.093339748208311
 20
11.84261086421402
 30
0.0000000000000026
 11
2.093339748208311
 21
11.86537394135122
 31
0.0000000000000026
210
0.0
220
1.0
230
0.0000000000000002
  0
LINE
  5
12D
100
AcDbEntity
  8
USP-GEO
100
AcDbLine
 10
2.041339748208306
 20
11.84261086421401
 30
0.0000000000000026
 11
2.041339748208306
 21
11.73983837556362
 31
0.0000000000000026
210
0.0
220
1.0
230
0.0000000000000002
  0
LINE
  5
12E
100
AcDbEntity
  8
USP-GEO
100
AcDbLine
 10
2.093339748208313
 20
11.842610864214
 30
0.0000000000000026
 11
2.093339748208313
 21
11.73983837556361
 31
0.0000000000000026
210
0.0
220
1.0
230
0.0000000000000002
  0
LINE
  5
12F
100
AcDbEntity
  8
USP-GEO
100
AcDbLine
 10
3.682710225985545
 20
11.97900000000001
 30
0.0000000000000029
 11
4.126570284881999
 21
11.97899999999999
 31
0.0000000000000029
210
0.0
220
1.0
230
0.0000000000000002
  0
LINE
  5
130
100
AcDbEntity
  8
USP-GEO
100
AcDbLine
 10
3.645339748208325
 20
11.55197214840838
 30
0.0000000000000028
 11
3.645339748208325
 21
11.73983837556357
 31
0.0000000000000028
210
0.0
220
1.0
230
0.0000000000000002
  0
LINE
  5
131
100
AcDbEntity
  8
USP-GEO
100
AcDbLine
 10
3.593339748208318
 20
11.55197214840838
 30
0.0000000000000028
 11
3.593339748208318
 21
11.73983837556358
 31
0.0000000000000028
210
0.0
220
1.0
230
0.0000000000000002
  0
LINE
  5
132
100
AcDbEntity
  8
USP-GEO
100
AcDbLine
 10
3.593339748208318
 20
11.86537394135119
 30
0.0000000000000028
 11
3.645339748208321
 21
11.86537394135119
 31
0.0000000000000028
210
0.0
220
1.0
230
0.0000000000000002
  0
LINE
  5
133
100
AcDbEntity
  8
USP-GEO
100
AcDbLine
 10
3.645339748208328
 20
11.84261086421399
 30
0.0000000000000028
 11
3.645339748208328
 21
11.86537394135119
 31
0.0000000000000028
210
0.0
220
1.0
230
0.0000000000000002
  0
ARC
  5
134
100
AcDbEntity
  8
USP-GEO
100
AcDbCircle
 10
3.561679496416559
 20
11.95824999999996
 30
0.0000000000000028
 40
0.1249999999999957
100
AcDbArc
 50
312.0116744860462
 51
345.522487814088
  0
LINE
  5
135
100
AcDbEntity
  8
USP-GEO
100
AcDbLine
 10
3.682710225985545
 20
11.927
 30
0.0000000000000028
 11
3.682710225985545
 21
11.97900000000001
 31
0.0000000000000029
210
0.0
220
1.0
230
0.0000000000000002
  0
LINE
  5
136
100
AcDbEntity
  8
USP-GEO
100
AcDbLine
 10
3.593339748208322
 20
11.86537394135119
 30
0.0000000000000028
 11
3.593339748208322
 21
11.842610864214
 31
0.0000000000000028
210
0.0
220
1.0
230
0.0000000000000002
  0
LINE
  5
137
100
AcDbEntity
  8
USP-GEO
100
AcDbLine
 10
3.645339748208325
 20
11.73983837556359
 30
0.0000000000000028
 11
3.645339748208325
 21
11.84261086421398
 31
0.0000000000000028
210
0.0
220
1.0
230
0.0000000000000002
  0
LINE
  5
138
100
AcDbEntity
  8
USP-GEO
100
AcDbLine
 10
3.593339748208318
 20
11.84261086421399
 30
0.0000000000000028
 11
3.593339748208318
 21
11.7398383755636
 31
0.0000000000000028
210
0.0
220
1.0
230
0.0000000000000002
  0
LINE
  5
139
100
AcDbEntity
  8
USP-GEO
100
AcDbLine
 10
4.126570284881932
 20
12.03099999999998
 30
0.0000000000000029
 11
4.126570284881957
 21
11.48925000000006
 31
0.0000000000000028
210
0.0
220
1.0
230
0.0000000000000002
  0
LINE
  5
13A
100
AcDbEntity
  8
USP-GEO
100
AcDbLine
 10
5.001570284881978
 20
12.03099999999999
 30
0.000000000000003
 11
4.689070284881967
 21
12.03099999999998
 31
0.000000000000003
210
0.0
220
1.0
230
0.0000000000000002
  0
ARC
  5
13B
100
AcDbEntity
  8
USP-GEO
100
AcDbCircle
 10
4.845320284881971
 20
11.48925000000007
 30
0.0000000000000029
 40
0.156249999999995
100
AcDbArc
 50
180.0000000000091
 51
359.9999999999921
  0
CIRCLE
  5
13C
100
AcDbEntity
  8
USP-GEO
100
AcDbCircle
 10
4.565853620822579
 20
11.33300000000005
 30
0.0000000000000028
 40
0.0900000000000001
  0
LINE
  5
13D
100
AcDbEntity
  8
USP-GEO
100
AcDbLine
 10
4.439070284881999
 20
11.97900000000001
 30
0.000000000000003
 11
4.689070284881957
 21
11.97900000000001
 31
0.000000000000003
210
0.0
220
1.0
230
0.0000000000000002
  0
LINE
  5
13E
100
AcDbEntity
  8
USP-GEO
100
AcDbLine
 10
4.439070284881953
 20
11.48925000000006
 30
0.0000000000000028
 11
4.439070284881964
 21
12.03099999999999
 31
0.000000000000003
210
0.0
220
1.0
230
0.0000000000000002
  0
LINE
  5
13F
100
AcDbEntity
  8
USP-GEO
100
AcDbLine
 10
4.689070284881967
 20
12.03099999999997
 30
0.000000000000003
 11
4.689070284881992
 21
11.48925000000005
 31
0.0000000000000029
210
0.0
220
1.0
230
0.0000000000000002
  0
LINE
  5
140
100
AcDbEntity
  8
USP-GEO
100
AcDbLine
 10
5.001570284881964
 20
11.97899999999998
 30
0.000000000000003
 11
5.682710225985623
 21
11.97900000000001
 31
0.0000000000000031
210
0.0
220
1.0
230
0.0000000000000002
  0
LINE
  5
141
100
AcDbEntity
  8
USP-GEO
100
AcDbLine
 10
5.609140957357876
 20
11.84261086421399
 30
0.0000000000000031
 11
5.358737334409497
 21
11.7398383755636
 31
0.000000000000003
210
0.0
220
1.0
230
0.0000000000000002
  0
ARC
  5
142
100
AcDbEntity
  8
USP-GEO
100
AcDbCircle
 10
5.453660256291929
 20
11.50856010399165
 30
0.000000000000003
 40
0.2500000000000001
100
AcDbArc
 50
112.3145863849162
 51
170.0000000000031
  0
LINE
  5
143
100
AcDbEntity
  8
USP-GEO
100
AcDbLine
 10
5.001570284881967
 20
11.48925000000005
 30
0.0000000000000029
 11
5.001570284881971
 21
12.03099999999999
 31
0.000000000000003
210
0.0
220
1.0
230
0.0000000000000002
  0
LINE
  5
144
100
AcDbEntity
  8
USP-GEO
100
AcDbLine
 10
5.682710225985623
 20
11.97899999999999
 30
0.0000000000000031
 11
5.682710225985623
 21
11.927
 31
0.0000000000000031
210
0.0
220
1.0
230
0.0000000000000002
  0
ARC
  5
145
100
AcDbEntity
  8
USP-GEO
100
AcDbCircle
 10
5.561679496416637
 20
11.95824999999995
 30
0.0000000000000031
 40
0.1249999999999969
100
AcDbArc
 50
292.3145863849299
 51
345.5224878140982
  0
LINE
  5
146
100
AcDbEntity
  8
USP-GEO
100
AcDbLine
 10
5.686679496416619
 20
11.927
 30
0.0000000000000031
 11
5.686679496416619
 21
11.97900000000001
 31
0.0000000000000031
210
0.0
220
1.0
230
0.0000000000000002
  0
LINE
  5
147
100
AcDbEntity
  8
USP-GEO
100
AcDbLine
 10
5.686679496416644
 20
11.979
 30
0.0000000000000031
 11
5.68271022598563
 21
11.979
 31
0.0000000000000031
210
0.0
220
1.0
230
0.0000000000000002
  0
LINE
  5
148
100
AcDbEntity
  8
USP-GEO
100
AcDbLine
 10
5.686679496416637
 20
11.927
 30
0.0000000000000031
 11
5.682710225985623
 21
11.927
 31
0.0000000000000031
210
0.0
220
1.0
230
0.0000000000000002
  0
ENDBLK
  5
14A
100
AcDbEntity
  8
0
100
AcDbBlockEnd
  0
ENDSEC
  0
SECTION
  2
ENTITIES
  0
INSERT
  5
3
100
AcDbEntity
  8
USP
100
AcDbBlockReference
  2
THO15118_T
 10
12.95476643739904
 20
16.99607674540043
 30
-0.0000000000000088
  0
INSERT
  5
82
100
AcDbEntity
  8
USP
100
AcDbBlockReference
  2
THO15118_S
 10
3.085843542938846
 20
1.396414678864791
 30
-0.0000000000000087
  0
INSERT
  5
CE
100
AcDbEntity
  8
USP
100
AcDbBlockReference
  2
THO15118_F
 10
12.95476643739901
 20
1.422414678864793
 30
-0.0000000000000089
  0
ENDSEC
  0
SECTION
  2
OBJECTS
  0
DICTIONARY
  5
166
102
{ACAD_XDICTIONARY
360
167
102
}
100
AcDbDictionary
  3
ACAD_GROUP
350
163
  3
ACAD_MLINESTYLE
350
164
  0
DICTIONARY
  5
158
100
AcDbDictionary
280
     1
  0
DICTIONARY
  5
15A
100
AcDbDictionary
280
     1
  0
DICTIONARY
  5
6
100
AcDbDictionary
280
     1
  0
DICTIONARY
  5
B
100
AcDbDictionary
280
     1
  0
DICTIONARY
  5
16B
100
AcDbDictionary
280
     1
  0
DICTIONARY
  5
14B
100
AcDbDictionary
280
     1
  3
ACAD_LAYOUTSELFREF
360
14C
  0
DICTIONARY
  5
150
100
AcDbDictionary
280
     1
  3
ACAD_LAYOUTSELFREF
360
151
  0
DICTIONARY
  5
167
100
AcDbDictionary
280
     1
  3
ACAD_XREC_ROUNDTRIP
360
168
  0
DICTIONARY
  5
163
102
{ACAD_REACTORS
330
166
102
}
100
AcDbDictionary
  0
DICTIONARY
  5
164
102
{ACAD_XDICTIONARY
360
165
102
}
102
{ACAD_REACTORS
330
166
102
}
100
AcDbDictionary
  3
STANDARD
350
169
  0
XRECORD
  5
14C
102
{ACAD_REACTORS
330
14B
102
}
100
AcDbXrecord
340
2
  0
XRECORD
  5
151
102
{ACAD_REACTORS
330
150
102
}
100
AcDbXrecord
340
151
  0
XRECORD
  5
168
102
{ACAD_REACTORS
330
167
102
}
100
AcDbXrecord
102
EXTNAMES
  1
ACDBVARIABLEDICTIONARY
  2
AcDbVariableDictionary
  0
DICTIONARY
  5
165
100
AcDbDictionary
280
     1
  0
MLINESTYLE
  5
169
102
{ACAD_REACTORS
330
164
102
}
100
AcDbMlineStyle
  2
STANDARD
 70
     0
  3

 62
   256
 51
90.0
 52
90.0
 71
     2
 49
0.5
 62
   256
  6
BYLAYER
 49
-0.5
 62
   256
  6
BYLAYER
  0
ENDSEC
  0
EOF
