  0
SECTION
  2
HEADER
  9
$ACADVER
  1
AC1014
  9
$ACADMAINTVER
 70
     9
  9
$DWGCODEPAGE
  3
ANSI_1252
  9
$INSBASE
 10
0.0
 20
0.0
 30
0.0
  9
$EXTMIN
 10
0.0026355573849912
 20
0.0007528142654891
 30
0.0
  9
$EXTMAX
 10
18.96693200817302
 20
23.94367727853402
 30
0.0
  9
$LIMMIN
 10
0.0
 20
0.0
  9
$LIMMAX
 10
12.0
 20
9.0
  9
$ORTHOMODE
 70
     0
  9
$REGENMODE
 70
     1
  9
$FILLMODE
 70
     1
  9
$QTEXTMODE
 70
     0
  9
$MIRRTEXT
 70
     0
  9
$DRAGMODE
 70
     2
  9
$LTSCALE
 40
1.0
  9
$OSMODE
 70
    37
  9
$ATTMODE
 70
     1
  9
$TEXTSIZE
 40
0.375
  9
$TRACEWID
 40
0.05
  9
$TEXTSTYLE
  7
STANDARD
  9
$CLAYER
  8
0
  9
$CELTYPE
  6
BYLAYER
  9
$CECOLOR
 62
   256
  9
$CELTSCALE
 40
1.0
  9
$DELOBJ
 70
     1
  9
$DISPSILH
 70
     1
  9
$DIMSCALE
 40
6.0
  9
$DIMASZ
 40
0.125
  9
$DIMEXO
 40
0.0625
  9
$DIMDLI
 40
0.37890625
  9
$DIMRND
 40
0.0
  9
$DIMDLE
 40
0.0
  9
$DIMEXE
 40
0.09375
  9
$DIMTP
 40
0.0
  9
$DIMTM
 40
0.0
  9
$DIMTXT
 40
0.109375
  9
$DIMCEN
 40
0.0
  9
$DIMTSZ
 40
0.0
  9
$DIMTOL
 70
     0
  9
$DIMLIM
 70
     0
  9
$DIMTIH
 70
     1
  9
$DIMTOH
 70
     1
  9
$DIMSE1
 70
     0
  9
$DIMSE2
 70
     0
  9
$DIMTAD
 70
     0
  9
$DIMZIN
 70
     8
  9
$DIMBLK
  1

  9
$DIMASO
 70
     1
  9
$DIMSHO
 70
     1
  9
$DIMPOST
  1

  9
$DIMAPOST
  1

  9
$DIMALT
 70
     0
  9
$DIMALTD
 70
     2
  9
$DIMALTF
 40
25.4
  9
$DIMLFAC
 40
1.0
  9
$DIMTOFL
 70
     0
  9
$DIMTVP
 40
0.0
  9
$DIMTIX
 70
     0
  9
$DIMSOXD
 70
     0
  9
$DIMSAH
 70
     0
  9
$DIMBLK1
  1

  9
$DIMBLK2
  1

  9
$DIMSTYLE
  2
STANDARD
  9
$DIMCLRD
 70
     0
  9
$DIMCLRE
 70
     0
  9
$DIMCLRT
 70
   256
  9
$DIMTFAC
 40
1.0
  9
$DIMGAP
 40
0.08984375
  9
$DIMJUST
 70
     0
  9
$DIMSD1
 70
     0
  9
$DIMSD2
 70
     0
  9
$DIMTOLJ
 70
     1
  9
$DIMTZIN
 70
     0
  9
$DIMALTZ
 70
     0
  9
$DIMALTTZ
 70
     0
  9
$DIMFIT
 70
     3
  9
$DIMUPT
 70
     1
  9
$DIMUNIT
 70
     7
  9
$DIMDEC
 70
     4
  9
$DIMTDEC
 70
     4
  9
$DIMALTU
 70
     2
  9
$DIMALTTD
 70
     2
  9
$DIMTXSTY
  7
STANDARD
  9
$DIMAUNIT
 70
     0
  9
$LUNITS
 70
     5
  9
$LUPREC
 70
     6
  9
$SKETCHINC
 40
0.1
  9
$FILLETRAD
 40
0.0
  9
$AUNITS
 70
     0
  9
$AUPREC
 70
     1
  9
$MENU
  1
CUSTOM
  9
$ELEVATION
 40
0.0
  9
$PELEVATION
 40
0.0
  9
$THICKNESS
 40
0.0
  9
$LIMCHECK
 70
     0
  9
$BLIPMODE
 70
     0
  9
$CHAMFERA
 40
0.0
  9
$CHAMFERB
 40
0.0
  9
$CHAMFERC
 40
0.0
  9
$CHAMFERD
 40
0.0
  9
$SKPOLY
 70
     0
  9
$TDCREATE
 40
2451263.663231366
  9
$TDUPDATE
 40
2452759.747611215
  9
$TDINDWG
 40
0.1329709954
  9
$TDUSRTIMER
 40
0.1329709954
  9
$USRTIMER
 70
     1
  9
$ANGBASE
 50
0.0
  9
$ANGDIR
 70
     0
  9
$PDMODE
 70
     0
  9
$PDSIZE
 40
0.0
  9
$PLINEWID
 40
0.0
  9
$COORDS
 70
     1
  9
$SPLFRAME
 70
     0
  9
$SPLINETYPE
 70
     6
  9
$SPLINESEGS
 70
     8
  9
$ATTDIA
 70
     0
  9
$ATTREQ
 70
     1
  9
$HANDLING
 70
     1
  9
$HANDSEED
  5
12F
  9
$SURFTAB1
 70
     6
  9
$SURFTAB2
 70
     6
  9
$SURFTYPE
 70
     6
  9
$SURFU
 70
     6
  9
$SURFV
 70
     6
  9
$UCSNAME
  2

  9
$UCSORG
 10
0.0
 20
0.0
 30
0.0
  9
$UCSXDIR
 10
1.0
 20
0.0
 30
0.0
  9
$UCSYDIR
 10
0.0
 20
1.0
 30
0.0
  9
$PUCSNAME
  2

  9
$PUCSORG
 10
0.0
 20
0.0
 30
0.0
  9
$PUCSXDIR
 10
1.0
 20
0.0
 30
0.0
  9
$PUCSYDIR
 10
0.0
 20
1.0
 30
0.0
  9
$USERI1
 70
     0
  9
$USERI2
 70
     0
  9
$USERI3
 70
     0
  9
$USERI4
 70
     0
  9
$USERI5
 70
     0
  9
$USERR1
 40
0.0
  9
$USERR2
 40
0.0
  9
$USERR3
 40
0.0
  9
$USERR4
 40
0.0
  9
$USERR5
 40
0.0
  9
$WORLDVIEW
 70
     1
  9
$SHADEDGE
 70
     3
  9
$SHADEDIF
 70
    70
  9
$TILEMODE
 70
     1
  9
$MAXACTVP
 70
    16
  9
$PINSBASE
 10
0.0
 20
0.0
 30
0.0
  9
$PLIMCHECK
 70
     0
  9
$PEXTMIN
 10
1.052083323321005
 20
0.7937500251559762
 30
0.0
  9
$PEXTMAX
 10
9.468749909889039
 20
7.143750226403783
 30
0.0
  9
$PLIMMIN
 10
-0.2145830289585384
 20
-0.2812499887361301
  9
$PLIMMAX
 10
10.78541673074557
 20
8.218749770967978
  9
$UNITMODE
 70
     0
  9
$VISRETAIN
 70
     0
  9
$PLINEGEN
 70
     0
  9
$PSLTSCALE
 70
     0
  9
$TREEDEPTH
 70
  3020
  9
$PICKSTYLE
 70
     1
  9
$CMLSTYLE
  2
STANDARD
  9
$CMLJUST
 70
     0
  9
$CMLSCALE
 40
1.0
  9
$PROXYGRAPHICS
 70
     1
  9
$MEASUREMENT
 70
     0
  0
ENDSEC
  0
SECTION
  2
CLASSES
  0
CLASS
  1
ACDBDICTIONARYWDFLT
  2
AcDbDictionaryWithDefault
  3
AutoCAD 2000
 90
        0
280
     0
281
     0
  0
CLASS
  1
ACDBPLACEHOLDER
  2
AcDbPlaceHolder
  3
AutoCAD 2000
 90
        0
280
     0
281
     0
  0
CLASS
  1
LAYOUT
  2
AcDbLayout
  3
AutoCAD 2000
 90
        0
280
     0
281
     0
  0
CLASS
  1
DICTIONARYVAR
  2
AcDbDictionaryVar
  3
"AutoCAD"
 90
        0
280
     0
281
     0
  0
CLASS
  1
LONG_TRANSACTION
  2
AcDbLongTransaction
  3
AutoCAD 2000
 90
        0
280
     0
281
     0
  0
CLASS
  1
LWPOLYLINE
  2
AcDbPolyline
  3
"AutoCAD"
 90
        0
280
     0
281
     1
  0
CLASS
  1
HATCH
  2
AcDbHatch
  3
"ACAD_SEDONA"
 90
        0
280
     0
281
     1
  0
CLASS
  1
XRECORD
  2
AcDbXrecord
  3
"<Built In>"
 90
        0
280
     0
281
     0
  0
CLASS
  1
LONG_TRANSACTION
  2
AcDbLongTransaction
  3
AutoCAD 2000
 90
        0
280
     0
281
     0
  0
CLASS
  1
LWPOLYLINE
  2
AcDbPolyline
  3
"AutoCAD"
 90
        0
280
     0
281
     1
  0
CLASS
  1
HATCH
  2
AcDbHatch
  3
"ACAD_SEDONA"
 90
        0
280
     0
281
     1
  0
CLASS
  1
XRECORD
  2
AcDbXrecord
  3
"<Built In>"
 90
        0
280
     0
281
     0
  0
ENDSEC
  0
SECTION
  2
TABLES
  0
TABLE
  2
VPORT
  5
111
100
AcDbSymbolTable
 70
     1
  0
VPORT
  5
12B
100
AcDbSymbolTableRecord
100
AcDbViewportTableRecord
  2
*ACTIVE
 70
     0
 10
0.0
 20
0.0
 11
1.0
 21
1.0
 12
-13.61082812823388
 22
22.53774448212801
 13
0.0
 23
0.0
 14
1.0
 24
1.0
 15
0.0
 25
0.0
 16
0.0
 26
0.0
 36
1.0
 17
23.09603071721725
 27
-10.27010416511325
 37
-10.44050274849355
 40
24.71018360825585
 41
1.457627118644067
 42
50.0
 43
10.55307667737539
 44
10.55307667737539
 50
0.0
 51
0.0
 71
     0
 72
   100
 73
     1
 74
     1
 75
     0
 76
     0
 77
     0
 78
     0
  0
ENDTAB
  0
TABLE
  2
LTYPE
  5
10C
100
AcDbSymbolTable
 70
     2
  0
LTYPE
  5
10D
100
AcDbSymbolTableRecord
100
AcDbLinetypeTableRecord
  2
BYBLOCK
 70
     0
  3

 72
    65
 73
     0
 40
0.0
  0
LTYPE
  5
10E
100
AcDbSymbolTableRecord
100
AcDbLinetypeTableRecord
  2
BYLAYER
 70
     0
  3

 72
    65
 73
     0
 40
0.0
  0
LTYPE
  5
5
100
AcDbSymbolTableRecord
100
AcDbLinetypeTableRecord
  2
CONTINUOUS
 70
     0
  3
Solid line
 72
    65
 73
     0
 40
0.0
  0
LTYPE
  5
7A
100
AcDbSymbolTableRecord
100
AcDbLinetypeTableRecord
  2
HIDDEN
 70
     0
  3
Hidden __ __ __ __ __ __ __ __ __ __ __ __ __ _
 72
    65
 73
     2
 40
0.375
 49
0.25
 74
     0
 49
-0.125
 74
     0
  0
ENDTAB
  0
TABLE
  2
LAYER
  5
10A
100
AcDbSymbolTable
 70
     5
  0
LAYER
  5
70
100
AcDbSymbolTableRecord
100
AcDbLayerTableRecord
  2
0
 70
     0
 62
     7
  6
CONTINUOUS
  0
LAYER
  5
8
100
AcDbSymbolTableRecord
100
AcDbLayerTableRecord
  2
USP-GEO
 70
     0
 62
     7
  6
CONTINUOUS
  0
LAYER
  5
11
100
AcDbSymbolTableRecord
100
AcDbLayerTableRecord
  2
USP-TXT
 70
     0
 62
     7
  6
CONTINUOUS
  0
LAYER
  5
79
100
AcDbSymbolTableRecord
100
AcDbLayerTableRecord
  2
USP-HID
 70
     0
 62
     7
  6
HIDDEN
  0
LAYER
  5
4
100
AcDbSymbolTableRecord
100
AcDbLayerTableRecord
  2
USP
 70
     0
 62
     7
  6
CONTINUOUS
  0
ENDTAB
  0
TABLE
  2
STYLE
  5
10B
100
AcDbSymbolTable
 70
     1
  0
STYLE
  5
12
100
AcDbSymbolTableRecord
100
AcDbTextStyleTableRecord
  2
STANDARD
 70
     0
 40
0.0
 41
1.0
 50
0.0
 71
     0
 42
0.375
  3
txt
  4

  0
ENDTAB
  0
TABLE
  2
VIEW
  5
10F
100
AcDbSymbolTable
 70
     0
  0
ENDTAB
  0
TABLE
  2
UCS
  5
110
100
AcDbSymbolTable
 70
     0
  0
ENDTAB
  0
TABLE
  2
APPID
  5
113
100
AcDbSymbolTable
 70
     1
  0
APPID
  5
105
100
AcDbSymbolTableRecord
100
AcDbRegAppTableRecord
  2
ACAD
 70
     0
  0
ENDTAB
  0
TABLE
  2
DIMSTYLE
  5
114
100
AcDbSymbolTable
 70
     1
  0
DIMSTYLE
105
11C
100
AcDbSymbolTableRecord
100
AcDbDimStyleTableRecord
  2
STANDARD
 70
     0
  3

  4

  5

  6

  7

 40
1.0
 41
0.18
 42
0.0625
 43
0.38
 44
0.18
 45
0.0
 46
0.0
 47
0.0
 48
0.0
140
0.18
141
0.09
142
0.0
143
25.4
144
1.0
145
0.0
146
1.0
147
0.09
 71
     0
 72
     0
 73
     1
 74
     1
 75
     0
 76
     0
 77
     0
 78
     0
170
     0
171
     2
172
     0
173
     0
174
     0
175
     0
176
     0
177
     0
178
     0
270
     2
271
     4
272
     4
273
     2
274
     2
340
12
275
     0
280
     0
281
     0
282
     0
283
     1
284
     0
285
     0
286
     0
287
     3
288
     0
  0
ENDTAB
  0
TABLE
  2
BLOCK_RECORD
  5
1
100
AcDbSymbolTable
 70
     3
  0
BLOCK_RECORD
  5
2
102
{ACAD_XDICTIONARY
360
FC
102
}
100
AcDbSymbolTableRecord
100
AcDbBlockTableRecord
  2
*MODEL_SPACE
  0
BLOCK_RECORD
  5
100
102
{ACAD_XDICTIONARY
360
106
102
}
100
AcDbSymbolTableRecord
100
AcDbBlockTableRecord
  2
*PAPER_SPACE
  0
BLOCK_RECORD
  5
6
100
AcDbSymbolTableRecord
100
AcDbBlockTableRecord
  2
THO15118-2_F
  0
BLOCK_RECORD
  5
73
100
AcDbSymbolTableRecord
100
AcDbBlockTableRecord
  2
THO15118-2_S
  0
BLOCK_RECORD
  5
9A
100
AcDbSymbolTableRecord
100
AcDbBlockTableRecord
  2
THO15118-2_T
  0
ENDTAB
  0
ENDSEC
  0
SECTION
  2
BLOCKS
  0
BLOCK
  5
FE
100
AcDbEntity
  8
0
100
AcDbBlockBegin
  2
*MODEL_SPACE
 70
     0
 10
0.0
 20
0.0
 30
0.0
  3
*MODEL_SPACE
  1

  0
ENDBLK
  5
FF
100
AcDbEntity
  8
0
100
AcDbBlockEnd
  0
BLOCK
  5
108
100
AcDbEntity
 67
     1
  8
0
100
AcDbBlockBegin
  2
*PAPER_SPACE
 70
     0
 10
0.0
 20
0.0
 30
0.0
  3
*PAPER_SPACE
  1

  0
ENDBLK
  5
109
100
AcDbEntity
 67
     1
  8
0
100
AcDbBlockEnd
  0
BLOCK
  5
6F
100
AcDbEntity
  8
0
100
AcDbBlockBegin
  2
THO15118-2_F
 70
     0
 10
0.0
 20
0.0
 30
0.0
  3
THO15118-2_F
  1

  0
LINE
  5
7
100
AcDbEntity
  8
USP-GEO
100
AcDbLine
 10
7.812507995735202
 20
11.93799999999681
 30
0.0
 11
5.687500000000706
 21
3.415058447094152
 31
0.0
  0
LINE
  5
9
100
AcDbEntity
  8
USP-GEO
100
AcDbLine
 10
2.561999999999976
 20
1.281750000000048
 30
0.0
 11
2.562000000000001
 21
11.00986358785502
 31
0.0
  0
LINE
  5
A
100
AcDbEntity
  8
USP-GEO
100
AcDbLine
 10
2.498999999999998
 20
11.00986358785502
 30
0.0
 11
2.498999999999973
 21
1.281750000000048
 31
0.0
  0
LINE
  5
B
100
AcDbEntity
  8
USP-GEO
100
AcDbLine
 10
5.624499999999969
 20
1.281750000000041
 30
0.0
 11
5.624499999999992
 21
11.0098635878547
 31
0.0
  0
LINE
  5
C
100
AcDbEntity
  8
USP-GEO
100
AcDbLine
 10
5.687499999999971
 20
1.281750000000041
 30
0.0
 11
5.687499999999994
 21
11.00986358785469
 31
0.0
  0
LINE
  5
D
100
AcDbEntity
  8
USP-GEO
100
AcDbLine
 10
2.498999999999985
 20
3.415058447093778
 30
0.0
 11
0.3739920042647693
 21
11.93800000000007
 31
0.0
  0
LINE
  5
E
100
AcDbEntity
  8
USP-GEO
100
AcDbLine
 10
2.561999999999976
 20
0.0629999999999988
 30
0.0
 11
5.624499999999962
 21
0.0629999999999917
 31
0.0
  0
LINE
  5
F
100
AcDbEntity
  8
USP-GEO
100
AcDbLine
 10
2.498999999999973
 20
0.0
 30
0.0
 11
5.687499999999964
 21
-0.0000000000000071
 31
0.0
  0
TEXT
  5
10
100
AcDbEntity
  8
USP-TXT
100
AcDbText
 10
-0.1518492237921123
 20
-2.177102399286466
 30
0.0
 40
0.375
  1
THO15118-2 - FRONT VIEW
 72
     1
 11
3.973150776207887
 21
-2.177102399286466
 31
0.0
100
AcDbText
  0
LINE
  5
13
100
AcDbEntity
  8
USP-GEO
100
AcDbLine
 10
2.561999999999969
 20
0.0629999999999988
 30
0.0
 11
2.561999999999972
 21
1.281750000000048
 31
0.0
  0
LINE
  5
14
100
AcDbEntity
  8
USP-GEO
100
AcDbLine
 10
2.498999999999969
 20
1.281750000000048
 30
0.0
 11
2.498999999999966
 21
0.0
 31
0.0
  0
ARC
  5
15
100
AcDbEntity
  8
USP-GEO
100
AcDbCircle
 10
2.561999999999976
 20
1.450393272336327
 30
0.0
 40
0.3129999999999987
100
AcDbArc
 50
149.4302529744432
 51
258.3882996722727
  0
LINE
  5
16
100
AcDbEntity
  8
USP-GEO
100
AcDbLine
 10
2.402812312519506
 20
1.719889617681898
 30
0.0
 11
2.292503654654404
 21
1.609580959816797
 31
0.0
  0
LINE
  5
17
100
AcDbEntity
  8
USP-GEO
100
AcDbLine
 10
2.561999999999976
 20
1.281750000000048
 30
0.0
 11
2.498999999999973
 21
1.281750000000048
 31
0.0
  0
ARC
  5
18
100
AcDbEntity
  8
USP-GEO
100
AcDbCircle
 10
2.561999999999976
 20
1.450393272336327
 30
0.0
 40
0.3129999999999987
100
AcDbArc
 50
101.6117003277267
 51
120.5697470255567
  0
LINE
  5
19
100
AcDbEntity
  8
USP-GEO
100
AcDbLine
 10
1.880881002158219
 20
8.240640012114038
 30
0.0
 11
2.008160222835329
 21
8.113360791436814
 31
0.0
  0
CIRCLE
  5
1A
100
AcDbEntity
  8
USP-GEO
100
AcDbCircle
 10
1.931147795677979
 20
6.725980614863356
 30
0.0
 40
0.09
  0
LINE
  5
1B
100
AcDbEntity
  8
USP-GEO
100
AcDbLine
 10
2.008160222835322
 20
8.113360791436821
 30
0.0
 11
1.880881002158212
 21
7.986081570759598
 31
0.0
  0
LINE
  5
1C
100
AcDbEntity
  8
USP-GEO
100
AcDbLine
 10
1.753601781480876
 20
8.11336079143682
 30
0.0
 11
1.880881002158213
 21
8.240640012114043
 31
0.0
  0
LINE
  5
1D
100
AcDbEntity
  8
USP-GEO
100
AcDbLine
 10
1.880881002158215
 20
7.986081570759587
 30
0.0
 11
1.753601781480877
 21
8.113360791436811
 31
0.0
  0
CIRCLE
  5
1E
100
AcDbEntity
  8
USP-GEO
100
AcDbCircle
 10
1.317297419763633
 20
9.187999998624878
 30
0.0
 40
0.09
  0
ARC
  5
1F
100
AcDbEntity
  8
USP-GEO
100
AcDbCircle
 10
2.499000000000023
 20
7.438000000000094
 30
0.0
 40
0.15625
100
AcDbArc
 50
89.99999999999923
 51
270.0
  0
LINE
  5
20
100
AcDbEntity
  8
USP-GEO
100
AcDbLine
 10
5.624499999999969
 20
1.281750000000041
 30
0.0
 11
5.624499999999966
 21
0.0629999999999953
 31
0.0
  0
LINE
  5
21
100
AcDbEntity
  8
USP-GEO
100
AcDbLine
 10
5.687499999999967
 20
1.281750000000041
 30
0.0
 11
5.687499999999964
 21
-0.0000000000000071
 31
0.0
  0
ARC
  5
22
100
AcDbEntity
  8
USP-GEO
100
AcDbCircle
 10
5.624499999999969
 20
1.455606727663649
 30
0.0
 40
0.3129999999999987
100
AcDbArc
 50
281.6117003277284
 51
30.56974702555734
  0
LINE
  5
23
100
AcDbEntity
  8
USP-GEO
100
AcDbLine
 10
5.783687687480439
 20
1.725103073009224
 30
0.0
 11
5.89399634534554
 21
1.614794415144123
 31
0.0
  0
LINE
  5
24
100
AcDbEntity
  8
USP-GEO
100
AcDbLine
 10
5.624499999999969
 20
1.281750000000041
 30
0.0
 11
5.687499999999971
 21
1.281750000000041
 31
0.0
  0
ARC
  5
25
100
AcDbEntity
  8
USP-GEO
100
AcDbCircle
 10
5.624499999999969
 20
1.455606727663649
 30
0.0
 40
0.3129999999999987
100
AcDbArc
 50
59.43025297444366
 51
78.38829967227169
  0
ARC
  5
26
100
AcDbEntity
  8
USP-GEO
100
AcDbCircle
 10
5.687499999999715
 20
7.438000000000094
 30
0.0
 40
0.15625
100
AcDbArc
 50
269.9999999999967
 51
90.0
  0
CIRCLE
  5
27
100
AcDbEntity
  8
USP-GEO
100
AcDbCircle
 10
6.255352204321809
 20
6.72598061486023
 30
0.0
 40
0.09
  0
LINE
  5
28
100
AcDbEntity
  8
USP-GEO
100
AcDbLine
 10
6.305618997841582
 20
8.240640012110924
 30
0.0
 11
6.432898218518923
 21
8.113360791433697
 31
0.0
  0
LINE
  5
29
100
AcDbEntity
  8
USP-GEO
100
AcDbLine
 10
6.43289821851892
 20
8.113360791433683
 30
0.0
 11
6.305618997841581
 21
7.986081570756461
 31
0.0
  0
LINE
  5
2A
100
AcDbEntity
  8
USP-GEO
100
AcDbLine
 10
6.178339777164467
 20
8.113360791433688
 30
0.0
 11
6.30561899784158
 21
8.240640012110915
 31
0.0
  0
LINE
  5
2B
100
AcDbEntity
  8
USP-GEO
100
AcDbLine
 10
6.305618997841581
 20
7.986081570756468
 30
0.0
 11
6.178339777164472
 21
8.113360791433693
 31
0.0
  0
CIRCLE
  5
2C
100
AcDbEntity
  8
USP-GEO
100
AcDbCircle
 10
6.869202580236162
 20
9.187999998621744
 30
0.0
 40
0.09
  0
LINE
  5
2D
100
AcDbEntity
  8
USP-GEO
100
AcDbLine
 10
0.3739920042647644
 20
12.00100000000007
 30
0.0
 11
-0.0000000000000009
 21
12.00100000000007
 31
0.0
  0
LINE
  5
2E
100
AcDbEntity
  8
USP-GEO
100
AcDbLine
 10
0.3739920042647635
 20
11.93800000000007
 30
0.0
 11
-0.0000000000000018
 21
11.93800000000007
 31
0.0
  0
LINE
  5
2F
100
AcDbEntity
  8
USP-GEO
100
AcDbLine
 10
0.0
 20
11.93800000000007
 30
0.0
 11
0.0
 21
12.00100000000007
 31
0.0
  0
LINE
  5
30
100
AcDbEntity
  8
USP-GEO
100
AcDbLine
 10
1.950000000000009
 20
12.03250000000007
 30
0.0
 11
1.550000000000011
 21
12.03250000000007
 31
0.0
  0
ARC
  5
31
100
AcDbEntity
  8
USP-GEO
100
AcDbCircle
 10
1.75
 20
10.28800000000005
 30
0.0
 40
0.2000000000000011
100
AcDbArc
 50
179.9999999999967
 51
0.0000000000041983
  0
LINE
  5
32
100
AcDbEntity
  8
USP-GEO
100
AcDbLine
 10
0.7999999999999972
 20
10.28800000000005
 30
0.0
 11
0.8000000000000008
 21
12.03250000000006
 31
0.0
  0
LINE
  5
33
100
AcDbEntity
  8
USP-GEO
100
AcDbLine
 10
1.200000000000002
 20
12.03250000000006
 30
0.0
 11
1.200000000000002
 21
10.28800000000006
 31
0.0
  0
LINE
  5
34
100
AcDbEntity
  8
USP-GEO
100
AcDbLine
 10
1.549999999999998
 20
10.73922499389953
 30
0.0
 11
1.550000000000001
 21
12.03250000000007
 31
0.0
  0
ARC
  5
35
100
AcDbEntity
  8
USP-GEO
100
AcDbCircle
 10
1.0
 20
10.28800000000006
 30
0.0
 40
0.2000000000000011
100
AcDbArc
 50
180.0000000000021
 51
0.0000000000001272
  0
LINE
  5
36
100
AcDbEntity
  8
USP-GEO
100
AcDbLine
 10
1.549999999999997
 20
10.28800000000005
 30
0.0
 11
1.549999999999998
 21
10.63677500610057
 31
0.0
  0
ARC
  5
37
100
AcDbEntity
  8
USP-GEO
100
AcDbCircle
 10
1.623999999999995
 20
10.68800000000006
 30
0.0
 40
0.090000000000011
100
AcDbArc
 50
214.6921305853525
 51
145.3078694146533
  0
ARC
  5
38
100
AcDbEntity
  8
USP-GEO
100
AcDbCircle
 10
1.623999999999995
 20
10.68800000000005
 30
0.0
 40
0.090000000000011
100
AcDbArc
 50
145.3078694146422
 51
214.6921305853608
  0
LINE
  5
39
100
AcDbEntity
  8
USP-GEO
100
AcDbLine
 10
1.200000000000002
 20
12.03250000000006
 30
0.0
 11
0.8000000000000042
 21
12.03250000000006
 31
0.0
  0
LINE
  5
3A
100
AcDbEntity
  8
USP-GEO
100
AcDbLine
 10
0.3739920042647711
 20
12.00100000000006
 30
0.0
 11
0.7999999999999972
 21
12.00100000000006
 31
0.0
  0
LINE
  5
3B
100
AcDbEntity
  8
USP-GEO
100
AcDbLine
 10
0.3739920042647711
 20
11.93800000000007
 30
0.0
 11
0.3739920042647711
 21
12.00100000000006
 31
0.0
  0
LINE
  5
3C
100
AcDbEntity
  8
USP-GEO
100
AcDbLine
 10
1.200000000000002
 20
12.00100000000005
 30
0.0
 11
1.550000000000011
 21
12.00100000000005
 31
0.0
  0
LINE
  5
3D
100
AcDbEntity
  8
USP-GEO
100
AcDbLine
 10
2.498656006862561
 20
12.00100000000004
 30
0.0
 11
2.49865600686256
 21
11.3240843907676
 31
0.0
  0
LINE
  5
3E
100
AcDbEntity
  8
USP-GEO
100
AcDbLine
 10
1.950000000000002
 20
12.03250000000006
 30
0.0
 11
1.950000000000002
 21
10.28800000000006
 31
0.0
  0
LINE
  5
3F
100
AcDbEntity
  8
USP-GEO
100
AcDbLine
 10
2.498999999999995
 20
11.31753604663071
 30
0.0
 11
2.498999999999995
 21
11.26995780300392
 31
0.0
  0
LINE
  5
40
100
AcDbEntity
  8
USP-GEO
100
AcDbLine
 10
2.561999999999997
 20
11.26995780300393
 30
0.0
 11
2.561999999999997
 21
11.31753604663071
 31
0.0
  0
LINE
  5
41
100
AcDbEntity
  8
USP-GEO
100
AcDbLine
 10
2.562000000000004
 20
11.26995780300394
 30
0.0
 11
2.562000000000003
 21
11.00986358785502
 31
0.0
  0
LINE
  5
42
100
AcDbEntity
  8
USP-GEO
100
AcDbLine
 10
2.498999999999995
 20
11.26995780300393
 30
0.0
 11
2.498999999999994
 21
11.00986358785501
 31
0.0
  0
LINE
  5
43
100
AcDbEntity
  8
USP-GEO
100
AcDbLine
 10
2.561999999999997
 20
11.00986358785502
 30
0.0
 11
2.498999999999995
 21
11.00986358785502
 31
0.0
  0
LINE
  5
44
100
AcDbEntity
  8
USP-GEO
100
AcDbLine
 10
2.562000000000004
 20
11.26995780300394
 30
0.0
 11
2.498999999999995
 21
11.26995780300394
 31
0.0
  0
LINE
  5
45
100
AcDbEntity
  8
USP-GEO
100
AcDbLine
 10
2.562000000000004
 20
11.31753604663071
 30
0.0
 11
2.498999999999995
 21
11.31753604663071
 31
0.0
  0
ARC
  5
46
100
AcDbEntity
  8
USP-GEO
100
AcDbCircle
 10
2.561156006893718
 20
11.32408439076761
 30
0.0
 40
0.06250000003125
100
AcDbArc
 50
180.0000000000065
 51
186.0141174410332
  0
LINE
  5
47
100
AcDbEntity
  8
USP-GEO
100
AcDbLine
 10
1.950000000000002
 20
12.00100000000003
 30
0.0
 11
2.498656006862567
 21
12.00100000000003
 31
0.0
  0
LINE
  5
48
100
AcDbEntity
  8
USP-GEO
100
AcDbLine
 10
2.616992542116335
 20
12.00100000000005
 30
0.0
 11
2.516961833038347
 21
12.00100000000005
 31
0.0
  0
LINE
  5
49
100
AcDbEntity
  8
USP-GEO
100
AcDbLine
 10
2.516961833038347
 20
11.93800000000007
 30
0.0
 11
2.616992542116344
 21
11.93800000000007
 31
0.0
  0
LINE
  5
4A
100
AcDbEntity
  8
USP-GEO
100
AcDbLine
 10
2.516961833038414
 20
12.00100000000005
 30
0.0
 11
2.49865600686256
 21
12.00100000000005
 31
0.0
  0
LINE
  5
4B
100
AcDbEntity
  8
USP-GEO
100
AcDbLine
 10
2.516961833038408
 20
11.93800000000005
 30
0.0
 11
2.516961833038408
 21
12.00100000000006
 31
0.0
  0
LINE
  5
4C
100
AcDbEntity
  8
USP-GEO
100
AcDbLine
 10
2.498656006862567
 20
11.93800000000006
 30
0.0
 11
2.516961833038412
 21
11.93800000000006
 31
0.0
  0
LINE
  5
4D
100
AcDbEntity
  8
USP-GEO
100
AcDbLine
 10
2.616992542116349
 20
11.93800000000006
 30
0.0
 11
2.616992542116349
 21
12.00100000000005
 31
0.0
  0
LINE
  5
4E
100
AcDbEntity
  8
USP-GEO
100
AcDbLine
 10
6.636499999999813
 20
12.00099999999682
 30
0.0
 11
6.986499999999828
 21
12.00099999999682
 31
0.0
  0
LINE
  5
4F
100
AcDbEntity
  8
USP-GEO
100
AcDbLine
 10
6.236499999999821
 20
10.28799999999681
 30
0.0
 11
6.236499999999825
 21
12.03249999999682
 31
0.0
  0
LINE
  5
50
100
AcDbEntity
  8
USP-GEO
100
AcDbLine
 10
6.636499999999827
 20
12.03249999999681
 30
0.0
 11
6.636499999999827
 21
10.73922499390012
 31
0.0
  0
LINE
  5
51
100
AcDbEntity
  8
USP-GEO
100
AcDbLine
 10
5.687843993137185
 20
11.32408439076415
 30
0.0
 11
5.687843993137189
 21
12.00099999999681
 31
0.0
  0
LINE
  5
52
100
AcDbEntity
  8
USP-GEO
100
AcDbLine
 10
5.687499999999985
 20
11.26995780300363
 30
0.0
 11
5.687499999999985
 21
11.31753604663267
 31
0.0
  0
LINE
  5
53
100
AcDbEntity
  8
USP-GEO
100
AcDbLine
 10
5.624499999999997
 20
11.31753604663267
 30
0.0
 11
5.624499999999997
 21
11.26995780300362
 31
0.0
  0
LINE
  5
54
100
AcDbEntity
  8
USP-GEO
100
AcDbLine
 10
5.687499999999992
 20
11.00986358785469
 30
0.0
 11
5.687499999999992
 21
11.26995780300371
 31
0.0
  0
LINE
  5
55
100
AcDbEntity
  8
USP-GEO
100
AcDbLine
 10
5.624499999999997
 20
11.26995780300372
 30
0.0
 11
5.624499999999996
 21
11.0098635878547
 31
0.0
  0
LINE
  5
56
100
AcDbEntity
  8
USP-GEO
100
AcDbLine
 10
5.62449999999999
 20
11.0098635878547
 30
0.0
 11
5.687499999999992
 21
11.0098635878547
 31
0.0
  0
LINE
  5
57
100
AcDbEntity
  8
USP-GEO
100
AcDbLine
 10
5.624499999999997
 20
11.26995780300372
 30
0.0
 11
5.687499999999992
 21
11.26995780300372
 31
0.0
  0
ARC
  5
58
100
AcDbEntity
  8
USP-GEO
100
AcDbCircle
 10
5.625343993106042
 20
11.32408439076415
 30
0.0
 40
0.06250000003125
100
AcDbArc
 50
353.9858825639298
 51
359.9999999999934
  0
LINE
  5
59
100
AcDbEntity
  8
USP-GEO
100
AcDbLine
 10
5.624499999999997
 20
11.31753604663267
 30
0.0
 11
5.687499999999985
 21
11.31753604663267
 31
0.0
  0
ARC
  5
5A
100
AcDbEntity
  8
USP-GEO
100
AcDbCircle
 10
6.436499999999817
 20
10.28799999999681
 30
0.0
 40
0.2000000000000011
100
AcDbArc
 50
180.0000000000001
 51
359.999999999998
  0
LINE
  5
5B
100
AcDbEntity
  8
USP-GEO
100
AcDbLine
 10
6.636499999999827
 20
10.63677500609982
 30
0.0
 11
6.636499999999827
 21
10.28799999999681
 31
0.0
  0
ARC
  5
5C
100
AcDbEntity
  8
USP-GEO
100
AcDbCircle
 10
6.562500000000284
 20
10.68799999999997
 30
0.0
 40
0.090000000000011
100
AcDbArc
 50
34.69213058586379
 51
325.3078694141318
  0
ARC
  5
5D
100
AcDbEntity
  8
USP-GEO
100
AcDbCircle
 10
6.562500000000284
 20
10.68799999999997
 30
0.0
 40
0.090000000000011
100
AcDbArc
 50
325.3078694141302
 51
34.69213058587351
  0
LINE
  5
5E
100
AcDbEntity
  8
USP-GEO
100
AcDbLine
 10
5.687843993137192
 20
12.00099999999681
 30
0.0
 11
6.236499999999828
 21
12.00099999999682
 31
0.0
  0
LINE
  5
5F
100
AcDbEntity
  8
USP-GEO
100
AcDbLine
 10
5.569507457883418
 20
11.93799999999682
 30
0.0
 11
5.569507457883418
 21
12.00099999999682
 31
0.0
  0
LINE
  5
60
100
AcDbEntity
  8
USP-GEO
100
AcDbLine
 10
5.669538166961352
 20
12.00099999999682
 30
0.0
 11
5.569507457883419
 21
12.00099999999682
 31
0.0
  0
LINE
  5
61
100
AcDbEntity
  8
USP-GEO
100
AcDbLine
 10
5.669538166961345
 20
11.93799999999682
 30
0.0
 11
5.669538166961345
 21
12.00099999999681
 31
0.0
  0
LINE
  5
62
100
AcDbEntity
  8
USP-GEO
100
AcDbLine
 10
5.669538166961352
 20
11.93799999999682
 30
0.0
 11
5.569507457883418
 21
11.93799999999682
 31
0.0
  0
LINE
  5
63
100
AcDbEntity
  8
USP-GEO
100
AcDbLine
 10
5.687843993137192
 20
12.00099999999682
 30
0.0
 11
5.669538166961343
 21
12.00099999999682
 31
0.0
  0
LINE
  5
64
100
AcDbEntity
  8
USP-GEO
100
AcDbLine
 10
5.669538166961345
 20
11.93799999999682
 30
0.0
 11
5.687843993137192
 21
11.93799999999682
 31
0.0
  0
LINE
  5
65
100
AcDbEntity
  8
USP-GEO
100
AcDbLine
 10
6.636499999999827
 20
12.03249999999682
 30
0.0
 11
6.236499999999821
 21
12.03249999999682
 31
0.0
  0
LINE
  5
66
100
AcDbEntity
  8
USP-GEO
100
AcDbLine
 10
6.986499999999821
 20
10.28799999999681
 30
0.0
 11
6.986499999999825
 21
12.03249999999681
 31
0.0
  0
LINE
  5
67
100
AcDbEntity
  8
USP-GEO
100
AcDbLine
 10
7.386499999999827
 20
12.03249999999681
 30
0.0
 11
7.386499999999827
 21
10.28799999999681
 31
0.0
  0
ARC
  5
68
100
AcDbEntity
  8
USP-GEO
100
AcDbCircle
 10
7.186499999999817
 20
10.28799999999681
 30
0.0
 40
0.2000000000000011
100
AcDbArc
 50
180.0000000000021
 51
0.0000000000001272
  0
LINE
  5
69
100
AcDbEntity
  8
USP-GEO
100
AcDbLine
 10
7.386499999999827
 20
12.00099999999681
 30
0.0
 11
7.812507995735202
 21
12.00099999999681
 31
0.0
  0
LINE
  5
6A
100
AcDbEntity
  8
USP-GEO
100
AcDbLine
 10
7.386499999999827
 20
12.03249999999681
 30
0.0
 11
6.986499999999821
 21
12.03249999999681
 31
0.0
  0
LINE
  5
6B
100
AcDbEntity
  8
USP-GEO
100
AcDbLine
 10
8.186499999999991
 20
12.00099999999681
 30
0.0
 11
7.812507995735202
 21
12.00099999999681
 31
0.0
  0
LINE
  5
6C
100
AcDbEntity
  8
USP-GEO
100
AcDbLine
 10
7.812507995735202
 20
11.93799999999681
 30
0.0
 11
8.186499999999991
 21
11.93799999999681
 31
0.0
  0
LINE
  5
6D
100
AcDbEntity
  8
USP-GEO
100
AcDbLine
 10
7.812507995735209
 20
12.00099999999681
 30
0.0
 11
7.812507995735209
 21
11.93799999999681
 31
0.0
  0
LINE
  5
6E
100
AcDbEntity
  8
USP-GEO
100
AcDbLine
 10
8.186499999999995
 20
11.93799999999682
 30
0.0
 11
8.186499999999995
 21
12.00099999999681
 31
0.0
  0
ENDBLK
  5
71
100
AcDbEntity
  8
0
100
AcDbBlockEnd
  0
BLOCK
  5
97
100
AcDbEntity
  8
0
100
AcDbBlockBegin
  2
THO15118-2_S
 70
     0
 10
0.0
 20
0.0
 30
0.0
  3
THO15118-2_S
  1

  0
LINE
  5
74
100
AcDbEntity
  8
USP-GEO
100
AcDbLine
 10
2.906893534562517
 20
11.93799999999682
 30
0.0
 11
2.906893534562527
 21
3.415058447094159
 31
0.0
  0
LINE
  5
75
100
AcDbEntity
  8
USP-GEO
100
AcDbLine
 10
0.0
 20
1.281750000000048
 30
0.0
 11
2.425491132291504
 21
11.0098635878547
 31
0.0
  0
LINE
  5
76
100
AcDbEntity
  8
USP-GEO
100
AcDbLine
 10
2.96989353456253
 20
3.415058447094159
 30
0.0
 11
2.969893534562519
 21
11.93799999999682
 31
0.0
  0
LINE
  5
77
100
AcDbEntity
  8
USP-GEO
100
AcDbLine
 10
0.0000000000000018
 20
0.0
 30
0.0
 11
2.375000000000007
 21
0.0000000000000022
 31
0.0
  0
LINE
  5
78
100
AcDbEntity
  8
USP-HID
100
AcDbLine
 10
0.0000000000000089
 20
0.0630000000000006
 30
0.0
 11
2.375000000000007
 21
0.0630000000000028
 31
0.0
  0
TEXT
  5
7B
100
AcDbEntity
  8
USP-TXT
100
AcDbText
 10
-1.672028868197813
 20
-2.177102399286459
 30
0.0
 40
0.375
  1
THO15118-2 - SIDE VIEW
 72
     1
 11
2.202971131802186
 21
-2.177102399286459
 31
0.0
100
AcDbText
  0
CIRCLE
  5
7C
100
AcDbEntity
  8
USP-GEO
100
AcDbCircle
 10
0.39995751980703
 20
1.45560672766366
 30
0.0
 40
0.3065941943351156
  0
LINE
  5
7D
100
AcDbEntity
  8
USP-GEO
100
AcDbLine
 10
-0.0000000000000018
 20
1.281750000000048
 30
0.0
 11
0.0
 21
0.0
 31
0.0
  0
ELLIPSE
  5
7E
100
AcDbEntity
  8
USP-GEO
100
AcDbEllipse
 10
0.3999575198070317
 20
1.66994874407668
 30
0.0
 11
-0.0780000000000001
 21
-0.0000000000000001
 31
0.0
210
0.0
220
0.0
230
1.0
 40
0.7071067811865489
 41
0.0
 42
6.283185307179586
  0
ELLIPSE
  5
7F
100
AcDbEntity
  8
USP-GEO
100
AcDbEllipse
 10
0.3999575198070371
 20
1.618345646538074
 30
0.0
 11
-0.0780000000000001
 21
-0.0000000000000005
 31
0.0
210
0.0
220
0.0
230
1.0
 40
0.7071067811865458
 41
4.351583657256627
 42
5.073194303512743
  0
ELLIPSE
  5
80
100
AcDbEntity
  8
USP-GEO
100
AcDbEllipse
 10
0.3999575198070317
 20
1.623559101865396
 30
0.0
 11
-0.0780000000000001
 21
-0.0000000000000005
 31
0.0
210
0.0
220
0.0
230
1.0
 40
0.7071067811865489
 41
3.575637469975645
 42
5.849140490793727
  0
CIRCLE
  5
81
100
AcDbEntity
  8
USP-GEO
100
AcDbCircle
 10
1.153546864219492
 20
3.656750000000027
 30
0.0
 40
0.082
  0
CIRCLE
  5
82
100
AcDbEntity
  8
USP-GEO
100
AcDbCircle
 10
1.75835160321867
 20
6.09425000000003
 30
0.0
 40
0.082
  0
LINE
  5
83
100
AcDbEntity
  8
USP-GEO
100
AcDbLine
 10
2.906893534562527
 20
3.415058447094342
 30
0.0
 11
2.375000000000014
 21
1.281750000000101
 31
0.0
  0
LINE
  5
84
100
AcDbEntity
  8
USP-GEO
100
AcDbLine
 10
2.375000000000007
 20
1.281750000000101
 30
0.0
 11
2.375000000000007
 21
0.0000000000000036
 31
0.0
  0
LINE
  5
85
100
AcDbEntity
  8
USP-GEO
100
AcDbLine
 10
2.969893534562523
 20
3.415058447094342
 30
0.0
 11
2.906893534562527
 21
3.415058447094342
 31
0.0
  0
ARC
  5
86
100
AcDbEntity
  8
USP-GEO
100
AcDbCircle
 10
2.906893534562335
 20
7.438000000000101
 30
0.0
 40
0.15625
100
AcDbArc
 50
89.99999999999481
 51
270.0000000000065
  0
LINE
  5
87
100
AcDbEntity
  8
USP-GEO
100
AcDbLine
 10
4.469893534562515
 20
12.00099999999682
 30
0.0
 11
2.969893534562515
 21
12.00099999999682
 31
0.0
  0
LINE
  5
88
100
AcDbEntity
  8
USP-GEO
100
AcDbLine
 10
2.969893534562515
 20
11.93799999999682
 30
0.0
 11
4.469893534562515
 21
11.93799999999682
 31
0.0
  0
LINE
  5
89
100
AcDbEntity
  8
USP-GEO
100
AcDbLine
 10
2.875393534562618
 20
12.03249999999682
 30
0.0
 11
2.875393534562622
 21
10.28799999999682
 31
0.0
  0
LINE
  5
8A
100
AcDbEntity
  8
USP-GEO
100
AcDbLine
 10
2.875393534562618
 20
10.28799999999682
 30
0.0
 11
2.875393534562618
 21
10.08799999999682
 31
0.0
  0
LINE
  5
8B
100
AcDbEntity
  8
USP-GEO
100
AcDbLine
 10
2.90689353456252
 20
10.08799999999681
 30
0.0
 11
2.875393534562618
 21
10.08799999999681
 31
0.0
  0
LINE
  5
8C
100
AcDbEntity
  8
USP-GEO
100
AcDbLine
 10
2.90689353456252
 20
10.28799999999682
 30
0.0
 11
2.875393534562618
 21
10.28799999999682
 31
0.0
  0
LINE
  5
8D
100
AcDbEntity
  8
USP-GEO
100
AcDbLine
 10
2.425491132291504
 20
11.0098635878547
 30
0.0
 11
2.875393534562618
 21
11.26961486091518
 31
0.0
  0
LINE
  5
8E
100
AcDbEntity
  8
USP-GEO
100
AcDbLine
 10
3.619893534562613
 20
12.03249999999682
 30
0.0
 11
2.875393534562611
 21
12.03249999999681
 31
0.0
  0
LINE
  5
8F
100
AcDbEntity
  8
USP-GEO
100
AcDbLine
 10
2.969893534562515
 20
11.93799999999682
 30
0.0
 11
2.90689353456252
 21
11.93799999999682
 31
0.0
  0
LINE
  5
90
100
AcDbEntity
  8
USP-GEO
100
AcDbLine
 10
2.969893534562515
 20
12.00099999999682
 30
0.0
 11
2.906893534562513
 21
12.00099999999682
 31
0.0
  0
LINE
  5
91
100
AcDbEntity
  8
USP-GEO
100
AcDbLine
 10
2.90689353456252
 20
12.00099999999682
 30
0.0
 11
2.90689353456252
 21
11.93799999999682
 31
0.0
  0
LINE
  5
92
100
AcDbEntity
  8
USP-GEO
100
AcDbLine
 10
2.969893534562515
 20
11.93799999999682
 30
0.0
 11
2.969893534562515
 21
12.00099999999682
 31
0.0
  0
LINE
  5
93
100
AcDbEntity
  8
USP-GEO
100
AcDbLine
 10
3.619893534562613
 20
12.03249999999682
 30
0.0
 11
3.819893534562609
 21
12.03249999999682
 31
0.0
  0
LINE
  5
94
100
AcDbEntity
  8
USP-GEO
100
AcDbLine
 10
3.619893534562613
 20
12.03249999999682
 30
0.0
 11
3.619893534562613
 21
12.00099999999682
 31
0.0
  0
LINE
  5
95
100
AcDbEntity
  8
USP-GEO
100
AcDbLine
 10
3.819893534562609
 20
12.03249999999682
 30
0.0
 11
3.819893534562609
 21
12.00099999999683
 31
0.0
  0
LINE
  5
96
100
AcDbEntity
  8
USP-GEO
100
AcDbLine
 10
4.469893534562515
 20
11.93799999999683
 30
0.0
 11
4.469893534562515
 21
12.00099999999682
 31
0.0
  0
ENDBLK
  5
98
100
AcDbEntity
  8
0
100
AcDbBlockEnd
  0
BLOCK
  5
FA
100
AcDbEntity
  8
0
100
AcDbBlockBegin
  2
THO15118-2_T
 70
     0
 10
0.0
 20
0.0
 30
0.0
  3
THO15118-2_T
  1

  0
LINE
  5
9B
100
AcDbEntity
  8
USP-GEO
100
AcDbLine
 10
3.59324999999992
 20
0.1727207793864238
 30
0.0
 11
3.465970779386332
 21
0.3000000000000114
 31
0.0
  0
LINE
  5
9C
100
AcDbEntity
  8
USP-GEO
100
AcDbLine
 10
3.465970779386332
 20
0.3000000000000114
 30
0.0
 11
3.593249999999922
 21
0.4272792206135705
 31
0.0
  0
LINE
  5
9D
100
AcDbEntity
  8
USP-GEO
100
AcDbLine
 10
2.561999999999977
 20
2.375000000000007
 30
0.0
 11
5.62449999999997
 21
2.375000000000003
 31
0.0
  0
LINE
  5
9E
100
AcDbEntity
  8
USP-GEO
100
AcDbLine
 10
2.561999999999977
 20
0.0000000000000036
 30
0.0
 11
5.624499999999962
 21
0.0000000000000036
 31
0.0
  0
TEXT
  5
9F
100
AcDbEntity
  8
USP-TXT
100
AcDbText
 10
0.2231507762078886
 20
-2.101046812287574
 30
0.0
 40
0.375
  1
THO15118-2 - TOP VIEW
 72
     1
 11
3.973150776207888
 21
-2.101046812287574
 31
0.0
100
AcDbText
  0
LINE
  5
A0
100
AcDbEntity
  8
USP-GEO
100
AcDbLine
 10
0.3739920042647653
 20
2.969893534562341
 30
0.0
 11
0.0
 21
4.469893534562345
 31
0.0
  0
LINE
  5
A1
100
AcDbEntity
  8
USP-GEO
100
AcDbLine
 10
0.0000000000000009
 20
4.469893534562345
 30
0.0
 11
2.374999999999766
 21
4.469893534562316
 31
0.0
  0
ARC
  5
A2
100
AcDbEntity
  8
USP-GEO
100
AcDbCircle
 10
1.000000000000007
 20
3.619893534562329
 30
0.0
 40
0.2000000000000011
100
AcDbArc
 50
0.0000000000010178
 51
180.000000000001
  0
ARC
  5
A3
100
AcDbEntity
  8
USP-GEO
100
AcDbCircle
 10
1.75
 20
3.619893534562322
 30
0.0
 40
0.2000000000000011
100
AcDbArc
 50
0.0
 51
180.000000000001
  0
LINE
  5
A4
100
AcDbEntity
  8
USP-GEO
100
AcDbLine
 10
2.374999999999766
 20
4.469893534562316
 30
0.0
 11
2.616992542116372
 21
3.499314460583633
 31
0.0
  0
LINE
  5
A5
100
AcDbEntity
  8
USP-GEO
100
AcDbLine
 10
1.41003117341727
 20
3.781834928343577
 30
0.0
 11
1.28275195274005
 21
3.654555707666244
 31
0.0
  0
LINE
  5
A6
100
AcDbEntity
  8
USP-GEO
100
AcDbLine
 10
1.282751952740053
 20
3.654555707666247
 30
0.0
 11
1.155472732062828
 21
3.781834928343585
 31
0.0
  0
LINE
  5
A7
100
AcDbEntity
  8
USP-GEO
100
AcDbLine
 10
1.95000000000001
 20
2.875393534562331
 30
0.0
 11
1.550000000000012
 21
2.875393534562331
 31
0.0
  0
LINE
  5
A8
100
AcDbEntity
  8
USP-GEO
100
AcDbLine
 10
1.200000000000003
 20
2.875393534562341
 30
0.0
 11
0.8000000000000051
 21
2.875393534562341
 31
0.0
  0
LINE
  5
A9
100
AcDbEntity
  8
USP-GEO
100
AcDbLine
 10
0.373992004264772
 20
2.906893534562339
 30
0.0
 11
0.7999999999999981
 21
2.906893534562339
 31
0.0
  0
LINE
  5
AA
100
AcDbEntity
  8
USP-GEO
100
AcDbLine
 10
0.373992004264772
 20
2.969893534562341
 30
0.0
 11
0.373992004264772
 21
2.906893534562339
 31
0.0
  0
LINE
  5
AB
100
AcDbEntity
  8
USP-GEO
100
AcDbLine
 10
0.7999999999999981
 20
2.875393534562341
 30
0.0
 11
0.7999999999999983
 21
3.619893534562329
 31
0.0
  0
LINE
  5
AC
100
AcDbEntity
  8
USP-GEO
100
AcDbLine
 10
1.200000000000003
 20
2.906893534562339
 30
0.0
 11
1.550000000000012
 21
2.906893534562339
 31
0.0
  0
LINE
  5
AD
100
AcDbEntity
  8
USP-GEO
100
AcDbLine
 10
1.200000000000003
 20
3.619893534562333
 30
0.0
 11
1.199999999999999
 21
2.875393534562338
 31
0.0
  0
LINE
  5
AE
100
AcDbEntity
  8
USP-GEO
100
AcDbLine
 10
1.549999999999998
 20
2.875393534562331
 30
0.0
 11
1.549999999999998
 21
3.619893534562322
 31
0.0
  0
LINE
  5
AF
100
AcDbEntity
  8
USP-GEO
100
AcDbLine
 10
2.561999999999977
 20
-0.0000000000000036
 30
0.0
 11
2.562000000000002
 21
2.425491132291558
 31
0.0
  0
LINE
  5
B0
100
AcDbEntity
  8
USP-GEO
100
AcDbLine
 10
2.498999999999999
 20
2.425491132291561
 30
0.0
 11
2.498999999999974
 21
0.0
 31
0.0
  0
ARC
  5
B1
100
AcDbEntity
  8
USP-GEO
100
AcDbCircle
 10
2.561999999999977
 20
0.3999575198070317
 30
0.0
 40
0.3129999999999987
100
AcDbArc
 50
101.6117003277274
 51
258.3882996722732
  0
ELLIPSE
  5
B2
100
AcDbEntity
  8
USP-GEO
100
AcDbEllipse
 10
2.347657983586956
 20
0.3999575198070246
 30
0.0
 11
0.0
 21
-0.0780000000000001
 31
0.0
210
0.0
220
0.0
230
1.0
 40
0.7071067811865493
 41
0.0
 42
6.283185307179586
  0
LINE
  5
B3
100
AcDbEntity
  8
USP-GEO
100
AcDbLine
 10
2.561999999999977
 20
-0.0000000000000036
 30
0.0
 11
2.498999999999974
 21
-0.0000000000000036
 31
0.0
  0
ELLIPSE
  5
B4
100
AcDbEntity
  8
USP-GEO
100
AcDbEllipse
 10
2.394047625798237
 20
0.3999575198070317
 30
0.0
 11
0.0
 21
-0.0780000000000001
 31
0.0
210
0.0
220
0.0
230
1.0
 40
0.7071067811865493
 41
3.575637469975697
 42
5.849140490793907
  0
LINE
  5
B5
100
AcDbEntity
  8
USP-GEO
100
AcDbLine
 10
2.562000000000005
 20
2.875987527684088
 30
0.0
 11
2.562000000000004
 21
2.425491132291554
 31
0.0
  0
LINE
  5
B6
100
AcDbEntity
  8
USP-GEO
100
AcDbLine
 10
2.498999999999996
 20
2.875987527684092
 30
0.0
 11
2.498999999999995
 21
2.425491132291561
 31
0.0
  0
LINE
  5
B7
100
AcDbEntity
  8
USP-GEO
100
AcDbLine
 10
2.561999999999998
 20
2.425491132291554
 30
0.0
 11
2.498999999999996
 21
2.425491132291554
 31
0.0
  0
LINE
  5
B8
100
AcDbEntity
  8
USP-GEO
100
AcDbLine
 10
1.950000000000003
 20
2.906893534562335
 30
0.0
 11
2.498656006862568
 21
2.906893534562335
 31
0.0
  0
LINE
  5
B9
100
AcDbEntity
  8
USP-GEO
100
AcDbLine
 10
1.950000000000003
 20
3.619893534562322
 30
0.0
 11
1.949999999999999
 21
2.875393534562331
 31
0.0
  0
LINE
  5
BA
100
AcDbEntity
  8
USP-GEO
100
AcDbLine
 10
2.498656006862568
 20
3.355089577681525
 30
0.0
 11
2.498656006862568
 21
2.906893534562339
 31
0.0
  0
LINE
  5
BB
100
AcDbEntity
  8
USP-GEO
100
AcDbLine
 10
2.498999999999996
 20
2.969893534562338
 30
0.0
 11
2.498999999999996
 21
2.906893534562346
 31
0.0
  0
LINE
  5
BC
100
AcDbEntity
  8
USP-GEO
100
AcDbLine
 10
2.562000000000005
 20
2.906893534562343
 30
0.0
 11
2.562000000000005
 21
2.969893534562338
 31
0.0
  0
LINE
  5
BD
100
AcDbEntity
  8
USP-GEO
100
AcDbLine
 10
2.562000000000005
 20
2.875987527684088
 30
0.0
 11
2.498999999999996
 21
2.875987527684088
 31
0.0
  0
LINE
  5
BE
100
AcDbEntity
  8
USP-GEO
100
AcDbLine
 10
2.562000000000005
 20
2.906893534562343
 30
0.0
 11
2.498999999999996
 21
2.906893534562343
 31
0.0
  0
LINE
  5
BF
100
AcDbEntity
  8
USP-GEO
100
AcDbLine
 10
2.498999999999996
 20
2.906893534562343
 30
0.0
 11
2.498999999999996
 21
2.875987527684099
 31
0.0
  0
LINE
  5
C0
100
AcDbEntity
  8
USP-GEO
100
AcDbLine
 10
2.498656006862468
 20
2.906893534562335
 30
0.0
 11
2.499000000000008
 21
2.906893534562335
 31
0.0
  0
LINE
  5
C1
100
AcDbEntity
  8
USP-GEO
100
AcDbLine
 10
2.561999999999998
 20
2.875987527684095
 30
0.0
 11
2.561999999999998
 21
2.906893534562335
 31
0.0
  0
LINE
  5
C2
100
AcDbEntity
  8
USP-GEO
100
AcDbLine
 10
2.562000000000005
 20
2.969893534562338
 30
0.0
 11
2.498999999999996
 21
2.969893534562338
 31
0.0
  0
LINE
  5
C3
100
AcDbEntity
  8
USP-GEO
100
AcDbLine
 10
2.499
 20
2.969893534562341
 30
0.0
 11
2.498656006862461
 21
2.969893534562341
 31
0.0
  0
LINE
  5
C4
100
AcDbEntity
  8
USP-GEO
100
AcDbLine
 10
2.616992542116336
 20
3.499314460583633
 30
0.0
 11
2.516961833038348
 21
3.399283751505759
 31
0.0
  0
ARC
  5
C5
100
AcDbEntity
  8
USP-GEO
100
AcDbCircle
 10
2.561156006862561
 20
3.355089577681521
 30
0.0
 40
0.0625
100
AcDbArc
 50
134.9999999999848
 51
179.9999999999967
  0
CIRCLE
  5
C6
100
AcDbEntity
  8
USP-GEO
100
AcDbCircle
 10
1.873656006549922
 20
4.219893534437375
 30
0.0
 40
0.09
  0
CIRCLE
  5
C7
100
AcDbEntity
  8
USP-GEO
100
AcDbCircle
 10
0.6357733578238234
 20
4.0323935343437
 30
0.0
 40
0.09
  0
LINE
  5
C8
100
AcDbEntity
  8
USP-GEO
100
AcDbLine
 10
1.282751952740045
 20
3.909114149020808
 30
0.0
 11
1.410031173417269
 21
3.781834928343585
 31
0.0
  0
LINE
  5
C9
100
AcDbEntity
  8
USP-GEO
100
AcDbLine
 10
1.155472732062823
 20
3.781834928343588
 30
0.0
 11
1.282751952740041
 21
3.909114149020805
 31
0.0
  0
LINE
  5
CA
100
AcDbEntity
  8
USP-GEO
100
AcDbLine
 10
5.811499999999996
 20
4.469893534562508
 30
0.0
 11
8.186499999999995
 21
4.469893534562508
 31
0.0
  0
LINE
  5
CB
100
AcDbEntity
  8
USP-GEO
100
AcDbLine
 10
6.636499999999814
 20
2.906893534562513
 30
0.0
 11
6.986499999999829
 21
2.906893534562513
 31
0.0
  0
ARC
  5
CC
100
AcDbEntity
  8
USP-GEO
100
AcDbCircle
 10
6.436499999999825
 20
3.619893534562613
 30
0.0
 40
0.2000000000000011
100
AcDbArc
 50
0.0000000000010178
 51
180.000000000001
  0
LINE
  5
CD
100
AcDbEntity
  8
USP-GEO
100
AcDbLine
 10
5.569507457883418
 20
3.499314460583708
 30
0.0
 11
5.811499999999997
 21
4.469893534562508
 31
0.0
  0
LINE
  5
CE
100
AcDbEntity
  8
USP-GEO
100
AcDbLine
 10
3.59324999999992
 20
0.4272792206135741
 30
0.0
 11
3.720529220613509
 21
0.3000000000000149
 31
0.0
  0
LINE
  5
CF
100
AcDbEntity
  8
USP-GEO
100
AcDbLine
 10
3.720529220613513
 20
0.3000000000000078
 30
0.0
 11
3.593249999999925
 21
0.1727207793864203
 31
0.0
  0
LINE
  5
D0
100
AcDbEntity
  8
USP-GEO
100
AcDbLine
 10
4.720529220613507
 20
0.3000000000000114
 30
0.0
 11
4.59324999999992
 21
0.1727207793864238
 31
0.0
  0
LINE
  5
D1
100
AcDbEntity
  8
USP-GEO
100
AcDbLine
 10
4.59324999999992
 20
0.4272792206135705
 30
0.0
 11
4.720529220613507
 21
0.3000000000000114
 31
0.0
  0
LINE
  5
D2
100
AcDbEntity
  8
USP-GEO
100
AcDbLine
 10
4.465970779386334
 20
0.3000000000000149
 30
0.0
 11
4.59324999999992
 21
0.4272792206135705
 31
0.0
  0
LINE
  5
D3
100
AcDbEntity
  8
USP-GEO
100
AcDbLine
 10
4.593249999999922
 20
0.1727207793864238
 30
0.0
 11
4.465970779386339
 21
0.3000000000000078
 31
0.0
  0
LINE
  5
D4
100
AcDbEntity
  8
USP-GEO
100
AcDbLine
 10
5.62449999999997
 20
0.0
 30
0.0
 11
5.624499999999993
 21
2.425491132291504
 31
0.0
  0
LINE
  5
D5
100
AcDbEntity
  8
USP-GEO
100
AcDbLine
 10
5.687499999999972
 20
-0.0000000000000036
 30
0.0
 11
5.687499999999995
 21
2.425491132291497
 31
0.0
  0
ARC
  5
D6
100
AcDbEntity
  8
USP-GEO
100
AcDbCircle
 10
5.62449999999997
 20
0.3999575198070246
 30
0.0
 40
0.3129999999999987
100
AcDbArc
 50
281.611700327728
 51
78.38829967227136
  0
ELLIPSE
  5
D7
100
AcDbEntity
  8
USP-GEO
100
AcDbEllipse
 10
5.83884201641299
 20
0.3999575198070282
 30
0.0
 11
0.0
 21
-0.0780000000000001
 31
0.0
210
0.0
220
0.0
230
1.0
 40
0.7071067811865463
 41
0.0
 42
6.283185307179586
  0
LINE
  5
D8
100
AcDbEntity
  8
USP-GEO
100
AcDbLine
 10
5.62449999999997
 20
0.0
 30
0.0
 11
5.687499999999972
 21
0.0
 31
0.0
  0
ELLIPSE
  5
D9
100
AcDbEntity
  8
USP-GEO
100
AcDbEllipse
 10
5.792452374201702
 20
0.3999575198070282
 30
0.0
 11
0.0
 21
-0.0780000000000001
 31
0.0
210
0.0
220
0.0
230
1.0
 40
0.7071067811865463
 41
0.4340448163858737
 42
2.707547837203913
  0
LINE
  5
DA
100
AcDbEntity
  8
USP-GEO
100
AcDbLine
 10
5.687843993137193
 20
2.906893534562509
 30
0.0
 11
6.236499999999829
 21
2.906893534562509
 31
0.0
  0
LINE
  5
DB
100
AcDbEntity
  8
USP-GEO
100
AcDbLine
 10
5.624499999999998
 20
2.875987527684017
 30
0.0
 11
5.624499999999997
 21
2.425491132291501
 31
0.0
  0
LINE
  5
DC
100
AcDbEntity
  8
USP-GEO
100
AcDbLine
 10
5.687499999999992
 20
2.425491132291501
 30
0.0
 11
5.687499999999993
 21
2.875987527684021
 31
0.0
  0
LINE
  5
DD
100
AcDbEntity
  8
USP-GEO
100
AcDbLine
 10
5.624499999999991
 20
2.425491132291501
 30
0.0
 11
5.687499999999993
 21
2.425491132291501
 31
0.0
  0
LINE
  5
DE
100
AcDbEntity
  8
USP-GEO
100
AcDbLine
 10
5.687843993137193
 20
3.355089577681599
 30
0.0
 11
5.687843993137193
 21
2.906893534562513
 31
0.0
  0
LINE
  5
DF
100
AcDbEntity
  8
USP-GEO
100
AcDbLine
 10
5.687499999999993
 20
2.906893534562509
 30
0.0
 11
5.687499999999993
 21
2.969893534562508
 31
0.0
  0
LINE
  5
E0
100
AcDbEntity
  8
USP-GEO
100
AcDbLine
 10
5.68750000000032
 20
2.906893534562506
 30
0.0
 11
5.687843993137293
 21
2.906893534562506
 31
0.0
  0
LINE
  5
E1
100
AcDbEntity
  8
USP-GEO
100
AcDbLine
 10
5.687499999999986
 20
2.87598752768407
 30
0.0
 11
5.687499999999986
 21
2.906893534562506
 31
0.0
  0
LINE
  5
E2
100
AcDbEntity
  8
USP-GEO
100
AcDbLine
 10
5.687843993137293
 20
2.969893534562508
 30
0.0
 11
5.687500000000322
 21
2.969893534562508
 31
0.0
  0
LINE
  5
E3
100
AcDbEntity
  8
USP-GEO
100
AcDbLine
 10
5.624499999999998
 20
2.969893534562505
 30
0.0
 11
5.624499999999998
 21
2.906893534562513
 31
0.0
  0
LINE
  5
E4
100
AcDbEntity
  8
USP-GEO
100
AcDbLine
 10
5.624499999999998
 20
2.906893534562506
 30
0.0
 11
5.624499999999998
 21
2.875987527684074
 31
0.0
  0
LINE
  5
E5
100
AcDbEntity
  8
USP-GEO
100
AcDbLine
 10
5.624499999999998
 20
2.906893534562513
 30
0.0
 11
5.687499999999986
 21
2.906893534562513
 31
0.0
  0
LINE
  5
E6
100
AcDbEntity
  8
USP-GEO
100
AcDbLine
 10
5.624499999999998
 20
2.875987527684017
 30
0.0
 11
5.687499999999993
 21
2.875987527684017
 31
0.0
  0
LINE
  5
E7
100
AcDbEntity
  8
USP-GEO
100
AcDbLine
 10
5.624499999999998
 20
2.969893534562505
 30
0.0
 11
5.687499999999993
 21
2.969893534562505
 31
0.0
  0
LINE
  5
E8
100
AcDbEntity
  8
USP-GEO
100
AcDbLine
 10
5.669538166961353
 20
3.399283751505777
 30
0.0
 11
5.56950745788342
 21
3.499314460583711
 31
0.0
  0
ARC
  5
E9
100
AcDbEntity
  8
USP-GEO
100
AcDbCircle
 10
5.625343993137193
 20
3.355089577681599
 30
0.0
 40
0.0625
100
AcDbArc
 50
0.0
 51
45.00000000001055
  0
LINE
  5
EA
100
AcDbEntity
  8
USP-GEO
100
AcDbLine
 10
6.636499999999828
 20
2.875393534562618
 30
0.0
 11
6.236499999999822
 21
2.875393534562618
 31
0.0
  0
LINE
  5
EB
100
AcDbEntity
  8
USP-GEO
100
AcDbLine
 10
6.236499999999822
 20
2.875393534562618
 30
0.0
 11
6.236499999999822
 21
3.619893534562613
 31
0.0
  0
LINE
  5
EC
100
AcDbEntity
  8
USP-GEO
100
AcDbLine
 10
6.636499999999828
 20
3.619893534562617
 30
0.0
 11
6.636499999999823
 21
2.875393534562622
 31
0.0
  0
CIRCLE
  5
ED
100
AcDbEntity
  8
USP-GEO
100
AcDbCircle
 10
6.312843993449889
 20
4.219893534437662
 30
0.0
 40
0.09
  0
LINE
  5
EE
100
AcDbEntity
  8
USP-GEO
100
AcDbLine
 10
8.186499999999991
 20
4.469893534562508
 30
0.0
 11
7.812507995735203
 21
2.969893534562508
 31
0.0
  0
ARC
  5
EF
100
AcDbEntity
  8
USP-GEO
100
AcDbCircle
 10
7.186499999999825
 20
3.619893534562603
 30
0.0
 40
0.2000000000000011
100
AcDbArc
 50
0.0000000000020356
 51
179.9999999999971
  0
LINE
  5
F0
100
AcDbEntity
  8
USP-GEO
100
AcDbLine
 10
7.031027267936991
 20
3.781834928343872
 30
0.0
 11
6.903748047259769
 21
3.654555707666538
 31
0.0
  0
LINE
  5
F1
100
AcDbEntity
  8
USP-GEO
100
AcDbLine
 10
6.903748047259766
 20
3.654555707666538
 30
0.0
 11
6.776468826582546
 21
3.781834928343872
 31
0.0
  0
LINE
  5
F2
100
AcDbEntity
  8
USP-GEO
100
AcDbLine
 10
7.386499999999828
 20
2.906893534562509
 30
0.0
 11
7.812507995735203
 21
2.906893534562509
 31
0.0
  0
LINE
  5
F3
100
AcDbEntity
  8
USP-GEO
100
AcDbLine
 10
7.386499999999828
 20
2.875393534562615
 30
0.0
 11
6.986499999999822
 21
2.875393534562615
 31
0.0
  0
LINE
  5
F4
100
AcDbEntity
  8
USP-GEO
100
AcDbLine
 10
6.986499999999822
 20
2.875393534562615
 30
0.0
 11
6.986499999999822
 21
3.61989353456261
 31
0.0
  0
LINE
  5
F5
100
AcDbEntity
  8
USP-GEO
100
AcDbLine
 10
7.386499999999828
 20
3.61989353456261
 30
0.0
 11
7.386499999999823
 21
2.875393534562608
 31
0.0
  0
LINE
  5
F6
100
AcDbEntity
  8
USP-GEO
100
AcDbLine
 10
7.81250799573521
 20
2.969893534562508
 30
0.0
 11
7.81250799573521
 21
2.906893534562509
 31
0.0
  0
CIRCLE
  5
F7
100
AcDbEntity
  8
USP-GEO
100
AcDbCircle
 10
7.550726642175988
 20
4.032393534343984
 30
0.0
 40
0.09
  0
LINE
  5
F8
100
AcDbEntity
  8
USP-GEO
100
AcDbLine
 10
6.903748047259777
 20
3.909114149021103
 30
0.0
 11
7.031027267936999
 21
3.781834928343879
 31
0.0
  0
LINE
  5
F9
100
AcDbEntity
  8
USP-GEO
100
AcDbLine
 10
6.776468826582537
 20
3.781834928343876
 30
0.0
 11
6.903748047259761
 21
3.9091141490211
 31
0.0
  0
ENDBLK
  5
FB
100
AcDbEntity
  8
0
100
AcDbBlockEnd
  0
ENDSEC
  0
SECTION
  2
ENTITIES
  0
INSERT
  5
3
100
AcDbEntity
  8
USP
100
AcDbBlockReference
  2
THO15118-2_F
 10
0.1544847811771035
 20
2.177855213551955
 30
0.0
  0
INSERT
  5
72
100
AcDbEntity
  8
USP
100
AcDbBlockReference
  2
THO15118-2_S
 10
12.88896087637083
 20
2.177855213551948
 30
0.0
  0
INSERT
  5
99
100
AcDbEntity
  8
USP
100
AcDbBlockReference
  2
THO15118-2_T
 10
0.1544847811771035
 20
19.47378374397151
 30
0.0
  0
VIEWPORT
  5
101
102
{ACAD_XDICTIONARY
360
102
102
}
100
AcDbEntity
 67
     1
  8
0
100
AcDbViewport
 10
5.285416850893516
 20
3.968749891115924
 30
0.0
 40
13.55466628347482
 41
8.992999745766947
 68
    -1
 69
     1
1001
ACAD
1000
MVIEW
1002
{
1070
    16
1010
0.0
1020
0.0
1030
0.0
1010
0.0
1020
0.0
1030
1.0
1040
0.0
1040
8.992999745766947
1040
5.285416850893516
1040
3.968749891115924
1040
50.0
1040
0.0
1040
0.0
1070
     0
1070
   100
1070
     1
1070
     1
1070
     0
1070
     0
1070
     0
1070
     0
1040
0.0
1040
0.0
1040
0.0
1040
0.5
1040
0.5
1040
0.5
1040
0.5
1070
     0
1002
{
1002
}
1002
}
  0
ENDSEC
  0
SECTION
  2
OBJECTS
  0
DICTIONARY
  5
118
102
{ACAD_XDICTIONARY
360
119
102
}
100
AcDbDictionary
  3
ACAD_GROUP
350
116
  3
ACAD_MLINESTYLE
350
117
  0
DICTIONARY
  5
FC
100
AcDbDictionary
280
     1
  3
ACAD_LAYOUTSELFREF
360
FD
  0
DICTIONARY
  5
106
100
AcDbDictionary
280
     1
  3
ACAD_LAYOUTSELFREF
360
107
  0
DICTIONARY
  5
102
100
AcDbDictionary
280
     1
  3
ACAD_XREC_ROUNDTRIP
360
103
  0
DICTIONARY
  5
119
100
AcDbDictionary
280
     1
  3
ACAD_XREC_ROUNDTRIP
360
11A
  0
DICTIONARY
  5
116
102
{ACAD_REACTORS
330
118
102
}
100
AcDbDictionary
  0
DICTIONARY
  5
117
102
{ACAD_REACTORS
330
118
102
}
100
AcDbDictionary
  3
STANDARD
350
11B
  0
XRECORD
  5
FD
102
{ACAD_REACTORS
330
FC
102
}
100
AcDbXrecord
340
18
  0
XRECORD
  5
107
102
{ACAD_REACTORS
330
106
102
}
100
AcDbXrecord
340
15
  0
XRECORD
  5
103
102
{ACAD_REACTORS
330
102
102
}
100
AcDbXrecord
102
UCS
 74
     0
 71
     1
 10
0.0
 20
0.0
 30
0.0
 10
1.0
 20
0.0
 30
0.0
 10
0.0
 20
1.0
 30
0.0
146
0.0
 79
     0
102
VIEW
281
     0
102
NEWVIEWCONTROL
280
     4
  0
XRECORD
  5
11A
102
{ACAD_REACTORS
330
119
102
}
100
AcDbXrecord
102
EXTNAMES
  1
ACDBVARIABLEDICTIONARY
  2
AcDbVariableDictionary
  0
MLINESTYLE
  5
11B
102
{ACAD_REACTORS
330
117
102
}
100
AcDbMlineStyle
  2
STANDARD
 70
     0
  3

 62
     0
 51
90.0
 52
90.0
 71
     2
 49
0.5
 62
   256
  6
BYLAYER
 49
-0.5
 62
   256
  6
BYLAYER
  0
ENDSEC
  0
EOF
