  0
SECTION
  2
HEADER
  9
$ACADVER
  1
AC1014
  9
$ACADMAINTVER
 70
     9
  9
$DWGCODEPAGE
  3
ANSI_1252
  9
$INSBASE
 10
0.0
 20
0.0
 30
0.0
  9
$EXTMIN
 10
0.0000397397841709
 20
0.0015136769743975
 30
0.0
  9
$EXTMAX
 10
23.88620719730485
 20
21.83177754552205
 30
0.0
  9
$LIMMIN
 10
0.0
 20
0.0
  9
$LIMMAX
 10
12.0
 20
9.0
  9
$ORTHOMODE
 70
     0
  9
$REGENMODE
 70
     1
  9
$FILLMODE
 70
     1
  9
$QTEXTMODE
 70
     0
  9
$MIRRTEXT
 70
     0
  9
$DRAGMODE
 70
     2
  9
$LTSCALE
 40
1.5
  9
$OSMODE
 70
    37
  9
$ATTMODE
 70
     1
  9
$TEXTSIZE
 40
0.5
  9
$TRACEWID
 40
0.05
  9
$TEXTSTYLE
  7
STANDARD
  9
$CLAYER
  8
0
  9
$CELTYPE
  6
BYLAYER
  9
$CECOLOR
 62
   256
  9
$CELTSCALE
 40
1.0
  9
$DELOBJ
 70
     1
  9
$DISPSILH
 70
     1
  9
$DIMSCALE
 40
6.0
  9
$DIMASZ
 40
0.125
  9
$DIMEXO
 40
0.0625
  9
$DIMDLI
 40
0.37890625
  9
$DIMRND
 40
0.0
  9
$DIMDLE
 40
0.0
  9
$DIMEXE
 40
0.09375
  9
$DIMTP
 40
0.0
  9
$DIMTM
 40
0.0
  9
$DIMTXT
 40
0.109375
  9
$DIMCEN
 40
0.0
  9
$DIMTSZ
 40
0.0
  9
$DIMTOL
 70
     0
  9
$DIMLIM
 70
     0
  9
$DIMTIH
 70
     1
  9
$DIMTOH
 70
     1
  9
$DIMSE1
 70
     0
  9
$DIMSE2
 70
     0
  9
$DIMTAD
 70
     0
  9
$DIMZIN
 70
     8
  9
$DIMBLK
  1

  9
$DIMASO
 70
     1
  9
$DIMSHO
 70
     1
  9
$DIMPOST
  1

  9
$DIMAPOST
  1

  9
$DIMALT
 70
     0
  9
$DIMALTD
 70
     2
  9
$DIMALTF
 40
25.4
  9
$DIMLFAC
 40
1.0
  9
$DIMTOFL
 70
     0
  9
$DIMTVP
 40
0.0
  9
$DIMTIX
 70
     0
  9
$DIMSOXD
 70
     0
  9
$DIMSAH
 70
     0
  9
$DIMBLK1
  1

  9
$DIMBLK2
  1

  9
$DIMSTYLE
  2
STANDARD
  9
$DIMCLRD
 70
     0
  9
$DIMCLRE
 70
     0
  9
$DIMCLRT
 70
   256
  9
$DIMTFAC
 40
1.0
  9
$DIMGAP
 40
0.08984375
  9
$DIMJUST
 70
     0
  9
$DIMSD1
 70
     0
  9
$DIMSD2
 70
     0
  9
$DIMTOLJ
 70
     1
  9
$DIMTZIN
 70
     0
  9
$DIMALTZ
 70
     0
  9
$DIMALTTZ
 70
     0
  9
$DIMFIT
 70
     3
  9
$DIMUPT
 70
     1
  9
$DIMUNIT
 70
     7
  9
$DIMDEC
 70
     4
  9
$DIMTDEC
 70
     4
  9
$DIMALTU
 70
     2
  9
$DIMALTTD
 70
     2
  9
$DIMTXSTY
  7
STANDARD
  9
$DIMAUNIT
 70
     0
  9
$LUNITS
 70
     5
  9
$LUPREC
 70
     6
  9
$SKETCHINC
 40
0.1
  9
$FILLETRAD
 40
0.0
  9
$AUNITS
 70
     0
  9
$AUPREC
 70
     1
  9
$MENU
  1
CUSTOM
  9
$ELEVATION
 40
0.0
  9
$PELEVATION
 40
0.0
  9
$THICKNESS
 40
0.0
  9
$LIMCHECK
 70
     0
  9
$BLIPMODE
 70
     0
  9
$CHAMFERA
 40
0.0
  9
$CHAMFERB
 40
0.0
  9
$CHAMFERC
 40
0.0
  9
$CHAMFERD
 40
0.0
  9
$SKPOLY
 70
     0
  9
$TDCREATE
 40
2451263.663231366
  9
$TDUPDATE
 40
2452759.747364004
  9
$TDINDWG
 40
0.1235802083
  9
$TDUSRTIMER
 40
0.1235802083
  9
$USRTIMER
 70
     1
  9
$ANGBASE
 50
0.0
  9
$ANGDIR
 70
     0
  9
$PDMODE
 70
     0
  9
$PDSIZE
 40
0.0
  9
$PLINEWID
 40
0.0
  9
$COORDS
 70
     1
  9
$SPLFRAME
 70
     0
  9
$SPLINETYPE
 70
     6
  9
$SPLINESEGS
 70
     8
  9
$ATTDIA
 70
     0
  9
$ATTREQ
 70
     1
  9
$HANDLING
 70
     1
  9
$HANDSEED
  5
ED
  9
$SURFTAB1
 70
     6
  9
$SURFTAB2
 70
     6
  9
$SURFTYPE
 70
     6
  9
$SURFU
 70
     6
  9
$SURFV
 70
     6
  9
$UCSNAME
  2

  9
$UCSORG
 10
0.0
 20
0.0
 30
0.0
  9
$UCSXDIR
 10
1.0
 20
0.0
 30
0.0
  9
$UCSYDIR
 10
0.0
 20
1.0
 30
0.0
  9
$PUCSNAME
  2

  9
$PUCSORG
 10
0.0
 20
0.0
 30
0.0
  9
$PUCSXDIR
 10
1.0
 20
0.0
 30
0.0
  9
$PUCSYDIR
 10
0.0
 20
1.0
 30
0.0
  9
$USERI1
 70
     0
  9
$USERI2
 70
     0
  9
$USERI3
 70
     0
  9
$USERI4
 70
     0
  9
$USERI5
 70
     0
  9
$USERR1
 40
0.0
  9
$USERR2
 40
0.0
  9
$USERR3
 40
0.0
  9
$USERR4
 40
0.0
  9
$USERR5
 40
0.0
  9
$WORLDVIEW
 70
     1
  9
$SHADEDGE
 70
     3
  9
$SHADEDIF
 70
    70
  9
$TILEMODE
 70
     1
  9
$MAXACTVP
 70
    16
  9
$PINSBASE
 10
0.0
 20
0.0
 30
0.0
  9
$PLIMCHECK
 70
     0
  9
$PEXTMIN
 10
1.052083323321005
 20
0.7937500251559762
 30
0.0
  9
$PEXTMAX
 10
9.468749909889039
 20
7.143750226403783
 30
0.0
  9
$PLIMMIN
 10
-0.2145830289585384
 20
-0.2812499887361301
  9
$PLIMMAX
 10
10.78541673074557
 20
8.218749770967978
  9
$UNITMODE
 70
     0
  9
$VISRETAIN
 70
     0
  9
$PLINEGEN
 70
     0
  9
$PSLTSCALE
 70
     0
  9
$TREEDEPTH
 70
  3020
  9
$PICKSTYLE
 70
     1
  9
$CMLSTYLE
  2
STANDARD
  9
$CMLJUST
 70
     0
  9
$CMLSCALE
 40
1.0
  9
$PROXYGRAPHICS
 70
     1
  9
$MEASUREMENT
 70
     0
  0
ENDSEC
  0
SECTION
  2
CLASSES
  0
CLASS
  1
ACDBDICTIONARYWDFLT
  2
AcDbDictionaryWithDefault
  3
AutoCAD 2000
 90
        0
280
     0
281
     0
  0
CLASS
  1
ACDBPLACEHOLDER
  2
AcDbPlaceHolder
  3
AutoCAD 2000
 90
        0
280
     0
281
     0
  0
CLASS
  1
LAYOUT
  2
AcDbLayout
  3
AutoCAD 2000
 90
        0
280
     0
281
     0
  0
CLASS
  1
DICTIONARYVAR
  2
AcDbDictionaryVar
  3
"AutoCAD"
 90
        0
280
     0
281
     0
  0
CLASS
  1
LONG_TRANSACTION
  2
AcDbLongTransaction
  3
AutoCAD 2000
 90
        0
280
     0
281
     0
  0
CLASS
  1
LWPOLYLINE
  2
AcDbPolyline
  3
"AutoCAD"
 90
        0
280
     0
281
     1
  0
CLASS
  1
HATCH
  2
AcDbHatch
  3
"ACAD_SEDONA"
 90
        0
280
     0
281
     1
  0
CLASS
  1
XRECORD
  2
AcDbXrecord
  3
"<Built In>"
 90
        0
280
     0
281
     0
  0
CLASS
  1
LONG_TRANSACTION
  2
AcDbLongTransaction
  3
AutoCAD 2000
 90
        0
280
     0
281
     0
  0
CLASS
  1
LWPOLYLINE
  2
AcDbPolyline
  3
"AutoCAD"
 90
        0
280
     0
281
     1
  0
CLASS
  1
HATCH
  2
AcDbHatch
  3
"ACAD_SEDONA"
 90
        0
280
     0
281
     1
  0
CLASS
  1
XRECORD
  2
AcDbXrecord
  3
"<Built In>"
 90
        0
280
     0
281
     0
  0
ENDSEC
  0
SECTION
  2
TABLES
  0
TABLE
  2
VPORT
  5
CF
100
AcDbSymbolTable
 70
     1
  0
VPORT
  5
E9
100
AcDbSymbolTableRecord
100
AcDbViewportTableRecord
  2
*ACTIVE
 70
     0
 10
0.0
 20
0.0
 11
1.0
 21
1.0
 12
-11.15292700733261
 22
21.45602894629179
 13
0.0
 23
0.0
 14
1.0
 24
1.0
 15
0.0
 25
0.0
 16
0.0
 26
0.0
 36
1.0
 17
23.09603071721725
 27
-10.27010416511325
 37
-10.44050274849355
 40
22.52998837214581
 41
1.457627118644067
 42
50.0
 43
10.55307667737539
 44
10.55307667737539
 50
0.0
 51
0.0
 71
     0
 72
   100
 73
     1
 74
     1
 75
     0
 76
     0
 77
     0
 78
     0
  0
ENDTAB
  0
TABLE
  2
LTYPE
  5
CA
100
AcDbSymbolTable
 70
     2
  0
LTYPE
  5
CB
100
AcDbSymbolTableRecord
100
AcDbLinetypeTableRecord
  2
BYBLOCK
 70
     0
  3

 72
    65
 73
     0
 40
0.0
  0
LTYPE
  5
CC
100
AcDbSymbolTableRecord
100
AcDbLinetypeTableRecord
  2
BYLAYER
 70
     0
  3

 72
    65
 73
     0
 40
0.0
  0
LTYPE
  5
5
100
AcDbSymbolTableRecord
100
AcDbLinetypeTableRecord
  2
CONTINUOUS
 70
     0
  3
Solid line
 72
    65
 73
     0
 40
0.0
  0
LTYPE
  5
AC
100
AcDbSymbolTableRecord
100
AcDbLinetypeTableRecord
  2
HIDDEN
 70
     0
  3
Hidden __ __ __ __ __ __ __ __ __ __ __ __ __ _
 72
    65
 73
     2
 40
0.375
 49
0.25
 74
     0
 49
-0.125
 74
     0
  0
ENDTAB
  0
TABLE
  2
LAYER
  5
C8
100
AcDbSymbolTable
 70
     5
  0
LAYER
  5
78
100
AcDbSymbolTableRecord
100
AcDbLayerTableRecord
  2
0
 70
     0
 62
     7
  6
CONTINUOUS
  0
LAYER
  5
8
100
AcDbSymbolTableRecord
100
AcDbLayerTableRecord
  2
USP-GEO
 70
     0
 62
     7
  6
CONTINUOUS
  0
LAYER
  5
13
100
AcDbSymbolTableRecord
100
AcDbLayerTableRecord
  2
USP-TXT
 70
     0
 62
     7
  6
CONTINUOUS
  0
LAYER
  5
AB
100
AcDbSymbolTableRecord
100
AcDbLayerTableRecord
  2
USP-HID
 70
     0
 62
     7
  6
HIDDEN
  0
LAYER
  5
4
100
AcDbSymbolTableRecord
100
AcDbLayerTableRecord
  2
USP
 70
     0
 62
     7
  6
CONTINUOUS
  0
ENDTAB
  0
TABLE
  2
STYLE
  5
C9
100
AcDbSymbolTable
 70
     1
  0
STYLE
  5
14
100
AcDbSymbolTableRecord
100
AcDbTextStyleTableRecord
  2
STANDARD
 70
     0
 40
0.0
 41
1.0
 50
0.0
 71
     0
 42
0.5
  3
txt
  4

  0
ENDTAB
  0
TABLE
  2
VIEW
  5
CD
100
AcDbSymbolTable
 70
     0
  0
ENDTAB
  0
TABLE
  2
UCS
  5
CE
100
AcDbSymbolTable
 70
     0
  0
ENDTAB
  0
TABLE
  2
APPID
  5
D1
100
AcDbSymbolTable
 70
     1
  0
APPID
  5
C3
100
AcDbSymbolTableRecord
100
AcDbRegAppTableRecord
  2
ACAD
 70
     0
  0
ENDTAB
  0
TABLE
  2
DIMSTYLE
  5
D2
100
AcDbSymbolTable
 70
     1
  0
DIMSTYLE
105
DA
100
AcDbSymbolTableRecord
100
AcDbDimStyleTableRecord
  2
STANDARD
 70
     0
  3

  4

  5

  6

  7

 40
1.0
 41
0.18
 42
0.0625
 43
0.38
 44
0.18
 45
0.0
 46
0.0
 47
0.0
 48
0.0
140
0.18
141
0.09
142
0.0
143
25.4
144
1.0
145
0.0
146
1.0
147
0.09
 71
     0
 72
     0
 73
     1
 74
     1
 75
     0
 76
     0
 77
     0
 78
     0
170
     0
171
     2
172
     0
173
     0
174
     0
175
     0
176
     0
177
     0
178
     0
270
     2
271
     4
272
     4
273
     2
274
     2
340
14
275
     0
280
     0
281
     0
282
     0
283
     1
284
     0
285
     0
286
     0
287
     3
288
     0
  0
ENDTAB
  0
TABLE
  2
BLOCK_RECORD
  5
1
100
AcDbSymbolTable
 70
     3
  0
BLOCK_RECORD
  5
2
102
{ACAD_XDICTIONARY
360
BA
102
}
100
AcDbSymbolTableRecord
100
AcDbBlockTableRecord
  2
*MODEL_SPACE
  0
BLOCK_RECORD
  5
BE
102
{ACAD_XDICTIONARY
360
C4
102
}
100
AcDbSymbolTableRecord
100
AcDbBlockTableRecord
  2
*PAPER_SPACE
  0
BLOCK_RECORD
  5
6
100
AcDbSymbolTableRecord
100
AcDbBlockTableRecord
  2
THDH610_F
  0
BLOCK_RECORD
  5
7B
100
AcDbSymbolTableRecord
100
AcDbBlockTableRecord
  2
THDH610_T
  0
BLOCK_RECORD
  5
94
100
AcDbSymbolTableRecord
100
AcDbBlockTableRecord
  2
THDH610_S
  0
ENDTAB
  0
ENDSEC
  0
SECTION
  2
BLOCKS
  0
BLOCK
  5
BC
100
AcDbEntity
  8
0
100
AcDbBlockBegin
  2
*MODEL_SPACE
 70
     0
 10
0.0
 20
0.0
 30
0.0
  3
*MODEL_SPACE
  1

  0
ENDBLK
  5
BD
100
AcDbEntity
  8
0
100
AcDbBlockEnd
  0
BLOCK
  5
C6
100
AcDbEntity
 67
     1
  8
0
100
AcDbBlockBegin
  2
*PAPER_SPACE
 70
     0
 10
0.0
 20
0.0
 30
0.0
  3
*PAPER_SPACE
  1

  0
ENDBLK
  5
C7
100
AcDbEntity
 67
     1
  8
0
100
AcDbBlockEnd
  0
BLOCK
  5
77
100
AcDbEntity
  8
0
100
AcDbBlockBegin
  2
THDH610_F
 70
     0
 10
0.0
 20
0.0
 30
0.0
  3
THDH610_F
  1

  0
LINE
  5
7
100
AcDbEntity
  8
USP-GEO
100
AcDbLine
 10
10.77169999999999
 20
9.104600000000001
 30
0.0
 11
10.77169999999999
 21
1.91106324027147
 31
0.0
  0
ELLIPSE
  5
9
100
AcDbEntity
  8
USP-GEO
100
AcDbEllipse
 10
8.42828950017181
 20
8.260850000000001
 30
0.0
 11
0.0
 21
-0.0875000000000002
 31
0.0
210
0.0
220
0.0
230
1.0
 40
0.7071067811865479
 41
0.0
 42
6.283185307179586
  0
ARC
  5
A
100
AcDbEntity
  8
USP-GEO
100
AcDbCircle
 10
8.167099999999997
 20
8.260850000000001
 30
0.0
 40
0.3796000000000018
100
AcDbArc
 50
285.9949848041251
 51
74.00501519587507
  0
LINE
  5
B
100
AcDbEntity
  8
USP-GEO
100
AcDbLine
 10
8.167099999999996
 20
0.1045999999999996
 30
0.0
 11
8.167099999999997
 21
9.104600000000001
 31
0.0
  0
LINE
  5
C
100
AcDbEntity
  8
USP-GEO
100
AcDbLine
 10
8.271699999999997
 20
-0.0000000000000004
 30
0.0
 11
8.271699999999999
 21
9.104599999999999
 31
0.0
  0
LINE
  5
D
100
AcDbEntity
  8
USP-GEO
100
AcDbLine
 10
0.0
 20
1.911063240271475
 30
0.0
 11
0.0
 21
9.104600000000003
 31
0.0
  0
LINE
  5
E
100
AcDbEntity
  8
USP-GEO
100
AcDbLine
 10
2.5
 20
9.104600000000001
 30
0.0
 11
2.499999999999997
 21
0.0
 31
0.0
  0
LINE
  5
F
100
AcDbEntity
  8
USP-GEO
100
AcDbLine
 10
2.604599999999999
 20
9.104600000000001
 30
0.0
 11
2.604599999999997
 21
0.1045999999999996
 31
0.0
  0
LINE
  5
10
100
AcDbEntity
  8
USP-GEO
100
AcDbLine
 10
2.499999999999997
 20
-0.0000000000000004
 30
0.0
 11
8.271699999999997
 21
-0.0000000000000004
 31
0.0
  0
LINE
  5
11
100
AcDbEntity
  8
USP-GEO
100
AcDbLine
 10
2.604599999999997
 20
0.1045999999999996
 30
0.0
 11
8.167099999999996
 21
0.1045999999999996
 31
0.0
  0
TEXT
  5
12
100
AcDbEntity
  8
USP-TXT
100
AcDbText
 10
0.380227420636297
 20
-2.846947718646301
 30
0.0
 40
0.5
  1
THDH610 - FRONT VIEW
 72
     1
 11
5.255227420636295
 21
-2.846947718646301
 31
0.0
100
AcDbText
  0
ARC
  5
15
100
AcDbEntity
  8
USP-GEO
100
AcDbCircle
 10
2.6046
 20
1.385850000000001
 30
0.0
 40
0.3796000000000018
100
AcDbArc
 50
105.9949848041252
 51
254.0050151958748
  0
LINE
  5
16
100
AcDbEntity
  8
USP-GEO
100
AcDbLine
 10
2.499999999999999
 20
0.4676875672974102
 30
0.0
 11
-0.0000000000000009
 21
1.911063240271475
 31
0.0
  0
CIRCLE
  5
17
100
AcDbEntity
  8
USP-GEO
100
AcDbCircle
 10
0.3750000000000004
 20
7.292100000000003
 30
0.0
 40
0.086
  0
CIRCLE
  5
18
100
AcDbEntity
  8
USP-GEO
100
AcDbCircle
 10
0.3750000000000013
 20
6.042100000000004
 30
0.0
 40
0.086
  0
CIRCLE
  5
19
100
AcDbEntity
  8
USP-GEO
100
AcDbCircle
 10
0.3750000000000009
 20
4.792100000000004
 30
0.0
 40
0.086
  0
CIRCLE
  5
1A
100
AcDbEntity
  8
USP-GEO
100
AcDbCircle
 10
0.3750000000000004
 20
3.542100000000004
 30
0.0
 40
0.086
  0
CIRCLE
  5
1B
100
AcDbEntity
  8
USP-GEO
100
AcDbCircle
 10
0.3749999999999996
 20
2.292100000000003
 30
0.0
 40
0.086
  0
CIRCLE
  5
1C
100
AcDbEntity
  8
USP-GEO
100
AcDbCircle
 10
1.875
 20
2.917100000000003
 30
0.0
 40
0.086
  0
CIRCLE
  5
1D
100
AcDbEntity
  8
USP-GEO
100
AcDbCircle
 10
0.875
 20
2.917100000000004
 30
0.0
 40
0.086
  0
CIRCLE
  5
1E
100
AcDbEntity
  8
USP-GEO
100
AcDbCircle
 10
1.374999999999999
 20
2.292100000000003
 30
0.0
 40
0.086
  0
CIRCLE
  5
1F
100
AcDbEntity
  8
USP-GEO
100
AcDbCircle
 10
1.875
 20
1.667100000000003
 30
0.0
 40
0.086
  0
CIRCLE
  5
20
100
AcDbEntity
  8
USP-GEO
100
AcDbCircle
 10
1.375
 20
3.542100000000004
 30
0.0
 40
0.086
  0
CIRCLE
  5
21
100
AcDbEntity
  8
USP-GEO
100
AcDbCircle
 10
0.8750000000000001
 20
4.167100000000003
 30
0.0
 40
0.086
  0
CIRCLE
  5
22
100
AcDbEntity
  8
USP-GEO
100
AcDbCircle
 10
1.875
 20
4.167100000000003
 30
0.0
 40
0.086
  0
ARC
  5
23
100
AcDbEntity
  8
USP-GEO
100
AcDbCircle
 10
2.6046
 20
2.635850000000001
 30
0.0
 40
0.3796000000000018
100
AcDbArc
 50
105.9949848041251
 51
254.0050151958748
  0
ELLIPSE
  5
24
100
AcDbEntity
  8
USP-GEO
100
AcDbEllipse
 10
2.420251484953091
 20
1.385850000000001
 30
0.0
 11
0.0
 21
0.0875000000000001
 31
0.0
210
0.0
220
0.0
230
1.0
 40
0.7071067811865469
 41
0.6699782428940583
 42
1.570796326794919
  0
ELLIPSE
  5
25
100
AcDbEntity
  8
USP-GEO
100
AcDbEllipse
 10
2.420251484953091
 20
1.385850000000001
 30
0.0
 11
0.0
 21
0.0875000000000001
 31
0.0
210
0.0
220
0.0
230
1.0
 40
0.7071067811865469
 41
1.570796326794904
 42
2.471614410695764
  0
ELLIPSE
  5
26
100
AcDbEntity
  8
USP-GEO
100
AcDbEllipse
 10
2.343410499828189
 20
1.385849999999999
 30
0.0
 11
0.0
 21
-0.0875000000000002
 31
0.0
210
0.0
220
0.0
230
1.0
 40
0.7071067811865471
 41
0.0
 42
6.283185307179586
  0
ELLIPSE
  5
27
100
AcDbEntity
  8
USP-GEO
100
AcDbEllipse
 10
2.420251484953091
 20
2.635849999999999
 30
0.0
 11
0.0
 21
0.0875000000000001
 31
0.0
210
0.0
220
0.0
230
1.0
 40
0.7071067811865469
 41
1.570796326794896
 42
2.47161441069575
  0
ELLIPSE
  5
28
100
AcDbEntity
  8
USP-GEO
100
AcDbEllipse
 10
2.420251484953091
 20
2.635849999999999
 30
0.0
 11
0.0
 21
0.0875000000000001
 31
0.0
210
0.0
220
0.0
230
1.0
 40
0.7071067811865469
 41
0.6699782428940409
 42
1.570796326794911
  0
ELLIPSE
  5
29
100
AcDbEntity
  8
USP-GEO
100
AcDbEllipse
 10
2.343410499828189
 20
2.63585
 30
0.0
 11
0.0
 21
-0.0875000000000002
 31
0.0
210
0.0
220
0.0
230
1.0
 40
0.7071067811865471
 41
0.0
 42
6.283185307179586
  0
ARC
  5
2A
100
AcDbEntity
  8
USP-GEO
100
AcDbCircle
 10
2.604600000000001
 20
3.885850000000001
 30
0.0
 40
0.3796000000000018
100
AcDbArc
 50
105.9949848041252
 51
254.0050151958747
  0
ELLIPSE
  5
2B
100
AcDbEntity
  8
USP-GEO
100
AcDbEllipse
 10
2.420251484953091
 20
3.88585
 30
0.0
 11
0.0
 21
0.0875000000000001
 31
0.0
210
0.0
220
0.0
230
1.0
 40
0.7071067811865469
 41
1.570796326794876
 42
2.471614410695742
  0
ELLIPSE
  5
2C
100
AcDbEntity
  8
USP-GEO
100
AcDbEllipse
 10
2.420251484953091
 20
3.88585
 30
0.0
 11
0.0
 21
0.0875000000000001
 31
0.0
210
0.0
220
0.0
230
1.0
 40
0.7071067811865469
 41
0.6699782428940343
 42
1.570796326794891
  0
ELLIPSE
  5
2D
100
AcDbEntity
  8
USP-GEO
100
AcDbEllipse
 10
2.343410499828189
 20
3.885850000000001
 30
0.0
 11
0.0
 21
-0.0875000000000002
 31
0.0
210
0.0
220
0.0
230
1.0
 40
0.7071067811865471
 41
0.0
 42
6.283185307179586
  0
CIRCLE
  5
2E
100
AcDbEntity
  8
USP-GEO
100
AcDbCircle
 10
1.375
 20
6.042100000000004
 30
0.0
 40
0.086
  0
CIRCLE
  5
2F
100
AcDbEntity
  8
USP-GEO
100
AcDbCircle
 10
1.375
 20
4.792100000000004
 30
0.0
 40
0.086
  0
CIRCLE
  5
30
100
AcDbEntity
  8
USP-GEO
100
AcDbCircle
 10
0.8750000000000008
 20
5.417100000000003
 30
0.0
 40
0.086
  0
CIRCLE
  5
31
100
AcDbEntity
  8
USP-GEO
100
AcDbCircle
 10
1.875
 20
5.417100000000003
 30
0.0
 40
0.086
  0
CIRCLE
  5
32
100
AcDbEntity
  8
USP-GEO
100
AcDbCircle
 10
1.375
 20
7.292100000000003
 30
0.0
 40
0.086
  0
CIRCLE
  5
33
100
AcDbEntity
  8
USP-GEO
100
AcDbCircle
 10
0.8750000000000008
 20
6.667100000000003
 30
0.0
 40
0.086
  0
CIRCLE
  5
34
100
AcDbEntity
  8
USP-GEO
100
AcDbCircle
 10
0.8750000000000008
 20
7.917100000000003
 30
0.0
 40
0.086
  0
CIRCLE
  5
35
100
AcDbEntity
  8
USP-GEO
100
AcDbCircle
 10
1.875
 20
6.667100000000003
 30
0.0
 40
0.086
  0
CIRCLE
  5
36
100
AcDbEntity
  8
USP-GEO
100
AcDbCircle
 10
1.875
 20
7.917100000000003
 30
0.0
 40
0.086
  0
ELLIPSE
  5
37
100
AcDbEntity
  8
USP-GEO
100
AcDbEllipse
 10
2.420251484953092
 20
6.385850000000001
 30
0.0
 11
0.0
 21
0.0875000000000001
 31
0.0
210
0.0
220
0.0
230
1.0
 40
0.7071067811865469
 41
0.6699782428940352
 42
1.570796326794906
  0
ELLIPSE
  5
38
100
AcDbEntity
  8
USP-GEO
100
AcDbEllipse
 10
2.34341049982819
 20
6.385850000000001
 30
0.0
 11
0.0
 21
-0.0875000000000002
 31
0.0
210
0.0
220
0.0
230
1.0
 40
0.7071067811865471
 41
0.0
 42
6.283185307179586
  0
ARC
  5
39
100
AcDbEntity
  8
USP-GEO
100
AcDbCircle
 10
2.6046
 20
6.385850000000001
 30
0.0
 40
0.3796000000000018
100
AcDbArc
 50
105.994984804125
 51
254.0050151958748
  0
ELLIPSE
  5
3A
100
AcDbEntity
  8
USP-GEO
100
AcDbEllipse
 10
2.420251484953092
 20
5.135849999999999
 30
0.0
 11
0.0
 21
0.0875000000000001
 31
0.0
210
0.0
220
0.0
230
1.0
 40
0.7071067811865469
 41
1.570796326794896
 42
2.471614410695742
  0
ELLIPSE
  5
3B
100
AcDbEntity
  8
USP-GEO
100
AcDbEllipse
 10
2.343410499828189
 20
5.135850000000001
 30
0.0
 11
0.0
 21
-0.0875000000000002
 31
0.0
210
0.0
220
0.0
230
1.0
 40
0.7071067811865471
 41
0.0
 42
6.283185307179586
  0
ARC
  5
3C
100
AcDbEntity
  8
USP-GEO
100
AcDbCircle
 10
2.604600000000001
 20
5.135850000000003
 30
0.0
 40
0.3796000000000019
100
AcDbArc
 50
105.9949848041254
 51
254.0050151958747
  0
ELLIPSE
  5
3D
100
AcDbEntity
  8
USP-GEO
100
AcDbEllipse
 10
2.420251484953092
 20
5.135849999999999
 30
0.0
 11
0.0
 21
0.0875000000000001
 31
0.0
210
0.0
220
0.0
230
1.0
 40
0.7071067811865469
 41
0.6699782428940355
 42
1.570796326794906
  0
ELLIPSE
  5
3E
100
AcDbEntity
  8
USP-GEO
100
AcDbEllipse
 10
2.420251484953092
 20
6.385850000000001
 30
0.0
 11
0.0
 21
0.0875000000000001
 31
0.0
210
0.0
220
0.0
230
1.0
 40
0.7071067811865469
 41
1.570796326794896
 42
2.471614410695758
  0
ARC
  5
3F
100
AcDbEntity
  8
USP-GEO
100
AcDbCircle
 10
2.604600000000001
 20
7.635850000000003
 30
0.0
 40
0.3796000000000019
100
AcDbArc
 50
105.9949848041254
 51
254.0050151958748
  0
ELLIPSE
  5
40
100
AcDbEntity
  8
USP-GEO
100
AcDbEllipse
 10
2.420251484953091
 20
7.635849999999999
 30
0.0
 11
0.0
 21
0.0875000000000001
 31
0.0
210
0.0
220
0.0
230
1.0
 40
0.7071067811865469
 41
1.570796326794866
 42
2.471614410695745
  0
ELLIPSE
  5
41
100
AcDbEntity
  8
USP-GEO
100
AcDbEllipse
 10
2.420251484953091
 20
7.635849999999999
 30
0.0
 11
0.0
 21
0.0875000000000001
 31
0.0
210
0.0
220
0.0
230
1.0
 40
0.7071067811865469
 41
0.669978242894048
 42
1.570796326794876
  0
ELLIPSE
  5
42
100
AcDbEntity
  8
USP-GEO
100
AcDbEllipse
 10
2.343410499828189
 20
7.635849999999999
 30
0.0
 11
0.0
 21
-0.0875000000000002
 31
0.0
210
0.0
220
0.0
230
1.0
 40
0.7071067811865471
 41
0.0
 42
6.283185307179586
  0
LINE
  5
43
100
AcDbEntity
  8
USP-GEO
100
AcDbLine
 10
10.77169999999999
 20
1.91106324027147
 30
0.0
 11
8.271699999999997
 21
0.4676875672974088
 31
0.0
  0
ARC
  5
44
100
AcDbEntity
  8
USP-GEO
100
AcDbCircle
 10
8.167099999999999
 20
4.510850000000001
 30
0.0
 40
0.3796000000000018
100
AcDbArc
 50
285.9949848041251
 51
74.00501519587507
  0
CIRCLE
  5
45
100
AcDbEntity
  8
USP-GEO
100
AcDbCircle
 10
9.396699999999997
 20
2.354599999999999
 30
0.0
 40
0.086
  0
CIRCLE
  5
46
100
AcDbEntity
  8
USP-GEO
100
AcDbCircle
 10
9.396699999999997
 20
3.604599999999999
 30
0.0
 40
0.086
  0
ELLIPSE
  5
47
100
AcDbEntity
  8
USP-GEO
100
AcDbEllipse
 10
8.42828950017181
 20
2.010850000000001
 30
0.0
 11
0.0
 21
-0.0875000000000002
 31
0.0
210
0.0
220
0.0
230
1.0
 40
0.7071067811865479
 41
0.0
 42
6.283185307179586
  0
ARC
  5
48
100
AcDbEntity
  8
USP-GEO
100
AcDbCircle
 10
8.167099999999999
 20
2.010850000000002
 30
0.0
 40
0.3796000000000018
100
AcDbArc
 50
285.9949848041247
 51
74.00501519587507
  0
ELLIPSE
  5
49
100
AcDbEntity
  8
USP-GEO
100
AcDbEllipse
 10
8.351448515046907
 20
2.010850000000001
 30
0.0
 11
0.0
 21
0.0875000000000002
 31
0.0
210
0.0
220
0.0
230
1.0
 40
0.7071067811865475
 41
3.811570896483831
 42
4.712388980384674
  0
ELLIPSE
  5
4A
100
AcDbEntity
  8
USP-GEO
100
AcDbEllipse
 10
8.351448515046907
 20
2.010850000000001
 30
0.0
 11
0.0
 21
0.0875000000000002
 31
0.0
210
0.0
220
0.0
230
1.0
 40
0.7071067811865475
 41
4.712388980384659
 42
5.613207064285547
  0
CIRCLE
  5
4B
100
AcDbEntity
  8
USP-GEO
100
AcDbCircle
 10
8.896699999999999
 20
1.7296
 30
0.0
 40
0.086
  0
ELLIPSE
  5
4C
100
AcDbEntity
  8
USP-GEO
100
AcDbEllipse
 10
8.42828950017181
 20
4.51085
 30
0.0
 11
0.0
 21
-0.0875000000000002
 31
0.0
210
0.0
220
0.0
230
1.0
 40
0.7071067811865479
 41
0.0
 42
6.283185307179586
  0
ELLIPSE
  5
4D
100
AcDbEntity
  8
USP-GEO
100
AcDbEllipse
 10
8.42828950017181
 20
3.260850000000002
 30
0.0
 11
0.0
 21
-0.0875000000000002
 31
0.0
210
0.0
220
0.0
230
1.0
 40
0.7071067811865479
 41
0.0
 42
6.283185307179586
  0
ARC
  5
4E
100
AcDbEntity
  8
USP-GEO
100
AcDbCircle
 10
8.167099999999999
 20
3.26085
 30
0.0
 40
0.3796000000000019
100
AcDbArc
 50
285.9949848041253
 51
74.00501519587495
  0
ELLIPSE
  5
4F
100
AcDbEntity
  8
USP-GEO
100
AcDbEllipse
 10
8.351448515046909
 20
3.260850000000001
 30
0.0
 11
0.0
 21
0.0875000000000002
 31
0.0
210
0.0
220
0.0
230
1.0
 40
0.7071067811865475
 41
4.712388980384663
 42
5.613207064285551
  0
ELLIPSE
  5
50
100
AcDbEntity
  8
USP-GEO
100
AcDbEllipse
 10
8.351448515046909
 20
3.260850000000001
 30
0.0
 11
0.0
 21
0.0875000000000002
 31
0.0
210
0.0
220
0.0
230
1.0
 40
0.7071067811865475
 41
3.811570896483828
 42
4.712388980384679
  0
ELLIPSE
  5
51
100
AcDbEntity
  8
USP-GEO
100
AcDbEllipse
 10
8.351448515046909
 20
4.510850000000001
 30
0.0
 11
0.0
 21
0.0875000000000002
 31
0.0
210
0.0
220
0.0
230
1.0
 40
0.7071067811865475
 41
3.811570896483828
 42
4.712388980384689
  0
ELLIPSE
  5
52
100
AcDbEntity
  8
USP-GEO
100
AcDbEllipse
 10
8.351448515046909
 20
4.510850000000001
 30
0.0
 11
0.0
 21
0.0875000000000002
 31
0.0
210
0.0
220
0.0
230
1.0
 40
0.7071067811865475
 41
4.712388980384679
 42
5.613207064285551
  0
CIRCLE
  5
53
100
AcDbEntity
  8
USP-GEO
100
AcDbCircle
 10
8.896699999999997
 20
2.979599999999999
 30
0.0
 40
0.086
  0
CIRCLE
  5
54
100
AcDbEntity
  8
USP-GEO
100
AcDbCircle
 10
8.896699999999999
 20
4.229600000000002
 30
0.0
 40
0.086
  0
CIRCLE
  5
55
100
AcDbEntity
  8
USP-GEO
100
AcDbCircle
 10
10.39669999999999
 20
2.354599999999999
 30
0.0
 40
0.086
  0
CIRCLE
  5
56
100
AcDbEntity
  8
USP-GEO
100
AcDbCircle
 10
9.896699999999999
 20
2.979599999999999
 30
0.0
 40
0.086
  0
CIRCLE
  5
57
100
AcDbEntity
  8
USP-GEO
100
AcDbCircle
 10
9.896699999999997
 20
4.229599999999999
 30
0.0
 40
0.086
  0
CIRCLE
  5
58
100
AcDbEntity
  8
USP-GEO
100
AcDbCircle
 10
10.39669999999999
 20
3.6046
 30
0.0
 40
0.086
  0
CIRCLE
  5
59
100
AcDbEntity
  8
USP-GEO
100
AcDbCircle
 10
9.396699999999999
 20
7.354599999999999
 30
0.0
 40
0.086
  0
CIRCLE
  5
5A
100
AcDbEntity
  8
USP-GEO
100
AcDbCircle
 10
9.396699999999999
 20
6.104599999999999
 30
0.0
 40
0.086
  0
CIRCLE
  5
5B
100
AcDbEntity
  8
USP-GEO
100
AcDbCircle
 10
9.396699999999997
 20
4.854599999999999
 30
0.0
 40
0.086
  0
ELLIPSE
  5
5C
100
AcDbEntity
  8
USP-GEO
100
AcDbEllipse
 10
8.42828950017181
 20
5.760850000000001
 30
0.0
 11
0.0
 21
-0.0875000000000002
 31
0.0
210
0.0
220
0.0
230
1.0
 40
0.7071067811865479
 41
0.0
 42
6.283185307179586
  0
ARC
  5
5D
100
AcDbEntity
  8
USP-GEO
100
AcDbCircle
 10
8.167099999999999
 20
5.760850000000001
 30
0.0
 40
0.3796000000000019
100
AcDbArc
 50
285.9949848041253
 51
74.00501519587495
  0
ELLIPSE
  5
5E
100
AcDbEntity
  8
USP-GEO
100
AcDbEllipse
 10
8.351448515046909
 20
5.760850000000001
 30
0.0
 11
0.0
 21
0.0875000000000002
 31
0.0
210
0.0
220
0.0
230
1.0
 40
0.7071067811865475
 41
3.811570896483834
 42
4.71238898038471
  0
ELLIPSE
  5
5F
100
AcDbEntity
  8
USP-GEO
100
AcDbEllipse
 10
8.351448515046909
 20
5.760850000000001
 30
0.0
 11
0.0
 21
0.0875000000000002
 31
0.0
210
0.0
220
0.0
230
1.0
 40
0.7071067811865475
 41
4.712388980384699
 42
5.613207064285544
  0
CIRCLE
  5
60
100
AcDbEntity
  8
USP-GEO
100
AcDbCircle
 10
8.896699999999999
 20
5.479599999999999
 30
0.0
 40
0.086
  0
ELLIPSE
  5
61
100
AcDbEntity
  8
USP-GEO
100
AcDbEllipse
 10
8.42828950017181
 20
7.010850000000001
 30
0.0
 11
0.0
 21
-0.0875000000000002
 31
0.0
210
0.0
220
0.0
230
1.0
 40
0.7071067811865479
 41
0.0
 42
6.283185307179586
  0
ARC
  5
62
100
AcDbEntity
  8
USP-GEO
100
AcDbCircle
 10
8.167099999999999
 20
7.010850000000003
 30
0.0
 40
0.3796000000000018
100
AcDbArc
 50
285.9949848041251
 51
74.00501519587507
  0
ELLIPSE
  5
63
100
AcDbEntity
  8
USP-GEO
100
AcDbEllipse
 10
8.351448515046909
 20
7.010850000000003
 30
0.0
 11
0.0
 21
0.0875000000000002
 31
0.0
210
0.0
220
0.0
230
1.0
 40
0.7071067811865475
 41
3.811570896483828
 42
4.712388980384689
  0
ELLIPSE
  5
64
100
AcDbEntity
  8
USP-GEO
100
AcDbEllipse
 10
8.351448515046909
 20
7.010850000000003
 30
0.0
 11
0.0
 21
0.0875000000000002
 31
0.0
210
0.0
220
0.0
230
1.0
 40
0.7071067811865475
 41
4.712388980384679
 42
5.613207064285533
  0
CIRCLE
  5
65
100
AcDbEntity
  8
USP-GEO
100
AcDbCircle
 10
8.896699999999999
 20
6.729600000000003
 30
0.0
 40
0.086
  0
CIRCLE
  5
66
100
AcDbEntity
  8
USP-GEO
100
AcDbCircle
 10
8.896699999999999
 20
7.979599999999999
 30
0.0
 40
0.086
  0
CIRCLE
  5
67
100
AcDbEntity
  8
USP-GEO
100
AcDbCircle
 10
9.896699999999999
 20
5.479600000000001
 30
0.0
 40
0.086
  0
CIRCLE
  5
68
100
AcDbEntity
  8
USP-GEO
100
AcDbCircle
 10
10.39669999999999
 20
4.854599999999999
 30
0.0
 40
0.086
  0
CIRCLE
  5
69
100
AcDbEntity
  8
USP-GEO
100
AcDbCircle
 10
10.39669999999999
 20
6.104600000000001
 30
0.0
 40
0.086
  0
CIRCLE
  5
6A
100
AcDbEntity
  8
USP-GEO
100
AcDbCircle
 10
9.896699999999997
 20
6.729599999999999
 30
0.0
 40
0.086
  0
CIRCLE
  5
6B
100
AcDbEntity
  8
USP-GEO
100
AcDbCircle
 10
9.896699999999999
 20
7.979600000000003
 30
0.0
 40
0.086
  0
CIRCLE
  5
6C
100
AcDbEntity
  8
USP-GEO
100
AcDbCircle
 10
10.39669999999999
 20
7.354599999999999
 30
0.0
 40
0.086
  0
CIRCLE
  5
6D
100
AcDbEntity
  8
USP-GEO
100
AcDbCircle
 10
0.3750000000000004
 20
8.542100000000003
 30
0.0
 40
0.086
  0
LINE
  5
6E
100
AcDbEntity
  8
USP-GEO
100
AcDbLine
 10
0.0
 20
9.104600000000003
 30
0.0
 11
2.5
 21
9.104600000000003
 31
0.0
  0
CIRCLE
  5
6F
100
AcDbEntity
  8
USP-GEO
100
AcDbCircle
 10
1.375
 20
8.542100000000004
 30
0.0
 40
0.086
  0
LINE
  5
70
100
AcDbEntity
  8
USP-GEO
100
AcDbLine
 10
2.604599999999999
 20
9.104600000000001
 30
0.0
 11
2.5
 21
9.104600000000001
 31
0.0
  0
CIRCLE
  5
71
100
AcDbEntity
  8
USP-GEO
100
AcDbCircle
 10
9.396699999999997
 20
8.604599999999997
 30
0.0
 40
0.086
  0
LINE
  5
72
100
AcDbEntity
  8
USP-GEO
100
AcDbLine
 10
8.2717
 20
9.104600000000001
 30
0.0
 11
10.77169999999999
 21
9.104600000000001
 31
0.0
  0
ELLIPSE
  5
73
100
AcDbEntity
  8
USP-GEO
100
AcDbEllipse
 10
8.351448515046907
 20
8.260850000000001
 30
0.0
 11
0.0
 21
0.0875000000000002
 31
0.0
210
0.0
220
0.0
230
1.0
 40
0.7071067811865475
 41
4.712388980384669
 42
5.613207064285551
  0
ELLIPSE
  5
74
100
AcDbEntity
  8
USP-GEO
100
AcDbEllipse
 10
8.351448515046907
 20
8.260850000000001
 30
0.0
 11
0.0
 21
0.0875000000000002
 31
0.0
210
0.0
220
0.0
230
1.0
 40
0.7071067811865475
 41
3.811570896483828
 42
4.712388980384689
  0
LINE
  5
75
100
AcDbEntity
  8
USP-GEO
100
AcDbLine
 10
8.167099999999997
 20
9.104600000000001
 30
0.0
 11
8.271699999999995
 21
9.104600000000001
 31
0.0
  0
CIRCLE
  5
76
100
AcDbEntity
  8
USP-GEO
100
AcDbCircle
 10
10.39669999999999
 20
8.604599999999999
 30
0.0
 40
0.086
  0
ENDBLK
  5
79
100
AcDbEntity
  8
0
100
AcDbBlockEnd
  0
BLOCK
  5
91
100
AcDbEntity
  8
0
100
AcDbBlockBegin
  2
THDH610_T
 70
     0
 10
0.0
 20
0.0
 30
0.0
  3
THDH610_T
  1

  0
LINE
  5
7C
100
AcDbEntity
  8
USP-GEO
100
AcDbLine
 10
8.167100000000001
 20
4.000000000000003
 30
0.0
 11
2.604600000000001
 21
4.000000000000003
 31
0.0
  0
LINE
  5
7D
100
AcDbEntity
  8
USP-GEO
100
AcDbLine
 10
2.604600000000001
 20
0.0000000000000036
 30
0.0
 11
8.167100000000001
 21
0.0000000000000036
 31
0.0
  0
TEXT
  5
7E
100
AcDbEntity
  8
USP-TXT
100
AcDbText
 10
0.8802274206362978
 20
-2.376945398377138
 30
0.0
 40
0.5
  1
THDH610 - TOP VIEW
 72
     1
 11
5.255227420636297
 21
-2.376945398377138
 31
0.0
100
AcDbText
  0
LINE
  5
7F
100
AcDbEntity
  8
USP-GEO
100
AcDbLine
 10
2.604600000000001
 20
4.354600000000001
 30
0.0
 11
2.6046
 21
0.0
 31
0.0
  0
LINE
  5
80
100
AcDbEntity
  8
USP-GEO
100
AcDbLine
 10
2.500000000000001
 20
4.25
 30
0.0
 11
2.5
 21
0.0
 31
0.0
  0
LINE
  5
81
100
AcDbEntity
  8
USP-GEO
100
AcDbLine
 10
2.6046
 20
0.0
 30
0.0
 11
2.5
 21
0.0
 31
0.0
  0
LINE
  5
82
100
AcDbEntity
  8
USP-GEO
100
AcDbLine
 10
2.604600000000001
 20
4.354600000000001
 30
0.0
 11
0.0000000000000009
 21
4.354600000000001
 31
0.0
  0
LINE
  5
83
100
AcDbEntity
  8
USP-GEO
100
AcDbLine
 10
0.0
 20
4.25
 30
0.0
 11
2.499999999999999
 21
4.25
 31
0.0
  0
LINE
  5
84
100
AcDbEntity
  8
USP-GEO
100
AcDbLine
 10
0.0000000000000009
 20
4.354600000000001
 30
0.0
 11
0.0000000000000009
 21
4.250000000000003
 31
0.0
  0
ARC
  5
85
100
AcDbEntity
  8
USP-GEO
100
AcDbCircle
 10
2.604600000000002
 20
3.000000000000003
 30
0.0
 40
0.3796000000000019
100
AcDbArc
 50
105.9949848041251
 51
211.6731481334771
  0
LINE
  5
86
100
AcDbEntity
  8
USP-GEO
100
AcDbLine
 10
2.281538656474367
 20
2.800682343182014
 30
0.0
 11
2.405282343182013
 21
2.676938656474366
 31
0.0
  0
ARC
  5
87
100
AcDbEntity
  8
USP-GEO
100
AcDbCircle
 10
2.604600000000002
 20
3.000000000000003
 30
0.0
 40
0.3796000000000018
100
AcDbArc
 50
238.3268518665231
 51
254.0050151958746
  0
LINE
  5
88
100
AcDbEntity
  8
USP-GEO
100
AcDbLine
 10
8.167099999999997
 20
0.0
 30
0.0
 11
8.167100000000001
 21
4.354600000000001
 31
0.0
  0
LINE
  5
89
100
AcDbEntity
  8
USP-GEO
100
AcDbLine
 10
8.271699999999999
 20
0.0
 30
0.0
 11
8.271699999999999
 21
4.25
 31
0.0
  0
LINE
  5
8A
100
AcDbEntity
  8
USP-GEO
100
AcDbLine
 10
8.167099999999997
 20
0.0
 30
0.0
 11
8.271699999999999
 21
0.0
 31
0.0
  0
LINE
  5
8B
100
AcDbEntity
  8
USP-GEO
100
AcDbLine
 10
8.490161343525635
 20
2.80068234318201
 30
0.0
 11
8.366417656817986
 21
2.676938656474362
 31
0.0
  0
ARC
  5
8C
100
AcDbEntity
  8
USP-GEO
100
AcDbCircle
 10
8.167100000000001
 20
3.0
 30
0.0
 40
0.3796000000000018
100
AcDbArc
 50
328.3268518665226
 51
74.00501519587518
  0
ARC
  5
8D
100
AcDbEntity
  8
USP-GEO
100
AcDbCircle
 10
8.167100000000001
 20
3.0
 30
0.0
 40
0.3796000000000018
100
AcDbArc
 50
285.994984804125
 51
301.673148133477
  0
LINE
  5
8E
100
AcDbEntity
  8
USP-GEO
100
AcDbLine
 10
8.167100000000001
 20
4.354600000000001
 30
0.0
 11
10.77169999999999
 21
4.354600000000001
 31
0.0
  0
LINE
  5
8F
100
AcDbEntity
  8
USP-GEO
100
AcDbLine
 10
8.271699999999999
 20
4.25
 30
0.0
 11
10.77169999999999
 21
4.25
 31
0.0
  0
LINE
  5
90
100
AcDbEntity
  8
USP-GEO
100
AcDbLine
 10
10.77169999999999
 20
4.354600000000001
 30
0.0
 11
10.77169999999999
 21
4.25
 31
0.0
  0
ENDBLK
  5
92
100
AcDbEntity
  8
0
100
AcDbBlockEnd
  0
BLOCK
  5
B8
100
AcDbEntity
  8
0
100
AcDbBlockBegin
  2
THDH610_S
 70
     0
 10
0.0
 20
0.0
 30
0.0
  3
THDH610_S
  1

  0
CIRCLE
  5
95
100
AcDbEntity
  8
USP-GEO
100
AcDbCircle
 10
2.999999999999996
 20
8.260850000000001
 30
0.0
 40
0.3649040969898824
  0
ELLIPSE
  5
96
100
AcDbEntity
  8
USP-GEO
100
AcDbEllipse
 10
2.738810499828183
 20
8.260850000000003
 30
0.0
 11
0.0
 21
-0.0875000000000002
 31
0.0
210
0.0
220
0.0
230
1.0
 40
0.7071067811865471
 41
0.0
 42
6.283185307179586
  0
LINE
  5
97
100
AcDbEntity
  8
USP-GEO
100
AcDbLine
 10
4.354599999999994
 20
9.104600000000001
 30
0.0
 11
4.354599999999997
 21
1.91106324027147
 31
0.0
  0
LINE
  5
98
100
AcDbEntity
  8
USP-GEO
100
AcDbLine
 10
4.249999999999992
 20
9.104600000000001
 30
0.0
 11
4.249999999999996
 21
1.91106324027147
 31
0.0
  0
LINE
  5
99
100
AcDbEntity
  8
USP-GEO
100
AcDbLine
 10
0.0
 20
0.0
 30
0.0
 11
-0.0000000000000053
 21
9.104600000000001
 31
0.0
  0
ELLIPSE
  5
9A
100
AcDbEntity
  8
USP-GEO
100
AcDbEllipse
 10
2.815651484953086
 20
7.010850000000003
 30
0.0
 11
0.0
 21
0.0875000000000002
 31
0.0
210
0.0
220
0.0
230
1.0
 40
0.7071067811865476
 41
0.6699782428940522
 42
2.471614410695739
  0
ELLIPSE
  5
9B
100
AcDbEntity
  8
USP-GEO
100
AcDbEllipse
 10
2.738810499828183
 20
7.010850000000003
 30
0.0
 11
0.0
 21
-0.0875000000000002
 31
0.0
210
0.0
220
0.0
230
1.0
 40
0.7071067811865471
 41
0.0
 42
6.283185307179586
  0
ELLIPSE
  5
9C
100
AcDbEntity
  8
USP-GEO
100
AcDbEllipse
 10
2.815651484953086
 20
5.760850000000003
 30
0.0
 11
0.0
 21
0.0875000000000002
 31
0.0
210
0.0
220
0.0
230
1.0
 40
0.7071067811865476
 41
0.6699782428939946
 42
2.471614410695803
  0
ELLIPSE
  5
9D
100
AcDbEntity
  8
USP-GEO
100
AcDbEllipse
 10
2.738810499828186
 20
5.760850000000003
 30
0.0
 11
0.0
 21
-0.0875000000000002
 31
0.0
210
0.0
220
0.0
230
1.0
 40
0.7071067811865471
 41
0.0
 42
6.283185307179586
  0
CIRCLE
  5
9E
100
AcDbEntity
  8
USP-GEO
100
AcDbCircle
 10
2.999999999999996
 20
5.760850000000004
 30
0.0
 40
0.3649040969898824
  0
ELLIPSE
  5
9F
100
AcDbEntity
  8
USP-GEO
100
AcDbEllipse
 10
2.81565148495309
 20
4.510850000000003
 30
0.0
 11
0.0
 21
0.0875000000000002
 31
0.0
210
0.0
220
0.0
230
1.0
 40
0.7071067811865476
 41
0.6699782428940586
 42
2.471614410695746
  0
ELLIPSE
  5
A0
100
AcDbEntity
  8
USP-GEO
100
AcDbEllipse
 10
2.738810499828186
 20
4.510850000000001
 30
0.0
 11
0.0
 21
-0.0875000000000002
 31
0.0
210
0.0
220
0.0
230
1.0
 40
0.7071067811865471
 41
0.0
 42
6.283185307179586
  0
CIRCLE
  5
A1
100
AcDbEntity
  8
USP-GEO
100
AcDbCircle
 10
2.999999999999996
 20
4.510850000000002
 30
0.0
 40
0.3649040969898824
  0
CIRCLE
  5
A2
100
AcDbEntity
  8
USP-GEO
100
AcDbCircle
 10
2.999999999999996
 20
7.010850000000003
 30
0.0
 40
0.3649040969898824
  0
ELLIPSE
  5
A3
100
AcDbEntity
  8
USP-GEO
100
AcDbEllipse
 10
2.81565148495309
 20
3.260850000000002
 30
0.0
 11
0.0
 21
0.0875000000000002
 31
0.0
210
0.0
220
0.0
230
1.0
 40
0.7071067811865476
 41
0.6699782428940522
 42
2.471614410695736
  0
ELLIPSE
  5
A4
100
AcDbEntity
  8
USP-GEO
100
AcDbEllipse
 10
2.738810499828186
 20
3.260850000000003
 30
0.0
 11
0.0
 21
-0.0875000000000002
 31
0.0
210
0.0
220
0.0
230
1.0
 40
0.7071067811865471
 41
0.0
 42
6.283185307179586
  0
CIRCLE
  5
A5
100
AcDbEntity
  8
USP-GEO
100
AcDbCircle
 10
3.0
 20
3.260850000000003
 30
0.0
 40
0.3649040969898824
  0
ELLIPSE
  5
A6
100
AcDbEntity
  8
USP-GEO
100
AcDbEllipse
 10
2.81565148495309
 20
2.010850000000002
 30
0.0
 11
0.0
 21
0.0875000000000002
 31
0.0
210
0.0
220
0.0
230
1.0
 40
0.7071067811865476
 41
0.6699782428940554
 42
2.471614410695738
  0
ELLIPSE
  5
A7
100
AcDbEntity
  8
USP-GEO
100
AcDbEllipse
 10
2.738810499828186
 20
2.010850000000002
 30
0.0
 11
0.0
 21
-0.0875000000000002
 31
0.0
210
0.0
220
0.0
230
1.0
 40
0.7071067811865471
 41
0.0
 42
6.283185307179586
  0
CIRCLE
  5
A8
100
AcDbEntity
  8
USP-GEO
100
AcDbCircle
 10
3.0
 20
2.010850000000001
 30
0.0
 40
0.3649040969898824
  0
LINE
  5
A9
100
AcDbEntity
  8
USP-GEO
100
AcDbLine
 10
0.0
 20
0.0
 30
0.0
 11
4.0
 21
0.0000000000000018
 31
0.0
  0
LINE
  5
AA
100
AcDbEntity
  8
USP-HID
100
AcDbLine
 10
-0.0000000000000018
 20
0.1045999999999991
 30
0.0
 11
4.0
 21
0.1046000000000005
 31
0.0
  0
TEXT
  5
AD
100
AcDbEntity
  8
USP-TXT
100
AcDbText
 10
-2.030794238009619
 20
-2.846947718646298
 30
0.0
 40
0.5
  1
THDH610 - SIDE VIEW
 72
     1
 11
2.510872428657048
 21
-2.846947718646298
 31
0.0
100
AcDbText
  0
CIRCLE
  5
AE
100
AcDbEntity
  8
USP-GEO
100
AcDbCircle
 10
2.124999999999996
 20
6.385850000000003
 30
0.0
 40
0.125
  0
LINE
  5
AF
100
AcDbEntity
  8
USP-GEO
100
AcDbLine
 10
4.354599999999994
 20
1.91106324027147
 30
0.0
 11
4.354599999999997
 21
0.4676875672974097
 31
0.0
  0
LINE
  5
B0
100
AcDbEntity
  8
USP-GEO
100
AcDbLine
 10
4.249999999999996
 20
1.91106324027147
 30
0.0
 11
4.25
 21
0.4676875672974097
 31
0.0
  0
LINE
  5
B1
100
AcDbEntity
  8
USP-GEO
100
AcDbLine
 10
4.0
 20
0.32335
 30
0.0
 11
4.0
 21
0.0000000000000018
 31
0.0
  0
LINE
  5
B2
100
AcDbEntity
  8
USP-GEO
100
AcDbLine
 10
4.25
 20
0.4676875672974079
 30
0.0
 11
4.0
 21
0.32335
 31
0.0
  0
LINE
  5
B3
100
AcDbEntity
  8
USP-GEO
100
AcDbLine
 10
4.354599999999997
 20
0.4676875672974084
 30
0.0
 11
4.25
 21
0.4676875672974084
 31
0.0
  0
LINE
  5
B4
100
AcDbEntity
  8
USP-GEO
100
AcDbLine
 10
4.354599999999994
 20
1.91106324027147
 30
0.0
 11
4.249999999999996
 21
1.91106324027147
 31
0.0
  0
ELLIPSE
  5
B5
100
AcDbEntity
  8
USP-GEO
100
AcDbEllipse
 10
2.815651484953086
 20
8.260850000000003
 30
0.0
 11
0.0
 21
0.0875000000000002
 31
0.0
210
0.0
220
0.0
230
1.0
 40
0.7071067811865476
 41
0.6699782428940586
 42
2.471614410695733
  0
LINE
  5
B6
100
AcDbEntity
  8
USP-GEO
100
AcDbLine
 10
-0.0000000000000053
 20
9.104600000000001
 30
0.0
 11
4.249999999999996
 21
9.104600000000003
 31
0.0
  0
LINE
  5
B7
100
AcDbEntity
  8
USP-GEO
100
AcDbLine
 10
4.354599999999994
 20
9.104600000000001
 30
0.0
 11
4.249999999999992
 21
9.104600000000001
 31
0.0
  0
ENDBLK
  5
B9
100
AcDbEntity
  8
0
100
AcDbBlockEnd
  0
ENDSEC
  0
SECTION
  2
ENTITIES
  0
INSERT
  5
3
100
AcDbEntity
  8
USP
100
AcDbBlockReference
  2
THDH610_F
 10
0.0000397397841718
 20
2.848461395620699
 30
0.0
  0
INSERT
  5
7A
100
AcDbEntity
  8
USP
100
AcDbBlockReference
  2
THDH610_T
 10
0.0000397397841718
 20
17.47717754552205
 30
0.0
  0
INSERT
  5
93
100
AcDbEntity
  8
USP
100
AcDbBlockReference
  2
THDH610_S
 10
16.83366810198113
 20
2.848461395620699
 30
0.0
  0
VIEWPORT
  5
BF
102
{ACAD_XDICTIONARY
360
C0
102
}
100
AcDbEntity
 67
     1
  8
0
100
AcDbViewport
 10
5.285416850893516
 20
3.968749891115924
 30
0.0
 40
13.50573247017707
 41
8.992999745766947
 68
    -1
 69
     1
1001
ACAD
1000
MVIEW
1002
{
1070
    16
1010
0.0
1020
0.0
1030
0.0
1010
0.0
1020
0.0
1030
1.0
1040
0.0
1040
8.992999745766947
1040
5.285416850893516
1040
3.968749891115924
1040
50.0
1040
0.0
1040
0.0
1070
     0
1070
   100
1070
     1
1070
     1
1070
     0
1070
     0
1070
     0
1070
     0
1040
0.0
1040
0.0
1040
0.0
1040
0.5
1040
0.5
1040
0.5
1040
0.5
1070
     0
1002
{
1002
}
1002
}
  0
ENDSEC
  0
SECTION
  2
OBJECTS
  0
DICTIONARY
  5
D6
102
{ACAD_XDICTIONARY
360
D7
102
}
100
AcDbDictionary
  3
ACAD_GROUP
350
D4
  3
ACAD_MLINESTYLE
350
D5
  0
DICTIONARY
  5
BA
100
AcDbDictionary
280
     1
  3
ACAD_LAYOUTSELFREF
360
BB
  0
DICTIONARY
  5
C4
100
AcDbDictionary
280
     1
  3
ACAD_LAYOUTSELFREF
360
C5
  0
DICTIONARY
  5
C0
100
AcDbDictionary
280
     1
  3
ACAD_XREC_ROUNDTRIP
360
C1
  0
DICTIONARY
  5
D7
100
AcDbDictionary
280
     1
  3
ACAD_XREC_ROUNDTRIP
360
D8
  0
DICTIONARY
  5
D4
102
{ACAD_REACTORS
330
D6
102
}
100
AcDbDictionary
  0
DICTIONARY
  5
D5
102
{ACAD_REACTORS
330
D6
102
}
100
AcDbDictionary
  3
STANDARD
350
D9
  0
XRECORD
  5
BB
102
{ACAD_REACTORS
330
BA
102
}
100
AcDbXrecord
340
18
  0
XRECORD
  5
C5
102
{ACAD_REACTORS
330
C4
102
}
100
AcDbXrecord
340
15
  0
XRECORD
  5
C1
102
{ACAD_REACTORS
330
C0
102
}
100
AcDbXrecord
102
UCS
 74
     0
 71
     1
 10
0.0
 20
0.0
 30
0.0
 10
1.0
 20
0.0
 30
0.0
 10
0.0
 20
1.0
 30
0.0
146
0.0
 79
     0
102
VIEW
281
     0
102
NEWVIEWCONTROL
280
     4
  0
XRECORD
  5
D8
102
{ACAD_REACTORS
330
D7
102
}
100
AcDbXrecord
102
EXTNAMES
  1
ACDBVARIABLEDICTIONARY
  2
AcDbVariableDictionary
  0
MLINESTYLE
  5
D9
102
{ACAD_REACTORS
330
D5
102
}
100
AcDbMlineStyle
  2
STANDARD
 70
     0
  3

 62
     0
 51
90.0
 52
90.0
 71
     2
 49
0.5
 62
   256
  6
BYLAYER
 49
-0.5
 62
   256
  6
BYLAYER
  0
ENDSEC
  0
EOF
