  0
SECTION
  2
HEADER
  9
$ACADVER
  1
AC1014
  9
$ACADMAINTVER
 70
     9
  9
$DWGCODEPAGE
  3
ANSI_1252
  9
$INSBASE
 10
0.0
 20
0.0
 30
0.0
  9
$EXTMIN
 10
0.2494453581614948
 20
0.0028210269480482
 30
0.0
  9
$EXTMAX
 10
16.44544578996202
 20
19.32346818348301
 30
0.0
  9
$LIMMIN
 10
0.0
 20
0.0
  9
$LIMMAX
 10
12.0
 20
9.0
  9
$ORTHOMODE
 70
     1
  9
$REGENMODE
 70
     1
  9
$FILLMODE
 70
     1
  9
$QTEXTMODE
 70
     0
  9
$MIRRTEXT
 70
     0
  9
$DRAGMODE
 70
     2
  9
$LTSCALE
 40
1.5
  9
$OSMODE
 70
     0
  9
$ATTMODE
 70
     1
  9
$TEXTSIZE
 40
0.75
  9
$TRACEWID
 40
0.05
  9
$TEXTSTYLE
  7
STANDARD
  9
$CLAYER
  8
USP
  9
$CELTYPE
  6
BYLAYER
  9
$CECOLOR
 62
   256
  9
$CELTSCALE
 40
1.0
  9
$DELOBJ
 70
     1
  9
$DISPSILH
 70
     1
  9
$DIMSCALE
 40
7.0
  9
$DIMASZ
 40
0.125
  9
$DIMEXO
 40
0.0625
  9
$DIMDLI
 40
0.37890625
  9
$DIMRND
 40
0.0
  9
$DIMDLE
 40
0.0
  9
$DIMEXE
 40
0.09375
  9
$DIMTP
 40
0.0
  9
$DIMTM
 40
0.0
  9
$DIMTXT
 40
0.109375
  9
$DIMCEN
 40
0.0
  9
$DIMTSZ
 40
0.0
  9
$DIMTOL
 70
     0
  9
$DIMLIM
 70
     0
  9
$DIMTIH
 70
     1
  9
$DIMTOH
 70
     1
  9
$DIMSE1
 70
     0
  9
$DIMSE2
 70
     0
  9
$DIMTAD
 70
     0
  9
$DIMZIN
 70
     8
  9
$DIMBLK
  1

  9
$DIMASO
 70
     1
  9
$DIMSHO
 70
     1
  9
$DIMPOST
  1

  9
$DIMAPOST
  1

  9
$DIMALT
 70
     0
  9
$DIMALTD
 70
     2
  9
$DIMALTF
 40
25.4
  9
$DIMLFAC
 40
1.0
  9
$DIMTOFL
 70
     0
  9
$DIMTVP
 40
0.0
  9
$DIMTIX
 70
     0
  9
$DIMSOXD
 70
     0
  9
$DIMSAH
 70
     0
  9
$DIMBLK1
  1

  9
$DIMBLK2
  1

  9
$DIMSTYLE
  2
STANDARD
  9
$DIMCLRD
 70
     0
  9
$DIMCLRE
 70
     0
  9
$DIMCLRT
 70
   256
  9
$DIMTFAC
 40
1.0
  9
$DIMGAP
 40
0.08984375
  9
$DIMJUST
 70
     0
  9
$DIMSD1
 70
     0
  9
$DIMSD2
 70
     0
  9
$DIMTOLJ
 70
     1
  9
$DIMTZIN
 70
     0
  9
$DIMALTZ
 70
     0
  9
$DIMALTTZ
 70
     0
  9
$DIMFIT
 70
     3
  9
$DIMUPT
 70
     1
  9
$DIMUNIT
 70
     7
  9
$DIMDEC
 70
     4
  9
$DIMTDEC
 70
     4
  9
$DIMALTU
 70
     2
  9
$DIMALTTD
 70
     2
  9
$DIMTXSTY
  7
STANDARD
  9
$DIMAUNIT
 70
     0
  9
$LUNITS
 70
     5
  9
$LUPREC
 70
     6
  9
$SKETCHINC
 40
0.1
  9
$FILLETRAD
 40
0.0
  9
$AUNITS
 70
     0
  9
$AUPREC
 70
     1
  9
$MENU
  1
CUSTOM
  9
$ELEVATION
 40
0.0
  9
$PELEVATION
 40
0.0
  9
$THICKNESS
 40
0.0
  9
$LIMCHECK
 70
     0
  9
$BLIPMODE
 70
     0
  9
$CHAMFERA
 40
0.0
  9
$CHAMFERB
 40
0.0
  9
$CHAMFERC
 40
0.0
  9
$CHAMFERD
 40
0.0
  9
$SKPOLY
 70
     0
  9
$TDCREATE
 40
2451263.663231366
  9
$TDUPDATE
 40
2452768.688921435
  9
$TDINDWG
 40
0.4416749421
  9
$TDUSRTIMER
 40
0.4416749421
  9
$USRTIMER
 70
     1
  9
$ANGBASE
 50
0.0
  9
$ANGDIR
 70
     0
  9
$PDMODE
 70
     0
  9
$PDSIZE
 40
0.0
  9
$PLINEWID
 40
0.0
  9
$COORDS
 70
     2
  9
$SPLFRAME
 70
     0
  9
$SPLINETYPE
 70
     6
  9
$SPLINESEGS
 70
     8
  9
$ATTDIA
 70
     0
  9
$ATTREQ
 70
     0
  9
$HANDLING
 70
     1
  9
$HANDSEED
  5
161
  9
$SURFTAB1
 70
     6
  9
$SURFTAB2
 70
     6
  9
$SURFTYPE
 70
     6
  9
$SURFU
 70
     6
  9
$SURFV
 70
     6
  9
$UCSNAME
  2

  9
$UCSORG
 10
0.0
 20
0.0
 30
0.0
  9
$UCSXDIR
 10
1.0
 20
0.0
 30
0.0
  9
$UCSYDIR
 10
0.0
 20
1.0
 30
0.0
  9
$PUCSNAME
  2

  9
$PUCSORG
 10
0.0
 20
0.0
 30
0.0
  9
$PUCSXDIR
 10
1.0
 20
0.0
 30
0.0
  9
$PUCSYDIR
 10
0.0
 20
1.0
 30
0.0
  9
$USERI1
 70
     0
  9
$USERI2
 70
     0
  9
$USERI3
 70
     0
  9
$USERI4
 70
     0
  9
$USERI5
 70
     0
  9
$USERR1
 40
0.0
  9
$USERR2
 40
0.0
  9
$USERR3
 40
0.0
  9
$USERR4
 40
0.0
  9
$USERR5
 40
0.0
  9
$WORLDVIEW
 70
     1
  9
$SHADEDGE
 70
     3
  9
$SHADEDIF
 70
    70
  9
$TILEMODE
 70
     1
  9
$MAXACTVP
 70
    16
  9
$PINSBASE
 10
0.0
 20
0.0
 30
0.0
  9
$PLIMCHECK
 70
     0
  9
$PEXTMIN
 10
1.000000000000000E+20
 20
1.000000000000000E+20
 30
1.000000000000000E+20
  9
$PEXTMAX
 10
-1.000000000000000E+20
 20
-1.000000000000000E+20
 30
-1.000000000000000E+20
  9
$PLIMMIN
 10
0.0
 20
0.0
  9
$PLIMMAX
 10
12.0
 20
9.0
  9
$UNITMODE
 70
     0
  9
$VISRETAIN
 70
     0
  9
$PLINEGEN
 70
     0
  9
$PSLTSCALE
 70
     0
  9
$TREEDEPTH
 70
  3020
  9
$PICKSTYLE
 70
     0
  9
$CMLSTYLE
  2
STANDARD
  9
$CMLJUST
 70
     0
  9
$CMLSCALE
 40
1.0
  9
$PROXYGRAPHICS
 70
     1
  9
$MEASUREMENT
 70
     0
  0
ENDSEC
  0
SECTION
  2
CLASSES
  0
CLASS
  1
ACDBDICTIONARYWDFLT
  2
AcDbDictionaryWithDefault
  3
AutoCAD 2000
 90
        0
280
     0
281
     0
  0
CLASS
  1
ACDBPLACEHOLDER
  2
AcDbPlaceHolder
  3
AutoCAD 2000
 90
        0
280
     0
281
     0
  0
CLASS
  1
LAYOUT
  2
AcDbLayout
  3
AutoCAD 2000
 90
        0
280
     0
281
     0
  0
CLASS
  1
DICTIONARYVAR
  2
AcDbDictionaryVar
  3
"AutoCAD"
 90
        0
280
     0
281
     0
  0
CLASS
  1
LONG_TRANSACTION
  2
AcDbLongTransaction
  3
AutoCAD 2000
 90
        0
280
     0
281
     0
  0
CLASS
  1
LWPOLYLINE
  2
AcDbPolyline
  3
"AutoCAD"
 90
        0
280
     0
281
     1
  0
CLASS
  1
HATCH
  2
AcDbHatch
  3
"ACAD_SEDONA"
 90
        0
280
     0
281
     1
  0
CLASS
  1
XRECORD
  2
AcDbXrecord
  3
"<Built In>"
 90
        0
280
     0
281
     0
  0
CLASS
  1
LONG_TRANSACTION
  2
AcDbLongTransaction
  3
AutoCAD 2000
 90
        0
280
     0
281
     0
  0
CLASS
  1
LWPOLYLINE
  2
AcDbPolyline
  3
"AutoCAD"
 90
        0
280
     0
281
     1
  0
CLASS
  1
HATCH
  2
AcDbHatch
  3
"ACAD_SEDONA"
 90
        0
280
     0
281
     1
  0
CLASS
  1
XRECORD
  2
AcDbXrecord
  3
"<Built In>"
 90
        0
280
     0
281
     0
  0
ENDSEC
  0
SECTION
  2
TABLES
  0
TABLE
  2
VPORT
  5
151
100
AcDbSymbolTable
 70
     1
  0
VPORT
  5
152
100
AcDbSymbolTableRecord
100
AcDbViewportTableRecord
  2
*ACTIVE
 70
     0
 10
0.0
 20
0.0
 11
1.0
 21
1.0
 12
-12.90571363528927
 22
20.78131482331841
 13
0.0
 23
0.0
 14
1.0
 24
1.0
 15
0.0
 25
0.0
 16
0.0
 26
0.0
 36
1.0
 17
23.09603071721725
 27
-10.27010416511325
 37
-10.44050274849355
 40
29.25510455120285
 41
1.457627118644067
 42
50.0
 43
10.55307667737539
 44
10.55307667737539
 50
0.0
 51
0.0
 71
     0
 72
   100
 73
     1
 74
     1
 75
     0
 76
     0
 77
     0
 78
     0
  0
ENDTAB
  0
TABLE
  2
LTYPE
  5
14C
100
AcDbSymbolTable
 70
     1
  0
LTYPE
  5
14D
100
AcDbSymbolTableRecord
100
AcDbLinetypeTableRecord
  2
BYBLOCK
 70
     0
  3

 72
    65
 73
     0
 40
0.0
  0
LTYPE
  5
14E
100
AcDbSymbolTableRecord
100
AcDbLinetypeTableRecord
  2
BYLAYER
 70
     0
  3

 72
    65
 73
     0
 40
0.0
  0
LTYPE
  5
5
100
AcDbSymbolTableRecord
100
AcDbLinetypeTableRecord
  2
CONTINUOUS
 70
     0
  3
Solid line
 72
    65
 73
     0
 40
0.0
  0
ENDTAB
  0
TABLE
  2
LAYER
  5
14A
100
AcDbSymbolTable
 70
     4
  0
LAYER
  5
30
100
AcDbSymbolTableRecord
100
AcDbLayerTableRecord
  2
0
 70
     0
 62
     7
  6
CONTINUOUS
  0
LAYER
  5
8
102
{ACAD_XDICTIONARY
360
9
102
}
100
AcDbSymbolTableRecord
100
AcDbLayerTableRecord
  2
USP-GEO
 70
     0
 62
     7
  6
CONTINUOUS
  0
LAYER
  5
D
102
{ACAD_XDICTIONARY
360
E
102
}
100
AcDbSymbolTableRecord
100
AcDbLayerTableRecord
  2
USP-TXT
 70
     0
 62
     7
  6
CONTINUOUS
  0
LAYER
  5
4
100
AcDbSymbolTableRecord
100
AcDbLayerTableRecord
  2
USP
 70
     0
 62
     7
  6
CONTINUOUS
  0
ENDTAB
  0
TABLE
  2
STYLE
  5
14B
100
AcDbSymbolTable
 70
     1
  0
STYLE
  5
10
100
AcDbSymbolTableRecord
100
AcDbTextStyleTableRecord
  2
STANDARD
 70
     0
 40
0.0
 41
1.0
 50
0.0
 71
     0
 42
0.75
  3
txt
  4

  0
ENDTAB
  0
TABLE
  2
VIEW
  5
14F
100
AcDbSymbolTable
 70
     0
  0
ENDTAB
  0
TABLE
  2
UCS
  5
150
100
AcDbSymbolTable
 70
     0
  0
ENDTAB
  0
TABLE
  2
APPID
  5
153
100
AcDbSymbolTable
 70
     1
  0
APPID
  5
154
100
AcDbSymbolTableRecord
100
AcDbRegAppTableRecord
  2
ACAD
 70
     0
  0
ENDTAB
  0
TABLE
  2
DIMSTYLE
  5
155
100
AcDbSymbolTable
 70
     1
  0
DIMSTYLE
105
15D
100
AcDbSymbolTableRecord
100
AcDbDimStyleTableRecord
  2
STANDARD
 70
     0
  3

  4

  5

  6

  7

 40
1.0
 41
0.18
 42
0.0625
 43
0.38
 44
0.18
 45
0.0
 46
0.0
 47
0.0
 48
0.0
140
0.18
141
0.09
142
0.0
143
25.4
144
1.0
145
0.0
146
1.0
147
0.09
 71
     0
 72
     0
 73
     1
 74
     1
 75
     0
 76
     0
 77
     0
 78
     0
170
     0
171
     2
172
     0
173
     0
174
     0
175
     0
176
     0
177
     0
178
     0
270
     2
271
     4
272
     4
273
     2
274
     2
340
10
275
     0
280
     0
281
     0
282
     0
283
     1
284
     0
285
     0
286
     0
287
     3
288
     0
  0
ENDTAB
  0
TABLE
  2
BLOCK_RECORD
  5
1
100
AcDbSymbolTable
 70
     3
  0
BLOCK_RECORD
  5
2
102
{ACAD_XDICTIONARY
360
141
102
}
100
AcDbSymbolTableRecord
100
AcDbBlockTableRecord
  2
*MODEL_SPACE
  0
BLOCK_RECORD
  5
145
102
{ACAD_XDICTIONARY
360
146
102
}
100
AcDbSymbolTableRecord
100
AcDbBlockTableRecord
  2
*PAPER_SPACE
  0
BLOCK_RECORD
  5
6
100
AcDbSymbolTableRecord
100
AcDbBlockTableRecord
  2
THDH48_T
  0
BLOCK_RECORD
  5
33
100
AcDbSymbolTableRecord
100
AcDbBlockTableRecord
  2
THDH48_F
  0
BLOCK_RECORD
  5
F9
100
AcDbSymbolTableRecord
100
AcDbBlockTableRecord
  2
THDH48_S
  0
ENDTAB
  0
ENDSEC
  0
SECTION
  2
BLOCKS
  0
BLOCK
  5
143
100
AcDbEntity
  8
0
100
AcDbBlockBegin
  2
*MODEL_SPACE
 70
     0
 10
0.0
 20
0.0
 30
0.0
  3
*MODEL_SPACE
  1

  0
ENDBLK
  5
144
100
AcDbEntity
  8
0
100
AcDbBlockEnd
  0
BLOCK
  5
148
100
AcDbEntity
 67
     1
  8
0
100
AcDbBlockBegin
  2
*PAPER_SPACE
 70
     0
 10
0.0
 20
0.0
 30
0.0
  3
*PAPER_SPACE
  1

  0
ENDBLK
  5
149
100
AcDbEntity
 67
     1
  8
0
100
AcDbBlockEnd
  0
BLOCK
  5
2F
100
AcDbEntity
  8
0
100
AcDbBlockBegin
  2
THDH48_T
 70
     0
 10
0.0
 20
0.0
 30
0.0
  3
THDH48_T
  1

  0
LWPOLYLINE
  5
7
100
AcDbEntity
  8
USP-GEO
100
AcDbPolyline
 90
       32
 70
   129
 43
0.0
 10
2.489313663842766
 20
2.007262218482045
 10
2.489313663842766
 20
1.737313409080039
 10
2.489313663842766
 20
0.2121026359587166
 10
2.489313663842766
 20
0.0964102890721446
 10
2.489313663842766
 20
0.0192820578144293
 10
2.489313663842766
 20
0.0
 10
2.605006010729338
 20
0.0
 10
2.605006010729338
 20
0.0192820578144293
 10
2.605006010729338
 20
0.0964102890721446
 10
2.605006010729338
 20
0.2121026359587166
 10
2.605006010729338
 20
1.737313409080039
 10
2.605006010729338
 20
2.007262218482045
 10
2.605006010729338
 20
2.200082796626331
 10
2.605006010729338
 20
2.257928970069619
 10
2.605006010729338
 20
2.277211027884048
 10
2.605006010729338
 20
2.354339259141761
 10
2.605006010729338
 20
2.489313663842766
 10
2.605006010729338
 20
2.56644189510048
 10
2.605006010729338
 20
2.605006010729338
 10
2.605006010729338
 20
2.624288068543767
 10
2.605006010729338
 20
4.226627072922804
 10
0.0
 20
4.226627072922804
 10
0.0
 20
4.130216783850661
 10
2.489313663842766
 20
4.130216783850661
 10
2.489313663842766
 20
2.624288068543767
 10
2.489313663842766
 20
2.605006010729338
 10
2.489313663842766
 20
2.56644189510048
 10
2.489313663842766
 20
2.489313663842766
 10
2.489313663842766
 20
2.354339259141761
 10
2.489313663842766
 20
2.277211027884048
 10
2.489313663842766
 20
2.257928970069619
 10
2.489313663842766
 20
2.200082796626331
  0
LWPOLYLINE
  5
B
100
AcDbEntity
  8
USP-GEO
100
AcDbPolyline
 90
        6
 70
   129
 43
0.0
 10
2.605006010729338
 20
4.226627072922804
 10
0.0
 20
4.226627072922804
 10
0.0
 20
4.130216783850661
 10
2.489313663842766
 20
4.130216783850661
 10
2.489313663842766
 20
2.624288068543767
 10
2.605006010729338
 20
2.624288068543767
  0
TEXT
  5
C
100
AcDbEntity
  8
USP-TXT
100
AcDbText
 10
1.895046048176374
 20
-1.381332895322264
 30
0.0
 40
0.296875
  1
THDH48 - TOP VIEW
 72
     1
 11
4.418483548176373
 21
-1.381332895322264
 31
0.0
100
AcDbText
  0
LWPOLYLINE
  5
11
100
AcDbEntity
  8
USP-GEO
100
AcDbPolyline
 90
       19
 70
   128
 43
0.0
 10
6.213643130699699
 20
4.014524436964089
 10
6.212679027808976
 20
4.014524436964089
 10
5.286176149825669
 20
4.014524436964089
 10
5.286176149825669
 20
3.975960321335231
 10
5.266894092011243
 20
3.956678263520801
 10
5.228329976382385
 20
3.937396205706372
 10
4.977663224794808
 20
3.937396205706372
 10
4.939099109165953
 20
3.956678263520801
 10
4.919817051351524
 20
3.975960321335231
 10
4.919817051351524
 20
4.014524436964089
 10
3.917150045001223
 20
4.014524436964089
 10
3.897867987186794
 20
3.975960321335231
 10
3.878585929372365
 20
3.956678263520801
 10
3.859303871557935
 20
3.937396205706372
 10
3.607673017079639
 20
3.937396205706372
 10
3.56910890145078
 20
3.956678263520801
 10
3.549826843636351
 20
3.975960321335231
 10
3.530544785821922
 20
4.014524436964089
 10
2.605006010729338
 20
4.014524436964089
  0
LWPOLYLINE
  5
12
100
AcDbEntity
  8
USP-GEO
100
AcDbPolyline
 90
       20
 70
   128
 43
0.0
 10
2.605970113620058
 20
0.0
 10
2.605006010729338
 20
0.0
 10
3.530544785821922
 20
0.0
 10
3.549826843636351
 20
0.0385641156288568
 10
3.56910890145078
 20
0.057846173443286
 10
3.607673017079639
 20
0.057846173443286
 10
3.859303871557935
 20
0.057846173443286
 10
3.878585929372365
 20
0.057846173443286
 10
3.897867987186794
 20
0.0385641156288568
 10
3.917150045001223
 20
0.0
 10
4.919817051351524
 20
0.0
 10
4.919817051351524
 20
0.0385641156288568
 10
4.939099109165953
 20
0.057846173443286
 10
4.977663224794808
 20
0.057846173443286
 10
5.228329976382385
 20
0.057846173443286
 10
5.266894092011243
 20
0.057846173443286
 10
5.286176149825669
 20
0.0385641156288568
 10
5.286176149825669
 20
0.0
 10
6.212679027808976
 20
0.0
 10
6.213643130699699
 20
0.0
  0
LWPOLYLINE
  5
13
100
AcDbEntity
  8
USP-GEO
100
AcDbPolyline
 90
        3
 70
   128
 43
0.0
 10
5.286176149825669
 20
0.0
 10
6.212679027808976
 20
0.0
 10
6.231961085623405
 20
0.0
  0
LWPOLYLINE
  5
14
100
AcDbEntity
  8
USP-GEO
100
AcDbPolyline
 90
        4
 70
   128
 43
0.0
 10
5.286176149825669
 20
4.014524436964089
 10
6.212679027808976
 20
4.014524436964089
 10
6.231961085623405
 20
4.014524436964089
 10
6.232925188514128
 20
4.014524436964089
  0
LWPOLYLINE
  5
15
100
AcDbEntity
  8
USP-GEO
100
AcDbPolyline
 90
       12
 70
   128
 43
0.0
 10
2.605006010729338
 20
1.737313409080039
 10
2.605006010729338
 20
2.007262218482045
 10
2.605006010729338
 20
2.200082796626331
 10
2.605006010729338
 20
2.257928970069619
 10
2.489313663842766
 20
2.257928970069619
 10
2.489313663842766
 20
2.200082796626331
 10
2.489313663842766
 20
2.007262218482045
 10
2.489313663842766
 20
1.737313409080039
 10
2.489313663842766
 20
0.2121026359587166
 10
2.605006010729338
 20
0.2121026359587166
 10
2.605006010729338
 20
1.737313409080039
 10
2.489313663842766
 20
1.737313409080039
  0
LWPOLYLINE
  5
16
100
AcDbEntity
  8
USP-GEO
100
AcDbPolyline
 90
        2
 70
   128
 43
0.0
 10
2.605006010729338
 20
0.0
 10
3.530544785821922
 20
0.0
  0
LWPOLYLINE
  5
17
100
AcDbEntity
  8
USP-GEO
100
AcDbPolyline
 90
        8
 70
   128
 43
0.0
 10
2.489313663842766
 20
0.2121026359587166
 10
2.489313663842766
 20
0.0964102890721446
 10
2.489313663842766
 20
0.0192820578144293
 10
2.489313663842766
 20
0.0
 10
2.605006010729338
 20
0.0
 10
2.605006010729338
 20
0.0192820578144293
 10
2.605006010729338
 20
0.0964102890721446
 10
2.605006010729338
 20
0.2121026359587166
  0
LWPOLYLINE
  5
18
100
AcDbEntity
  8
USP-GEO
100
AcDbPolyline
 90
        2
 70
   128
 43
0.0
 10
3.917150045001223
 20
0.0
 10
4.919817051351524
 20
0.0
  0
LWPOLYLINE
  5
19
100
AcDbEntity
  8
USP-GEO
100
AcDbPolyline
 90
        3
 70
   128
 43
0.0
 10
3.56910890145078
 20
0.057846173443286
 10
3.607673017079639
 20
0.057846173443286
 10
3.859303871557935
 20
0.057846173443286
  0
LWPOLYLINE
  5
1A
100
AcDbEntity
  8
USP-GEO
100
AcDbPolyline
 90
        2
 70
   128
 43
0.0
 10
4.977663224794808
 20
0.057846173443286
 10
5.228329976382385
 20
0.057846173443286
  0
LWPOLYLINE
  5
1B
100
AcDbEntity
  8
USP-GEO
100
AcDbPolyline
 90
        2
 70
   128
 43
0.0
 10
3.530544785821922
 20
4.014524436964089
 10
2.605006010729338
 20
4.014524436964089
  0
LWPOLYLINE
  5
1C
100
AcDbEntity
  8
USP-GEO
100
AcDbPolyline
 90
        8
 70
   129
 43
0.0
 10
2.605006010729338
 20
2.257928970069619
 10
2.489313663842766
 20
2.257928970069619
 10
2.489313663842766
 20
2.277211027884048
 10
2.489313663842766
 20
2.354339259141761
 10
2.489313663842766
 20
2.489313663842766
 10
2.605006010729338
 20
2.489313663842766
 10
2.605006010729338
 20
2.354339259141761
 10
2.605006010729338
 20
2.277211027884048
  0
LWPOLYLINE
  5
1D
100
AcDbEntity
  8
USP-GEO
100
AcDbPolyline
 90
        8
 70
   128
 43
0.0
 10
2.605006010729338
 20
2.489313663842766
 10
2.605006010729338
 20
2.56644189510048
 10
2.605006010729338
 20
2.605006010729338
 10
2.605006010729338
 20
2.624288068543767
 10
2.489313663842766
 20
2.624288068543767
 10
2.489313663842766
 20
2.605006010729338
 10
2.489313663842766
 20
2.56644189510048
 10
2.489313663842766
 20
2.489313663842766
  0
LWPOLYLINE
  5
1E
100
AcDbEntity
  8
USP-GEO
100
AcDbPolyline
 90
        6
 70
   128
 43
0.0
 10
2.489313663842766
 20
3.165149790238496
 10
2.431467490399478
 20
3.126585674609637
 10
2.296493085698477
 20
3.010893327723065
 10
2.238646912255189
 20
2.818072749578776
 10
2.296493085698477
 20
2.643570126358197
 10
2.297457188589197
 20
2.643570126358197
  0
LWPOLYLINE
  5
1F
100
AcDbEntity
  8
USP-GEO
100
AcDbPolyline
 90
        3
 70
   128
 43
0.0
 10
2.489313663842766
 20
2.489313663842766
 10
2.431467490399478
 20
2.508595721657195
 10
2.412185432585049
 20
2.527877779471621
  0
LWPOLYLINE
  5
20
100
AcDbEntity
  8
USP-GEO
100
AcDbPolyline
 90
        7
 70
   128
 43
0.0
 10
2.296493085698477
 20
2.643570126358197
 10
2.315775143512906
 20
2.624288068543767
 10
2.335057201327336
 20
2.605006010729338
 10
2.354339259141761
 20
2.585723952914909
 10
2.39290337477062
 20
2.54715983728605
 10
2.412185432585049
 20
2.527877779471621
 10
2.413149535475772
 20
2.527877779471621
  0
LWPOLYLINE
  5
21
100
AcDbEntity
  8
USP-GEO
100
AcDbPolyline
 90
        2
 70
   129
 43
0.0
 10
2.605970113620058
 20
4.014524436964089
 10
2.605006010729338
 20
4.014524436964089
  0
LWPOLYLINE
  5
22
100
AcDbEntity
  8
USP-GEO
100
AcDbPolyline
 90
        3
 70
   128
 43
0.0
 10
4.919817051351524
 20
3.975960321335231
 10
4.919817051351524
 20
4.014524436964089
 10
3.917150045001223
 20
4.014524436964089
  0
LWPOLYLINE
  5
23
100
AcDbEntity
  8
USP-GEO
100
AcDbPolyline
 90
        3
 70
   128
 43
0.0
 10
3.878585929372365
 20
3.956678263520801
 10
3.859303871557935
 20
3.937396205706372
 10
3.607673017079639
 20
3.937396205706372
  0
LWPOLYLINE
  5
24
100
AcDbEntity
  8
USP-GEO
100
AcDbPolyline
 90
        3
 70
   128
 43
0.0
 10
5.266894092011243
 20
3.956678263520801
 10
5.228329976382385
 20
3.937396205706372
 10
4.977663224794808
 20
3.937396205706372
  0
LWPOLYLINE
  5
25
100
AcDbEntity
  8
USP-GEO
100
AcDbPolyline
 90
       15
 70
   128
 43
0.0
 10
6.231961085623405
 20
0.0
 10
6.231961085623405
 20
0.0192820578144293
 10
6.231961085623405
 20
0.0964102890721446
 10
6.231961085623405
 20
0.2121026359587166
 10
6.231961085623405
 20
1.737313409080039
 10
6.231961085623405
 20
2.007262218482045
 10
6.231961085623405
 20
2.200082796626331
 10
6.231961085623405
 20
2.257928970069619
 10
6.231961085623405
 20
2.277211027884048
 10
6.231961085623405
 20
2.354339259141761
 10
6.231961085623405
 20
2.489313663842766
 10
6.231961085623405
 20
2.56644189510048
 10
6.231961085623405
 20
2.605006010729338
 10
6.231961085623405
 20
2.624288068543767
 10
6.231961085623405
 20
4.226627072922804
  0
LWPOLYLINE
  5
26
100
AcDbEntity
  8
USP-GEO
100
AcDbPolyline
 90
       17
 70
   128
 43
0.0
 10
6.231961085623405
 20
0.0
 10
6.328371374695551
 20
0.0
 10
6.328371374695551
 20
0.0192820578144293
 10
6.328371374695551
 20
0.0964102890721446
 10
6.328371374695551
 20
0.2121026359587166
 10
6.328371374695551
 20
1.737313409080039
 10
6.328371374695551
 20
2.007262218482045
 10
6.328371374695551
 20
2.200082796626331
 10
6.328371374695551
 20
2.257928970069619
 10
6.328371374695551
 20
2.277211027884048
 10
6.328371374695551
 20
2.354339259141761
 10
6.328371374695551
 20
2.489313663842766
 10
6.328371374695551
 20
2.56644189510048
 10
6.328371374695551
 20
2.605006010729338
 10
6.328371374695551
 20
2.624288068543767
 10
6.231961085623405
 20
2.624288068543767
 10
6.231961085623405
 20
4.226627072922804
  0
LWPOLYLINE
  5
27
100
AcDbEntity
  8
USP-GEO
100
AcDbPolyline
 90
        4
 70
   128
 43
0.0
 10
6.328371374695551
 20
0.2121026359587166
 10
6.328371374695551
 20
1.737313409080039
 10
6.231961085623405
 20
1.737313409080039
 10
6.231961085623405
 20
0.2121026359587166
  0
LWPOLYLINE
  5
28
100
AcDbEntity
  8
USP-GEO
100
AcDbPolyline
 90
        8
 70
   129
 43
0.0
 10
6.231961085623405
 20
0.2121026359587166
 10
6.328371374695551
 20
0.2121026359587166
 10
6.328371374695551
 20
0.0964102890721446
 10
6.328371374695551
 20
0.0192820578144293
 10
6.328371374695551
 20
0.0
 10
6.231961085623405
 20
0.0
 10
6.231961085623405
 20
0.0192820578144293
 10
6.231961085623405
 20
0.0964102890721446
  0
LWPOLYLINE
  5
29
100
AcDbEntity
  8
USP-GEO
100
AcDbPolyline
 90
        2
 70
   129
 43
0.0
 10
6.232925188514128
 20
0.0
 10
6.231961085623405
 20
0.0
  0
LWPOLYLINE
  5
2A
100
AcDbEntity
  8
USP-GEO
100
AcDbPolyline
 90
        2
 70
   129
 43
0.0
 10
6.231961085623405
 20
4.226627072922804
 10
8.836967096352745
 20
4.226627072922804
  0
LWPOLYLINE
  5
2B
100
AcDbEntity
  8
USP-GEO
100
AcDbPolyline
 90
        2
 70
   129
 43
0.0
 10
8.836967096352745
 20
4.130216783850661
 10
6.328371374695551
 20
4.130216783850661
  0
LWPOLYLINE
  5
2C
100
AcDbEntity
  8
USP-GEO
100
AcDbPolyline
 90
       30
 70
   128
 43
0.0
 10
6.328371374695551
 20
3.165149790238496
 10
6.405499605953265
 20
3.126585674609637
 10
6.540474010654266
 20
3.010893327723065
 10
6.579038126283125
 20
2.818072749578776
 10
6.540474010654266
 20
2.643570126358197
 10
6.52119195283984
 20
2.643570126358197
 10
6.52119195283984
 20
2.624288068543767
 10
6.501909895025411
 20
2.605006010729338
 10
6.463345779396552
 20
2.585723952914909
 10
6.444063721582123
 20
2.54715983728605
 10
6.424781663767694
 20
2.527877779471621
 10
6.405499605953265
 20
2.508595721657195
 10
6.328371374695551
 20
2.489313663842766
 10
6.231961085623405
 20
2.489313663842766
 10
6.231961085623405
 20
2.56644189510048
 10
6.231961085623405
 20
2.605006010729338
 10
6.231961085623405
 20
2.624288068543767
 10
6.328371374695551
 20
2.624288068543767
 10
6.328371374695551
 20
4.130216783850661
 10
6.328371374695551
 20
2.624288068543767
 10
6.328371374695551
 20
2.605006010729338
 10
6.328371374695551
 20
2.56644189510048
 10
6.328371374695551
 20
2.489313663842766
 10
6.328371374695551
 20
2.354339259141761
 10
6.328371374695551
 20
2.277211027884048
 10
6.328371374695551
 20
2.257928970069619
 10
6.231961085623405
 20
2.257928970069619
 10
6.231961085623405
 20
2.277211027884048
 10
6.231961085623405
 20
2.354339259141761
 10
6.231961085623405
 20
2.489313663842766
  0
LWPOLYLINE
  5
2D
100
AcDbEntity
  8
USP-GEO
100
AcDbPolyline
 90
        8
 70
   128
 43
0.0
 10
6.328371374695551
 20
1.737313409080039
 10
6.328371374695551
 20
2.007262218482045
 10
6.328371374695551
 20
2.200082796626331
 10
6.328371374695551
 20
2.257928970069619
 10
6.231961085623405
 20
2.257928970069619
 10
6.231961085623405
 20
2.200082796626331
 10
6.231961085623405
 20
2.007262218482045
 10
6.231961085623405
 20
1.737313409080039
  0
LWPOLYLINE
  5
2E
100
AcDbEntity
  8
USP-GEO
100
AcDbPolyline
 90
        2
 70
   129
 43
0.0
 10
8.836967096352745
 20
4.226627072922804
 10
8.836967096352745
 20
4.130216783850661
  0
ENDBLK
  5
31
100
AcDbEntity
  8
0
100
AcDbBlockEnd
  0
BLOCK
  5
F6
100
AcDbEntity
  8
0
100
AcDbBlockBegin
  2
THDH48_F
 70
     0
 10
0.0
 20
0.0
 30
0.0
  3
THDH48_F
  1

  0
LWPOLYLINE
  5
34
100
AcDbEntity
  8
USP-GEO
100
AcDbPolyline
 90
       33
 70
   128
 43
0.0
 10
2.605006010729338
 20
0.0
 10
2.605006010729338
 20
0.0964102890721428
 10
2.605006010729338
 20
0.2892308672164319
 10
2.605006010729338
 20
0.463733490437015
 10
2.605006010729338
 20
0.6179899529524456
 10
2.605006010729338
 20
2.277211027884048
 10
2.605006010729338
 20
2.683098344877775
 10
2.605006010729338
 20
3.145867732424067
 10
2.605006010729338
 20
3.628883280675511
 10
2.605006010729338
 20
4.420411753957814
 10
2.605006010729338
 20
4.574668216473245
 10
2.605006010729338
 20
4.728924678988677
 10
2.605006010729338
 20
4.844617025875249
 10
2.605006010729338
 20
4.902463199318537
 10
2.605006010729338
 20
4.99887348839068
 10
2.605006010729338
 20
5.095283777462825
 10
2.605006010729338
 20
5.423078760308115
 10
2.605006010729338
 20
5.520453152270981
 10
2.605006010729338
 20
5.616863441343125
 10
2.605006010729338
 20
5.674709614786412
 10
2.605006010729338
 20
5.790401961672985
 10
2.605006010729338
 20
5.944658424188416
 10
2.605006010729338
 20
6.098914886703846
 10
2.605006010729338
 20
6.291735464848136
 10
2.605006010729338
 20
6.466238088068717
 10
2.605006010729338
 20
6.601212492769718
 10
2.605006010729338
 20
6.716904839656292
 10
2.605006010729338
 20
6.774751013099578
 10
2.605006010729338
 20
6.871161302171723
 10
2.605006010729338
 20
6.986853649058296
 10
2.605006010729338
 20
7.160392169388156
 10
2.489313663842766
 20
7.160392169388156
 10
0.0
 20
7.160392169388156
  0
LWPOLYLINE
  5
35
100
AcDbEntity
  8
USP-GEO
100
AcDbPolyline
 90
       31
 70
   128
 43
0.0
 10
0.0
 20
7.160392169388156
 10
2.489313663842766
 20
7.160392169388156
 10
2.489313663842766
 20
6.986853649058296
 10
2.489313663842766
 20
6.871161302171723
 10
2.489313663842766
 20
6.774751013099578
 10
2.489313663842766
 20
6.716904839656292
 10
2.489313663842766
 20
6.601212492769718
 10
2.489313663842766
 20
6.466238088068717
 10
2.489313663842766
 20
6.291735464848136
 10
2.489313663842766
 20
6.098914886703846
 10
2.489313663842766
 20
5.944658424188416
 10
2.489313663842766
 20
5.790401961672985
 10
2.489313663842766
 20
5.674709614786412
 10
2.489313663842766
 20
5.616863441343125
 10
2.489313663842766
 20
5.520453152270981
 10
2.489313663842766
 20
5.423078760308115
 10
2.489313663842766
 20
5.095283777462825
 10
2.489313663842766
 20
4.99887348839068
 10
2.489313663842766
 20
4.902463199318537
 10
2.489313663842766
 20
4.844617025875249
 10
2.489313663842766
 20
4.728924678988677
 10
2.489313663842766
 20
4.574668216473245
 10
2.489313663842766
 20
4.420411753957814
 10
2.489313663842766
 20
3.628883280675511
 10
2.489313663842766
 20
3.145867732424067
 10
2.489313663842766
 20
2.683098344877775
 10
2.489313663842766
 20
2.277211027884048
 10
2.489313663842766
 20
0.6179899529524456
 10
2.489313663842766
 20
0.463733490437015
 10
2.489313663842766
 20
0.2892308672164319
 10
2.489313663842766
 20
0.0964102890721428
  0
LWPOLYLINE
  5
36
100
AcDbEntity
  8
USP-GEO
100
AcDbPolyline
 90
       15
 70
   128
 43
0.0
 10
0.1349744047010013
 20
5.674709614786412
 10
0.057846173443286
 20
5.616863441343125
 10
0.0192820578144293
 20
5.520453152270981
 10
0.0
 20
5.423078760308115
 10
0.0
 20
5.095283777462825
 10
0.0192820578144293
 20
4.99887348839068
 10
0.057846173443286
 20
4.902463199318537
 10
0.1349744047010013
 20
4.844617025875249
 10
0.2699488094020044
 20
4.728924678988677
 10
0.3470770406597197
 20
4.574668216473245
 10
0.3663590984741489
 20
4.420411753957814
 10
0.3663590984741489
 20
3.628883280675511
 10
0.424205271917435
 20
3.145867732424067
 10
0.6170258500617241
 20
2.683098344877775
 10
0.8879387623544481
 20
2.277211027884048
  0
LWPOLYLINE
  5
37
100
AcDbEntity
  8
USP-GEO
100
AcDbPolyline
 90
        2
 70
   128
 43
0.0
 10
0.3663590984741489
 20
4.420411753957814
 10
0.3663590984741489
 20
3.628883280675511
  0
LWPOLYLINE
  5
38
100
AcDbEntity
  8
USP-GEO
100
AcDbPolyline
 90
       10
 70
   128
 43
0.0
 10
0.0
 20
6.986853649058296
 10
0.0192820578144293
 20
6.871161302171723
 10
0.057846173443286
 20
6.774751013099578
 10
0.1349744047010013
 20
6.716904839656292
 10
0.2699488094020044
 20
6.601212492769718
 10
0.3470770406597197
 20
6.466238088068717
 10
0.3663590984741489
 20
6.291735464848136
 10
0.3663590984741489
 20
6.098914886703846
 10
0.3470770406597197
 20
5.944658424188416
 10
0.2699488094020044
 20
5.790401961672985
  0
LWPOLYLINE
  5
39
100
AcDbEntity
  8
USP-GEO
100
AcDbPolyline
 90
        2
 70
   128
 43
0.0
 10
0.0
 20
5.423078760308115
 10
0.0
 20
5.095283777462825
  0
LWPOLYLINE
  5
3A
100
AcDbEntity
  8
USP-GEO
100
AcDbPolyline
 90
       12
 70
   128
 43
0.0
 10
0.3856411562885764
 20
5.133847893091683
 10
0.4049232141030057
 20
5.095283777462825
 10
0.3856411562885764
 20
5.056719661833968
 10
0.3470770406597197
 20
5.018155546205109
 10
0.3085129250308611
 20
4.99887348839068
 10
0.2699488094020044
 20
5.018155546205109
 10
0.2313846937731458
 20
5.056719661833968
 10
0.2121026359587166
 20
5.095283777462825
 10
0.2313846937731458
 20
5.133847893091683
 10
0.2699488094020044
 20
5.17241200872054
 10
0.3085129250308611
 20
5.191694066534969
 10
0.3470770406597197
 20
5.17241200872054
  0
LWPOLYLINE
  5
3B
100
AcDbEntity
  8
USP-GEO
100
AcDbPolyline
 90
        2
 70
   129
 43
0.0
 10
0.3856411562885764
 20
5.133847893091683
 10
0.3470770406597197
 20
5.17241200872054
  0
LWPOLYLINE
  5
3C
100
AcDbEntity
  8
USP-GEO
100
AcDbPolyline
 90
        2
 70
   129
 43
0.0
 10
0.1349744047010013
 20
5.674709614786412
 10
0.2699488094020044
 20
5.790401961672985
  0
LWPOLYLINE
  5
3D
100
AcDbEntity
  8
USP-GEO
100
AcDbPolyline
 90
        2
 70
   128
 43
0.0
 10
0.3663590984741489
 20
6.291735464848136
 10
0.3663590984741489
 20
6.098914886703846
  0
LWPOLYLINE
  5
3E
100
AcDbEntity
  8
USP-GEO
100
AcDbPolyline
 90
        2
 70
   128
 43
0.0
 10
0.2699488094020044
 20
6.929007475615009
 10
0.3085129250308611
 20
6.948289533429438
  0
LWPOLYLINE
  5
3F
100
AcDbEntity
  8
USP-GEO
100
AcDbPolyline
 90
       12
 70
   129
 43
0.0
 10
0.2313846937731458
 20
6.890443359986152
 10
0.2699488094020044
 20
6.929007475615009
 10
0.3085129250308611
 20
6.948289533429438
 10
0.3470770406597197
 20
6.929007475615009
 10
0.3856411562885764
 20
6.890443359986152
 10
0.4049232141030057
 20
6.851879244357293
 10
0.3856411562885764
 20
6.813315128728437
 10
0.3470770406597197
 20
6.774751013099578
 10
0.3085129250308611
 20
6.755468955285149
 10
0.2699488094020044
 20
6.774751013099578
 10
0.2313846937731458
 20
6.813315128728437
 10
0.2121026359587166
 20
6.851879244357293
  0
LWPOLYLINE
  5
40
100
AcDbEntity
  8
USP-GEO
100
AcDbPolyline
 90
        2
 70
   129
 43
0.0
 10
0.0
 20
6.986853649058296
 10
0.0
 20
7.160392169388156
  0
TEXT
  5
41
100
AcDbEntity
  8
USP-TXT
100
AcDbText
 10
1.598171048176374
 20
-2.181790068179871
 30
0.0
 40
0.296875
  1
THDH48 - FRONT VIEW
 72
     1
 11
4.418483548176373
 21
-2.181790068179871
 31
0.0
100
AcDbText
  0
LWPOLYLINE
  5
42
100
AcDbEntity
  8
USP-GEO
100
AcDbPolyline
 90
        7
 70
   128
 43
0.0
 10
6.212679027808976
 20
0.0964102890721428
 10
5.286176149825669
 20
0.0964102890721428
 10
5.266894092011243
 20
0.0964102890721428
 10
5.228329976382385
 20
0.0964102890721428
 10
4.977663224794808
 20
0.0964102890721428
 10
4.939099109165953
 20
0.0964102890721428
 10
4.919817051351524
 20
0.0964102890721428
  0
LWPOLYLINE
  5
43
100
AcDbEntity
  8
USP-GEO
100
AcDbPolyline
 90
       12
 70
   128
 43
0.0
 10
4.919817051351524
 20
0.0
 10
4.939099109165953
 20
0.0
 10
4.977663224794808
 20
0.0
 10
5.228329976382385
 20
0.0
 10
5.266894092011243
 20
0.0
 10
5.286176149825669
 20
0.0
 10
6.212679027808976
 20
0.0
 10
6.212679027808976
 20
0.0964102890721428
 10
5.286176149825669
 20
0.0964102890721428
 10
5.266894092011243
 20
0.0964102890721428
 10
5.228329976382385
 20
0.0964102890721428
 10
5.228329976382385
 20
0.0
  0
LWPOLYLINE
  5
44
100
AcDbEntity
  8
USP-GEO
100
AcDbPolyline
 90
       19
 70
   128
 43
0.0
 10
6.328371374695551
 20
0.0964102890721428
 10
6.328371374695551
 20
0.0
 10
6.231961085623405
 20
0.0
 10
6.212679027808976
 20
0.0
 10
5.286176149825669
 20
0.0
 10
5.266894092011243
 20
0.0
 10
5.228329976382385
 20
0.0
 10
4.977663224794808
 20
0.0
 10
4.939099109165953
 20
0.0
 10
4.919817051351524
 20
0.0
 10
3.917150045001223
 20
0.0
 10
3.897867987186794
 20
0.0
 10
3.878585929372365
 20
0.0
 10
3.859303871557935
 20
0.0
 10
3.607673017079639
 20
0.0
 10
3.56910890145078
 20
0.0
 10
3.549826843636351
 20
0.0
 10
3.530544785821922
 20
0.0
 10
2.605006010729338
 20
0.0
  0
LWPOLYLINE
  5
45
100
AcDbEntity
  8
USP-GEO
100
AcDbPolyline
 90
        2
 70
   129
 43
0.0
 10
2.412185432585049
 20
0.6179899529524456
 10
0.8879387623544481
 20
2.277211027884048
  0
LWPOLYLINE
  5
46
100
AcDbEntity
  8
USP-GEO
100
AcDbPolyline
 90
        6
 70
   128
 43
0.0
 10
2.412185432585049
 20
1.505928715306893
 10
2.373621316956191
 20
1.486646657492464
 10
2.335057201327336
 20
1.448082541863607
 10
2.315775143512906
 20
1.409518426234749
 10
2.335057201327336
 20
1.370954310605892
 10
2.354339259141761
 20
1.331426092086312
  0
LWPOLYLINE
  5
47
100
AcDbEntity
  8
USP-GEO
100
AcDbPolyline
 90
       10
 70
   129
 43
0.0
 10
2.489313663842766
 20
3.145867732424067
 10
2.489313663842766
 20
2.683098344877775
 10
2.489313663842766
 20
2.277211027884048
 10
2.489313663842766
 20
0.6179899529524456
 10
2.605006010729338
 20
0.6179899529524456
 10
2.605006010729338
 20
2.277211027884048
 10
2.605006010729338
 20
2.683098344877775
 10
2.605006010729338
 20
3.145867732424067
 10
2.605006010729338
 20
3.628883280675511
 10
2.489313663842766
 20
3.628883280675511
  0
LWPOLYLINE
  5
48
100
AcDbEntity
  8
USP-GEO
100
AcDbPolyline
 90
       11
 70
   128
 43
0.0
 10
4.919817051351524
 20
0.0964102890721428
 10
3.917150045001223
 20
0.0964102890721428
 10
3.897867987186794
 20
0.0964102890721428
 10
3.878585929372365
 20
0.0964102890721428
 10
3.859303871557935
 20
0.0964102890721428
 10
3.607673017079639
 20
0.0964102890721428
 10
3.56910890145078
 20
0.0964102890721428
 10
3.549826843636351
 20
0.0964102890721428
 10
3.530544785821922
 20
0.0964102890721428
 10
2.605006010729338
 20
0.0964102890721428
 10
3.530544785821922
 20
0.0964102890721428
  0
LWPOLYLINE
  5
49
100
AcDbEntity
  8
USP-GEO
100
AcDbPolyline
 90
       11
 70
   128
 43
0.0
 10
2.605006010729338
 20
0.0
 10
3.530544785821922
 20
0.0
 10
3.549826843636351
 20
0.0
 10
3.56910890145078
 20
0.0
 10
3.607673017079639
 20
0.0
 10
3.859303871557935
 20
0.0
 10
3.878585929372365
 20
0.0
 10
3.897867987186794
 20
0.0
 10
3.917150045001223
 20
0.0
 10
4.919817051351524
 20
0.0
 10
4.919817051351524
 20
0.0964102890721428
  0
LWPOLYLINE
  5
4A
100
AcDbEntity
  8
USP-GEO
100
AcDbPolyline
 90
        2
 70
   128
 43
0.0
 10
2.489313663842766
 20
0.0
 10
2.605006010729338
 20
0.0
  0
LWPOLYLINE
  5
4B
100
AcDbEntity
  8
USP-GEO
100
AcDbPolyline
 90
        8
 70
   128
 43
0.0
 10
2.489313663842766
 20
0.6179899529524456
 10
2.489313663842766
 20
0.463733490437015
 10
2.489313663842766
 20
0.2892308672164319
 10
2.489313663842766
 20
0.0964102890721428
 10
2.605006010729338
 20
0.0964102890721428
 10
2.605006010729338
 20
0.2892308672164319
 10
2.605006010729338
 20
0.463733490437015
 10
2.605006010729338
 20
0.6179899529524456
  0
LWPOLYLINE
  5
4C
100
AcDbEntity
  8
USP-GEO
100
AcDbPolyline
 90
        2
 70
   128
 43
0.0
 10
2.489313663842766
 20
0.0
 10
2.605006010729338
 20
0.0
  0
LWPOLYLINE
  5
4D
100
AcDbEntity
  8
USP-GEO
100
AcDbPolyline
 90
        2
 70
   129
 43
0.0
 10
2.489313663842766
 20
0.0
 10
2.489313663842766
 20
0.0964102890721428
  0
LWPOLYLINE
  5
4E
100
AcDbEntity
  8
USP-GEO
100
AcDbPolyline
 90
        2
 70
   128
 43
0.0
 10
2.450749548213908
 20
0.579425837323587
 10
2.470031606028337
 20
0.5408617216947285
  0
LWPOLYLINE
  5
4F
100
AcDbEntity
  8
USP-GEO
100
AcDbPolyline
 90
        4
 70
   128
 43
0.0
 10
2.489313663842766
 20
0.50229760606587
 10
2.470031606028337
 20
0.5408617216947285
 10
2.450749548213908
 20
0.579425837323587
 10
2.412185432585049
 20
0.6179899529524456
  0
LWPOLYLINE
  5
50
100
AcDbEntity
  8
USP-GEO
100
AcDbPolyline
 90
        5
 70
   128
 43
0.0
 10
2.39290337477062
 20
1.042195224869878
 10
2.39290337477062
 20
1.061477282684307
 10
2.373621316956191
 20
1.100041398313166
 10
2.39290337477062
 20
1.138605513942025
 10
2.393867477661343
 20
1.138605513942025
  0
LWPOLYLINE
  5
51
100
AcDbEntity
  8
USP-GEO
100
AcDbPolyline
 90
       12
 70
   129
 43
0.0
 10
2.296493085698477
 20
1.100041398313166
 10
2.315775143512906
 20
1.061477282684307
 10
2.335057201327336
 20
1.022913167055449
 10
2.354339259141761
 20
1.022913167055449
 10
2.39290337477062
 20
1.022913167055449
 10
2.412185432585049
 20
1.061477282684307
 10
2.412185432585049
 20
1.100041398313166
 10
2.412185432585049
 20
1.138605513942025
 10
2.39290337477062
 20
1.157887571756454
 10
2.354339259141761
 20
1.17716962957088
 10
2.335057201327336
 20
1.157887571756454
 10
2.315775143512906
 20
1.138605513942025
  0
LWPOLYLINE
  5
52
100
AcDbEntity
  8
USP-GEO
100
AcDbPolyline
 90
        7
 70
   128
 43
0.0
 10
2.489313663842766
 20
1.428800484049178
 10
2.431467490399478
 20
1.409518426234749
 10
2.296493085698477
 20
1.273579918643026
 10
2.238646912255189
 20
1.100041398313166
 10
2.296493085698477
 20
0.9265028779833066
 10
2.431467490399478
 20
0.7915284732823054
 10
2.489313663842766
 20
0.7529643576534469
  0
LWPOLYLINE
  5
53
100
AcDbEntity
  8
USP-GEO
100
AcDbPolyline
 90
        2
 70
   129
 43
0.0
 10
2.605970113620058
 20
0.0964102890721428
 10
2.605006010729338
 20
0.0964102890721428
  0
LWPOLYLINE
  5
54
100
AcDbEntity
  8
USP-GEO
100
AcDbPolyline
 90
        2
 70
   129
 43
0.0
 10
2.605970113620058
 20
0.0
 10
2.605006010729338
 20
0.0
  0
LWPOLYLINE
  5
55
100
AcDbEntity
  8
USP-GEO
100
AcDbPolyline
 90
        2
 70
   128
 43
0.0
 10
2.605006010729338
 20
0.0
 10
2.605006010729338
 20
0.0964102890721428
  0
LWPOLYLINE
  5
56
100
AcDbEntity
  8
USP-GEO
100
AcDbPolyline
 90
        2
 70
   128
 43
0.0
 10
2.605006010729338
 20
0.0964102890721428
 10
2.605970113620058
 20
0.0964102890721428
  0
LWPOLYLINE
  5
57
100
AcDbEntity
  8
USP-GEO
100
AcDbPolyline
 90
        2
 70
   129
 43
0.0
 10
2.605970113620058
 20
0.0
 10
2.605006010729338
 20
0.0
  0
LWPOLYLINE
  5
58
100
AcDbEntity
  8
USP-GEO
100
AcDbPolyline
 90
        2
 70
   128
 43
0.0
 10
4.919817051351524
 20
0.0964102890721428
 10
3.917150045001223
 20
0.0964102890721428
  0
LWPOLYLINE
  5
59
100
AcDbEntity
  8
USP-GEO
100
AcDbPolyline
 90
        3
 70
   128
 43
0.0
 10
3.607673017079639
 20
0.0
 10
3.607673017079639
 20
0.0964102890721428
 10
3.859303871557935
 20
0.0964102890721428
  0
LWPOLYLINE
  5
5A
100
AcDbEntity
  8
USP-GEO
100
AcDbPolyline
 90
        5
 70
   128
 43
0.0
 10
3.607673017079639
 20
0.0964102890721428
 10
3.56910890145078
 20
0.0964102890721428
 10
3.549826843636351
 20
0.0964102890721428
 10
3.530544785821922
 20
0.0964102890721428
 10
3.530544785821922
 20
0.0
  0
LWPOLYLINE
  5
5B
100
AcDbEntity
  8
USP-GEO
100
AcDbPolyline
 90
        6
 70
   128
 43
0.0
 10
3.917150045001223
 20
0.0
 10
3.917150045001223
 20
0.0964102890721428
 10
3.897867987186794
 20
0.0964102890721428
 10
3.878585929372365
 20
0.0964102890721428
 10
3.859303871557935
 20
0.0964102890721428
 10
3.859303871557935
 20
0.0
  0
LWPOLYLINE
  5
5C
100
AcDbEntity
  8
USP-GEO
100
AcDbPolyline
 90
        3
 70
   128
 43
0.0
 10
4.977663224794808
 20
0.0
 10
4.977663224794808
 20
0.0964102890721428
 10
5.228329976382385
 20
0.0964102890721428
  0
LWPOLYLINE
  5
5D
100
AcDbEntity
  8
USP-GEO
100
AcDbPolyline
 90
        3
 70
   128
 43
0.0
 10
4.977663224794808
 20
0.0964102890721428
 10
4.939099109165953
 20
0.0964102890721428
 10
4.919817051351524
 20
0.0964102890721428
  0
LWPOLYLINE
  5
5E
100
AcDbEntity
  8
USP-GEO
100
AcDbPolyline
 90
        2
 70
   129
 43
0.0
 10
4.920781154242243
 20
0.0964102890721428
 10
4.919817051351524
 20
0.0964102890721428
  0
LWPOLYLINE
  5
5F
100
AcDbEntity
  8
USP-GEO
100
AcDbPolyline
 90
        4
 70
   128
 43
0.0
 10
5.287140252716392
 20
0.0964102890721428
 10
5.286176149825669
 20
0.0964102890721428
 10
5.286176149825669
 20
0.0
 10
5.287140252716392
 20
0.0
  0
LWPOLYLINE
  5
60
100
AcDbEntity
  8
USP-GEO
100
AcDbPolyline
 90
        6
 70
   128
 43
0.0
 10
2.489313663842766
 20
4.844617025875249
 10
2.489313663842766
 20
4.728924678988677
 10
2.489313663842766
 20
4.574668216473245
 10
2.489313663842766
 20
4.420411753957814
 10
2.605006010729338
 20
4.420411753957814
 10
2.605006010729338
 20
3.628883280675511
  0
LWPOLYLINE
  5
61
100
AcDbEntity
  8
USP-GEO
100
AcDbPolyline
 90
       10
 70
   128
 43
0.0
 10
2.605006010729338
 20
4.420411753957814
 10
2.605006010729338
 20
4.574668216473245
 10
2.605006010729338
 20
4.728924678988677
 10
2.605006010729338
 20
4.844617025875249
 10
2.489313663842766
 20
4.844617025875249
 10
2.489313663842766
 20
4.902463199318537
 10
2.489313663842766
 20
4.99887348839068
 10
2.489313663842766
 20
5.095283777462825
 10
2.605006010729338
 20
5.095283777462825
 10
2.605006010729338
 20
5.423078760308115
  0
LWPOLYLINE
  5
62
100
AcDbEntity
  8
USP-GEO
100
AcDbPolyline
 90
       17
 70
   128
 43
0.0
 10
2.39290337477062
 20
4.420411753957814
 10
2.39290337477062
 20
4.439693811772244
 10
2.373621316956191
 20
4.478257927401102
 10
2.39290337477062
 20
4.516822043029959
 10
2.39290337477062
 20
4.536104100844388
 10
2.354339259141761
 20
4.555386158658818
 10
2.335057201327336
 20
4.536104100844388
 10
2.315775143512906
 20
4.516822043029959
 10
2.296493085698477
 20
4.478257927401102
 10
2.315775143512906
 20
4.439693811772244
 10
2.335057201327336
 20
4.400165593252665
 10
2.354339259141761
 20
4.400165593252665
 10
2.39290337477062
 20
4.400165593252665
 10
2.412185432585049
 20
4.439693811772244
 10
2.412185432585049
 20
4.478257927401102
 10
2.412185432585049
 20
4.516822043029959
 10
2.39290337477062
 20
4.536104100844388
  0
LWPOLYLINE
  5
63
100
AcDbEntity
  8
USP-GEO
100
AcDbPolyline
 90
        7
 70
   128
 43
0.0
 10
2.489313663842766
 20
4.806052910246393
 10
2.431467490399478
 20
4.786770852431963
 10
2.296493085698477
 20
4.651796447730962
 10
2.238646912255189
 20
4.478257927401102
 10
2.296493085698477
 20
4.303755304180521
 10
2.431467490399478
 20
4.168780899479518
 10
2.489313663842766
 20
4.130216783850661
  0
LWPOLYLINE
  5
64
100
AcDbEntity
  8
USP-GEO
100
AcDbPolyline
 90
        2
 70
   129
 43
0.0
 10
1.909887826519179
 20
4.380883535438236
 10
1.89060576870475
 20
4.342319419809378
  0
LWPOLYLINE
  5
65
100
AcDbEntity
  8
USP-GEO
100
AcDbPolyline
 90
        7
 70
   128
 43
0.0
 10
1.967733999962463
 20
2.644534229248916
 10
1.909887826519179
 20
2.625252171434489
 10
1.89060576870475
 20
2.58668805580563
 10
1.871323710890321
 20
2.548123940176774
 10
1.89060576870475
 20
2.509559824547915
 10
1.909887826519179
 20
2.470995708919058
 10
1.967733999962463
 20
2.470995708919058
  0
LWPOLYLINE
  5
66
100
AcDbEntity
  8
USP-GEO
100
AcDbPolyline
 90
        5
 70
   128
 43
0.0
 10
1.967733999962463
 20
4.207345015108376
 10
1.909887826519179
 20
4.226627072922806
 10
1.89060576870475
 20
4.265191188551662
 10
1.871323710890321
 20
4.303755304180521
 10
1.89060576870475
 20
4.342319419809378
  0
LWPOLYLINE
  5
67
100
AcDbEntity
  8
USP-GEO
100
AcDbPolyline
 90
       12
 70
   129
 43
0.0
 10
0.8108105310967328
 20
3.030175385537495
 10
0.8493746467255913
 20
3.068739501166351
 10
0.8879387623544481
 20
3.068739501166351
 10
0.9265028779833066
 20
3.068739501166351
 10
0.9650669936121634
 20
3.030175385537495
 10
0.9843490514265926
 20
2.991611269908636
 10
0.9650669936121634
 20
2.93376509646535
 10
0.9265028779833066
 20
2.895200980836492
 10
0.8879387623544481
 20
2.895200980836492
 10
0.8493746467255913
 20
2.895200980836492
 10
0.8108105310967328
 20
2.93376509646535
 10
0.7915284732823036
 20
2.991611269908636
  0
LWPOLYLINE
  5
68
100
AcDbEntity
  8
USP-GEO
100
AcDbPolyline
 90
       12
 70
   128
 43
0.0
 10
1.466400496787313
 20
2.180800738811903
 10
1.504964612416172
 20
2.161518680997474
 10
1.54352872804503
 20
2.142236623183045
 10
1.54352872804503
 20
2.084390449739759
 10
1.54352872804503
 20
2.045826334110902
 10
1.504964612416172
 20
2.007262218482043
 10
1.466400496787313
 20
2.007262218482043
 10
1.408554323344029
 20
2.007262218482043
 10
1.389272265529598
 20
2.045826334110902
 10
1.36999020771517
 20
2.084390449739759
 10
1.389272265529598
 20
2.142236623183045
 10
1.408554323344029
 20
2.161518680997474
  0
LWPOLYLINE
  5
69
100
AcDbEntity
  8
USP-GEO
100
AcDbPolyline
 90
        2
 70
   129
 43
0.0
 10
1.466400496787313
 20
2.180800738811903
 10
1.408554323344029
 20
2.161518680997474
  0
LWPOLYLINE
  5
6A
100
AcDbEntity
  8
USP-GEO
100
AcDbPolyline
 90
       12
 70
   129
 43
0.0
 10
0.7915284732823036
 20
4.226627072922806
 10
0.8108105310967328
 20
4.284473246366092
 10
0.8493746467255913
 20
4.303755304180521
 10
0.8879387623544481
 20
4.323037361994948
 10
0.9265028779833066
 20
4.303755304180521
 10
0.9650669936121634
 20
4.284473246366092
 10
0.9843490514265926
 20
4.226627072922806
 10
0.9650669936121634
 20
4.188062957293947
 10
0.9265028779833066
 20
4.14949884166509
 10
0.8879387623544481
 20
4.14949884166509
 10
0.8493746467255913
 20
4.14949884166509
 10
0.8108105310967328
 20
4.188062957293947
  0
LWPOLYLINE
  5
6B
100
AcDbEntity
  8
USP-GEO
100
AcDbPolyline
 90
       12
 70
   129
 43
0.0
 10
1.36999020771517
 20
3.338688310568356
 10
1.389272265529598
 20
3.377252426197214
 10
1.408554323344029
 20
3.416780644716792
 10
1.466400496787313
 20
3.436062702531222
 10
1.504964612416172
 20
3.416780644716792
 10
1.54352872804503
 20
3.377252426197214
 10
1.54352872804503
 20
3.338688310568356
 10
1.54352872804503
 20
3.300124194939499
 10
1.504964612416172
 20
3.26156007931064
 10
1.466400496787313
 20
3.242278021496211
 10
1.408554323344029
 20
3.26156007931064
 10
1.389272265529598
 20
3.300124194939499
  0
LWPOLYLINE
  5
6C
100
AcDbEntity
  8
USP-GEO
100
AcDbPolyline
 90
        2
 70
   128
 43
0.0
 10
2.605006010729338
 20
2.277211027884048
 10
2.489313663842766
 20
2.277211027884048
  0
LWPOLYLINE
  5
6D
100
AcDbEntity
  8
USP-GEO
100
AcDbPolyline
 90
        5
 70
   128
 43
0.0
 10
2.39290337477062
 20
2.161518680997474
 10
2.39290337477062
 20
2.180800738811903
 10
2.373621316956191
 20
2.219364854440762
 10
2.39290337477062
 20
2.257928970069619
 10
2.39290337477062
 20
2.277211027884048
  0
LWPOLYLINE
  5
6E
100
AcDbEntity
  8
USP-GEO
100
AcDbPolyline
 90
       12
 70
   129
 43
0.0
 10
2.296493085698477
 20
2.219364854440762
 10
2.315775143512906
 20
2.180800738811903
 10
2.335057201327336
 20
2.161518680997474
 10
2.354339259141761
 20
2.142236623183045
 10
2.39290337477062
 20
2.161518680997474
 10
2.412185432585049
 20
2.180800738811903
 10
2.412185432585049
 20
2.219364854440762
 10
2.412185432585049
 20
2.257928970069619
 10
2.39290337477062
 20
2.296493085698477
 10
2.354339259141761
 20
2.296493085698477
 10
2.335057201327336
 20
2.296493085698477
 10
2.315775143512906
 20
2.257928970069619
  0
LWPOLYLINE
  5
6F
100
AcDbEntity
  8
USP-GEO
100
AcDbPolyline
 90
        7
 70
   128
 43
0.0
 10
2.489313663842766
 20
2.567405997991201
 10
2.431467490399478
 20
2.528841882362344
 10
2.296493085698477
 20
2.393867477661341
 10
2.238646912255189
 20
2.219364854440762
 10
2.296493085698477
 20
2.045826334110902
 10
2.431467490399478
 20
1.910851929409899
 10
2.489313663842766
 20
1.89156987159547
  0
LWPOLYLINE
  5
70
100
AcDbEntity
  8
USP-GEO
100
AcDbPolyline
 90
        2
 70
   129
 43
0.0
 10
2.489313663842766
 20
1.505928715306893
 10
2.412185432585049
 20
1.505928715306893
  0
LWPOLYLINE
  5
71
100
AcDbEntity
  8
USP-GEO
100
AcDbPolyline
 90
        7
 70
   128
 43
0.0
 10
2.141272520292323
 20
2.644534229248916
 10
2.179836635921182
 20
2.625252171434489
 10
2.199118693735611
 20
2.58668805580563
 10
2.21840075155004
 20
2.548123940176774
 10
2.199118693735611
 20
2.509559824547915
 10
2.179836635921182
 20
2.470995708919058
 10
2.141272520292323
 20
2.470995708919058
  0
LWPOLYLINE
  5
72
100
AcDbEntity
  8
USP-GEO
100
AcDbPolyline
 90
        2
 70
   129
 43
0.0
 10
1.967733999962463
 20
2.470995708919058
 10
2.141272520292323
 20
2.470995708919058
  0
LWPOLYLINE
  5
73
100
AcDbEntity
  8
USP-GEO
100
AcDbPolyline
 90
        2
 70
   128
 43
0.0
 10
1.967733999962463
 20
2.470995708919058
 10
1.909887826519179
 20
2.470995708919058
  0
LWPOLYLINE
  5
74
100
AcDbEntity
  8
USP-GEO
100
AcDbPolyline
 90
        2
 70
   129
 43
0.0
 10
2.141272520292323
 20
2.644534229248916
 10
1.967733999962463
 20
2.644534229248916
  0
LWPOLYLINE
  5
75
100
AcDbEntity
  8
USP-GEO
100
AcDbPolyline
 90
        2
 70
   128
 43
0.0
 10
2.489313663842766
 20
4.420411753957814
 10
2.489313663842766
 20
3.628883280675511
  0
LWPOLYLINE
  5
76
100
AcDbEntity
  8
USP-GEO
100
AcDbPolyline
 90
        5
 70
   128
 43
0.0
 10
2.39290337477062
 20
3.300124194939499
 10
2.39290337477062
 20
3.319406252753926
 10
2.373621316956191
 20
3.357970368382785
 10
2.39290337477062
 20
3.397498586902363
 10
2.393867477661343
 20
3.397498586902363
  0
LWPOLYLINE
  5
77
100
AcDbEntity
  8
USP-GEO
100
AcDbPolyline
 90
       12
 70
   129
 43
0.0
 10
2.296493085698477
 20
3.357970368382785
 10
2.315775143512906
 20
3.319406252753926
 10
2.335057201327336
 20
3.28084213712507
 10
2.354339259141761
 20
3.26156007931064
 10
2.39290337477062
 20
3.28084213712507
 10
2.412185432585049
 20
3.319406252753926
 10
2.412185432585049
 20
3.357970368382785
 10
2.412185432585049
 20
3.397498586902363
 10
2.39290337477062
 20
3.416780644716792
 10
2.354339259141761
 20
3.436062702531222
 10
2.335057201327336
 20
3.416780644716792
 10
2.315775143512906
 20
3.397498586902363
  0
LWPOLYLINE
  5
78
100
AcDbEntity
  8
USP-GEO
100
AcDbPolyline
 90
        7
 70
   128
 43
0.0
 10
2.489313663842766
 20
3.686729454118797
 10
2.431467490399478
 20
3.648165338489938
 10
2.296493085698477
 20
3.532472991603366
 10
2.238646912255189
 20
3.357970368382785
 10
2.296493085698477
 20
3.165149790238496
 10
2.431467490399478
 20
3.049457443351924
 10
2.489313663842766
 20
3.010893327723065
  0
LWPOLYLINE
  5
79
100
AcDbEntity
  8
USP-GEO
100
AcDbPolyline
 90
        2
 70
   129
 43
0.0
 10
1.967733999962463
 20
4.207345015108376
 10
2.141272520292323
 20
4.207345015108376
  0
LWPOLYLINE
  5
7A
100
AcDbEntity
  8
USP-GEO
100
AcDbPolyline
 90
        2
 70
   129
 43
0.0
 10
2.141272520292323
 20
4.380883535438236
 10
1.967733999962463
 20
4.380883535438236
  0
LWPOLYLINE
  5
7B
100
AcDbEntity
  8
USP-GEO
100
AcDbPolyline
 90
        2
 70
   128
 43
0.0
 10
1.909887826519179
 20
4.380883535438236
 10
1.967733999962463
 20
4.380883535438236
  0
LWPOLYLINE
  5
7C
100
AcDbEntity
  8
USP-GEO
100
AcDbPolyline
 90
        7
 70
   128
 43
0.0
 10
2.141272520292323
 20
4.380883535438236
 10
2.179836635921182
 20
4.380883535438236
 10
2.199118693735611
 20
4.342319419809378
 10
2.21840075155004
 20
4.303755304180521
 10
2.199118693735611
 20
4.265191188551662
 10
2.179836635921182
 20
4.226627072922806
 10
2.141272520292323
 20
4.207345015108376
  0
LWPOLYLINE
  5
7D
100
AcDbEntity
  8
USP-GEO
100
AcDbPolyline
 90
        7
 70
   128
 43
0.0
 10
1.967733999962463
 20
5.963940482002845
 10
1.909887826519179
 20
5.983222539817274
 10
1.89060576870475
 20
6.002504597631702
 10
1.871323710890321
 20
6.06035077107499
 10
1.89060576870475
 20
6.098914886703846
 10
1.909887826519179
 20
6.118196944518276
 10
1.967733999962463
 20
6.137479002332705
  0
LWPOLYLINE
  5
7E
100
AcDbEntity
  8
USP-GEO
100
AcDbPolyline
 90
       12
 70
   128
 43
0.0
 10
0.9650669936121634
 20
5.520453152270981
 10
0.9265028779833066
 20
5.481889036642124
 10
0.8879387623544481
 20
5.481889036642124
 10
0.8493746467255913
 20
5.481889036642124
 10
0.8108105310967328
 20
5.520453152270981
 10
0.7915284732823036
 20
5.559017267899839
 10
0.8108105310967328
 20
5.616863441343125
 10
0.8493746467255913
 20
5.636145499157555
 10
0.8879387623544481
 20
5.655427556971984
 10
0.9265028779833066
 20
5.636145499157555
 10
0.9650669936121634
 20
5.616863441343125
 10
0.9843490514265926
 20
5.559017267899839
  0
LWPOLYLINE
  5
7F
100
AcDbEntity
  8
USP-GEO
100
AcDbPolyline
 90
        2
 70
   129
 43
0.0
 10
0.9650669936121634
 20
5.520453152270981
 10
0.9843490514265926
 20
5.559017267899839
  0
LWPOLYLINE
  5
80
100
AcDbEntity
  8
USP-GEO
100
AcDbPolyline
 90
       12
 70
   128
 43
0.0
 10
1.389272265529598
 20
4.555386158658818
 10
1.36999020771517
 20
4.593950274287674
 10
1.389272265529598
 20
4.632514389916533
 10
1.408554323344029
 20
4.67107850554539
 10
1.466400496787313
 20
4.690360563359819
 10
1.504964612416172
 20
4.67107850554539
 10
1.54352872804503
 20
4.632514389916533
 10
1.54352872804503
 20
4.593950274287674
 10
1.54352872804503
 20
4.555386158658818
 10
1.504964612416172
 20
4.516822043029959
 10
1.466400496787313
 20
4.49753998521553
 10
1.408554323344029
 20
4.516822043029959
  0
LWPOLYLINE
  5
81
100
AcDbEntity
  8
USP-GEO
100
AcDbPolyline
 90
        2
 70
   129
 43
0.0
 10
1.389272265529598
 20
4.555386158658818
 10
1.408554323344029
 20
4.516822043029959
  0
LWPOLYLINE
  5
82
100
AcDbEntity
  8
USP-GEO
100
AcDbPolyline
 90
       12
 70
   128
 43
0.0
 10
1.466400496787313
 20
5.751837846044127
 10
1.408554323344029
 20
5.771119903858556
 10
1.389272265529598
 20
5.790401961672985
 10
1.36999020771517
 20
5.848248135116271
 10
1.389272265529598
 20
5.88681225074513
 10
1.408554323344029
 20
5.925376366373987
 10
1.466400496787313
 20
5.925376366373987
 10
1.504964612416172
 20
5.925376366373987
 10
1.54352872804503
 20
5.88681225074513
 10
1.54352872804503
 20
5.848248135116271
 10
1.54352872804503
 20
5.790401961672985
 10
1.504964612416172
 20
5.771119903858556
  0
LWPOLYLINE
  5
83
100
AcDbEntity
  8
USP-GEO
100
AcDbPolyline
 90
        2
 70
   129
 43
0.0
 10
1.466400496787313
 20
5.751837846044127
 10
1.504964612416172
 20
5.771119903858556
  0
LWPOLYLINE
  5
84
100
AcDbEntity
  8
USP-GEO
100
AcDbPolyline
 90
       12
 70
   129
 43
0.0
 10
0.7915284732823036
 20
6.620494550584147
 10
0.8108105310967328
 20
6.659058666213006
 10
0.8493746467255913
 20
6.697622781841863
 10
0.8879387623544481
 20
6.697622781841863
 10
0.9265028779833066
 20
6.697622781841863
 10
0.9650669936121634
 20
6.659058666213006
 10
0.9843490514265926
 20
6.620494550584147
 10
0.9650669936121634
 20
6.562648377140861
 10
0.9265028779833066
 20
6.524084261512003
 10
0.8879387623544481
 20
6.524084261512003
 10
0.8493746467255913
 20
6.524084261512003
 10
0.8108105310967328
 20
6.562648377140861
  0
LWPOLYLINE
  5
85
100
AcDbEntity
  8
USP-GEO
100
AcDbPolyline
 90
        2
 70
   129
 43
0.0
 10
1.466400496787313
 20
6.948289533429438
 10
1.408554323344029
 20
6.929007475615009
  0
LWPOLYLINE
  5
86
100
AcDbEntity
  8
USP-GEO
100
AcDbPolyline
 90
       12
 70
   128
 43
0.0
 10
1.466400496787313
 20
6.948289533429438
 10
1.504964612416172
 20
6.929007475615009
 10
1.54352872804503
 20
6.909725417800581
 10
1.54352872804503
 20
6.851879244357293
 10
1.54352872804503
 20
6.813315128728437
 10
1.504964612416172
 20
6.774751013099578
 10
1.466400496787313
 20
6.774751013099578
 10
1.408554323344029
 20
6.774751013099578
 10
1.389272265529598
 20
6.813315128728437
 10
1.36999020771517
 20
6.851879244357293
 10
1.389272265529598
 20
6.909725417800581
 10
1.408554323344029
 20
6.929007475615009
  0
LWPOLYLINE
  5
87
100
AcDbEntity
  8
USP-GEO
100
AcDbPolyline
 90
        7
 70
   128
 43
0.0
 10
2.141272520292323
 20
6.137479002332705
 10
2.179836635921182
 20
6.118196944518276
 10
2.199118693735611
 20
6.098914886703846
 10
2.21840075155004
 20
6.06035077107499
 10
2.199118693735611
 20
6.002504597631702
 10
2.179836635921182
 20
5.983222539817274
 10
2.141272520292323
 20
5.963940482002845
  0
LWPOLYLINE
  5
88
100
AcDbEntity
  8
USP-GEO
100
AcDbPolyline
 90
       14
 70
   129
 43
0.0
 10
2.605006010729338
 20
5.674709614786412
 10
2.605006010729338
 20
5.790401961672985
 10
2.605006010729338
 20
5.944658424188416
 10
2.605006010729338
 20
6.098914886703846
 10
2.489313663842766
 20
6.098914886703846
 10
2.489313663842766
 20
5.944658424188416
 10
2.489313663842766
 20
5.790401961672985
 10
2.489313663842766
 20
5.674709614786412
 10
2.489313663842766
 20
5.616863441343125
 10
2.489313663842766
 20
5.520453152270981
 10
2.489313663842766
 20
5.423078760308115
 10
2.605006010729338
 20
5.423078760308115
 10
2.605006010729338
 20
5.520453152270981
 10
2.605006010729338
 20
5.616863441343125
  0
LWPOLYLINE
  5
89
100
AcDbEntity
  8
USP-GEO
100
AcDbPolyline
 90
        2
 70
   128
 43
0.0
 10
2.489313663842766
 20
5.674709614786412
 10
2.605006010729338
 20
5.674709614786412
  0
LWPOLYLINE
  5
8A
100
AcDbEntity
  8
USP-GEO
100
AcDbPolyline
 90
        2
 70
   128
 43
0.0
 10
2.489313663842766
 20
5.423078760308115
 10
2.489313663842766
 20
5.095283777462825
  0
LWPOLYLINE
  5
8B
100
AcDbEntity
  8
USP-GEO
100
AcDbPolyline
 90
        5
 70
   128
 43
0.0
 10
2.335057201327336
 20
4.99887348839068
 10
2.315775143512906
 20
5.037437604019538
 10
2.335057201327336
 20
5.076001719648395
 10
2.373621316956191
 20
5.114565835277254
 10
2.412185432585049
 20
5.133847893091683
  0
LWPOLYLINE
  5
8C
100
AcDbEntity
  8
USP-GEO
100
AcDbPolyline
 90
        2
 70
   128
 43
0.0
 10
2.412185432585049
 20
4.960309372761823
 10
2.373621316956191
 20
4.960309372761823
  0
LWPOLYLINE
  5
8D
100
AcDbEntity
  8
USP-GEO
100
AcDbPolyline
 90
        2
 70
   129
 43
0.0
 10
2.335057201327336
 20
4.99887348839068
 10
2.373621316956191
 20
4.960309372761823
  0
LWPOLYLINE
  5
8E
100
AcDbEntity
  8
USP-GEO
100
AcDbPolyline
 90
        2
 70
   129
 43
0.0
 10
2.489313663842766
 20
5.133847893091683
 10
2.412185432585049
 20
5.133847893091683
  0
LWPOLYLINE
  5
8F
100
AcDbEntity
  8
USP-GEO
100
AcDbPolyline
 90
        2
 70
   129
 43
0.0
 10
2.412185432585049
 20
4.960309372761823
 10
2.489313663842766
 20
4.960309372761823
  0
LWPOLYLINE
  5
90
100
AcDbEntity
  8
USP-GEO
100
AcDbPolyline
 90
        2
 70
   129
 43
0.0
 10
1.967733999962463
 20
5.963940482002845
 10
2.141272520292323
 20
5.963940482002845
  0
LWPOLYLINE
  5
91
100
AcDbEntity
  8
USP-GEO
100
AcDbPolyline
 90
        4
 70
   128
 43
0.0
 10
2.605006010729338
 20
4.844617025875249
 10
2.605006010729338
 20
4.902463199318537
 10
2.605006010729338
 20
4.99887348839068
 10
2.605006010729338
 20
5.095283777462825
  0
LWPOLYLINE
  5
92
100
AcDbEntity
  8
USP-GEO
100
AcDbPolyline
 90
        5
 70
   128
 43
0.0
 10
2.605006010729338
 20
6.291735464848136
 10
2.605006010729338
 20
6.466238088068717
 10
2.605006010729338
 20
6.601212492769718
 10
2.605006010729338
 20
6.716904839656292
 10
2.489313663842766
 20
6.716904839656292
  0
LWPOLYLINE
  5
93
100
AcDbEntity
  8
USP-GEO
100
AcDbPolyline
 90
        3
 70
   128
 43
0.0
 10
2.489313663842766
 20
6.291735464848136
 10
2.605006010729338
 20
6.291735464848136
 10
2.605006010729338
 20
6.098914886703846
  0
LWPOLYLINE
  5
94
100
AcDbEntity
  8
USP-GEO
100
AcDbPolyline
 90
       12
 70
   128
 43
0.0
 10
2.489313663842766
 20
6.986853649058296
 10
2.605006010729338
 20
6.986853649058296
 10
2.605006010729338
 20
7.160392169388156
 10
2.489313663842766
 20
7.160392169388156
 10
2.489313663842766
 20
6.986853649058296
 10
2.489313663842766
 20
6.871161302171723
 10
2.489313663842766
 20
6.774751013099578
 10
2.489313663842766
 20
6.716904839656292
 10
2.489313663842766
 20
6.601212492769718
 10
2.489313663842766
 20
6.466238088068717
 10
2.489313663842766
 20
6.291735464848136
 10
2.489313663842766
 20
6.098914886703846
  0
LWPOLYLINE
  5
95
100
AcDbEntity
  8
USP-GEO
100
AcDbPolyline
 90
        7
 70
   128
 43
0.0
 10
2.412185432585049
 20
6.697622781841863
 10
2.373621316956191
 20
6.716904839656292
 10
2.335057201327336
 20
6.755468955285149
 10
2.315775143512906
 20
6.794033070914007
 10
2.335057201327336
 20
6.832597186542866
 10
2.373621316956191
 20
6.871161302171723
 10
2.412185432585049
 20
6.871161302171723
  0
LWPOLYLINE
  5
96
100
AcDbEntity
  8
USP-GEO
100
AcDbPolyline
 90
        2
 70
   129
 43
0.0
 10
2.141272520292323
 20
6.137479002332705
 10
1.967733999962463
 20
6.137479002332705
  0
LWPOLYLINE
  5
97
100
AcDbEntity
  8
USP-GEO
100
AcDbPolyline
 90
        5
 70
   128
 43
0.0
 10
2.39290337477062
 20
6.291735464848136
 10
2.39290337477062
 20
6.311017522662565
 10
2.373621316956191
 20
6.349581638291422
 10
2.39290337477062
 20
6.38814575392028
 10
2.39290337477062
 20
6.407427811734709
  0
LWPOLYLINE
  5
98
100
AcDbEntity
  8
USP-GEO
100
AcDbPolyline
 90
       12
 70
   129
 43
0.0
 10
2.296493085698477
 20
6.349581638291422
 10
2.315775143512906
 20
6.311017522662565
 10
2.335057201327336
 20
6.291735464848136
 10
2.354339259141761
 20
6.272453407033706
 10
2.39290337477062
 20
6.291735464848136
 10
2.412185432585049
 20
6.311017522662565
 10
2.412185432585049
 20
6.349581638291422
 10
2.412185432585049
 20
6.38814575392028
 10
2.39290337477062
 20
6.426709869549137
 10
2.354339259141761
 20
6.426709869549137
 10
2.335057201327336
 20
6.426709869549137
 10
2.315775143512906
 20
6.38814575392028
  0
LWPOLYLINE
  5
99
100
AcDbEntity
  8
USP-GEO
100
AcDbPolyline
 90
        7
 70
   128
 43
0.0
 10
2.489313663842766
 20
6.697622781841863
 10
2.431467490399478
 20
6.659058666213006
 10
2.296493085698477
 20
6.524084261512003
 10
2.238646912255189
 20
6.349581638291422
 10
2.296493085698477
 20
6.176043117961562
 10
2.431467490399478
 20
6.04106871326056
 10
2.489313663842766
 20
6.021786655446131
  0
LWPOLYLINE
  5
9A
100
AcDbEntity
  8
USP-GEO
100
AcDbPolyline
 90
        2
 70
   129
 43
0.0
 10
2.412185432585049
 20
6.697622781841863
 10
2.489313663842766
 20
6.697622781841863
  0
LWPOLYLINE
  5
9B
100
AcDbEntity
  8
USP-GEO
100
AcDbPolyline
 90
        2
 70
   129
 43
0.0
 10
2.489313663842766
 20
6.871161302171723
 10
2.412185432585049
 20
6.871161302171723
  0
LWPOLYLINE
  5
9C
100
AcDbEntity
  8
USP-GEO
100
AcDbPolyline
 90
        4
 70
   128
 43
0.0
 10
2.605006010729338
 20
6.716904839656292
 10
2.605006010729338
 20
6.774751013099578
 10
2.605006010729338
 20
6.871161302171723
 10
2.605006010729338
 20
6.986853649058296
  0
LWPOLYLINE
  5
9D
100
AcDbEntity
  8
USP-GEO
100
AcDbPolyline
 90
       64
 70
   128
 43
0.0
 10
6.231961085623405
 20
0.0964102890721428
 10
6.231961085623405
 20
0.2892308672164319
 10
6.231961085623405
 20
0.463733490437015
 10
6.231961085623405
 20
0.6179899529524456
 10
6.231961085623405
 20
2.277211027884048
 10
6.231961085623405
 20
2.683098344877775
 10
6.231961085623405
 20
3.145867732424067
 10
6.231961085623405
 20
3.628883280675511
 10
6.231961085623405
 20
4.420411753957814
 10
6.231961085623405
 20
4.574668216473245
 10
6.231961085623405
 20
4.728924678988677
 10
6.231961085623405
 20
4.844617025875249
 10
6.231961085623405
 20
4.902463199318537
 10
6.231961085623405
 20
4.99887348839068
 10
6.231961085623405
 20
5.095283777462825
 10
6.231961085623405
 20
5.423078760308115
 10
6.231961085623405
 20
5.520453152270981
 10
6.231961085623405
 20
5.616863441343125
 10
6.231961085623405
 20
5.674709614786412
 10
6.231961085623405
 20
5.790401961672985
 10
6.231961085623405
 20
5.944658424188416
 10
6.231961085623405
 20
6.098914886703846
 10
6.231961085623405
 20
6.291735464848136
 10
6.231961085623405
 20
6.466238088068717
 10
6.231961085623405
 20
6.601212492769718
 10
6.231961085623405
 20
6.716904839656292
 10
6.231961085623405
 20
6.774751013099578
 10
6.231961085623405
 20
6.871161302171723
 10
6.231961085623405
 20
6.986853649058296
 10
6.231961085623405
 20
7.160392169388156
 10
6.328371374695551
 20
7.160392169388156
 10
6.328371374695551
 20
6.986853649058296
 10
6.328371374695551
 20
6.871161302171723
 10
6.328371374695551
 20
6.774751013099578
 10
6.328371374695551
 20
6.716904839656292
 10
6.328371374695551
 20
6.601212492769718
 10
6.328371374695551
 20
6.466238088068717
 10
6.328371374695551
 20
6.291735464848136
 10
6.328371374695551
 20
6.098914886703846
 10
6.328371374695551
 20
5.944658424188416
 10
6.328371374695551
 20
5.790401961672985
 10
6.328371374695551
 20
5.674709614786412
 10
6.328371374695551
 20
5.616863441343125
 10
6.328371374695551
 20
5.520453152270981
 10
6.328371374695551
 20
5.423078760308115
 10
6.328371374695551
 20
5.095283777462825
 10
6.328371374695551
 20
4.99887348839068
 10
6.328371374695551
 20
4.902463199318537
 10
6.328371374695551
 20
4.844617025875249
 10
6.328371374695551
 20
4.728924678988677
 10
6.328371374695551
 20
4.574668216473245
 10
6.328371374695551
 20
4.420411753957814
 10
6.328371374695551
 20
3.628883280675511
 10
6.328371374695551
 20
3.145867732424067
 10
6.328371374695551
 20
2.683098344877775
 10
6.328371374695551
 20
2.277211027884048
 10
6.328371374695551
 20
0.6179899529524456
 10
6.328371374695551
 20
0.463733490437015
 10
6.328371374695551
 20
0.2892308672164319
 10
6.328371374695551
 20
0.0964102890721428
 10
6.328371374695551
 20
0.0
 10
6.231961085623405
 20
0.0
 10
6.212679027808976
 20
0.0
 10
6.213643130699699
 20
0.0
  0
LWPOLYLINE
  5
9E
100
AcDbEntity
  8
USP-GEO
100
AcDbPolyline
 90
        2
 70
   129
 43
0.0
 10
7.929746276183868
 20
2.277211027884048
 10
6.540474010654266
 20
0.7529643576534469
  0
LWPOLYLINE
  5
9F
100
AcDbEntity
  8
USP-GEO
100
AcDbPolyline
 90
        4
 70
   128
 43
0.0
 10
6.328371374695551
 20
0.6179899529524456
 10
6.328371374695551
 20
2.277211027884048
 10
6.231961085623405
 20
2.277211027884048
 10
6.231961085623405
 20
0.6179899529524456
  0
LWPOLYLINE
  5
A0
100
AcDbEntity
  8
USP-GEO
100
AcDbPolyline
 90
        5
 70
   128
 43
0.0
 10
6.328371374695551
 20
0.579425837323587
 10
6.405499605953265
 20
0.5987078951380163
 10
6.386217548138835
 20
0.579425837323587
 10
6.34765343250998
 20
0.5408617216947285
 10
6.328371374695551
 20
0.50229760606587
  0
LWPOLYLINE
  5
A1
100
AcDbEntity
  8
USP-GEO
100
AcDbPolyline
 90
        6
 70
   128
 43
0.0
 10
6.328371374695551
 20
1.254297860828597
 10
6.405499605953265
 20
1.215733745199738
 10
6.540474010654266
 20
1.080759340498737
 10
6.579038126283125
 20
0.9072208201688773
 10
6.540474010654266
 20
0.7336822998390176
 10
6.405499605953265
 20
0.5987078951380163
  0
LWPOLYLINE
  5
A2
100
AcDbEntity
  8
USP-GEO
100
AcDbPolyline
 90
        8
 70
   129
 43
0.0
 10
6.231961085623405
 20
0.6179899529524456
 10
6.231961085623405
 20
0.463733490437015
 10
6.231961085623405
 20
0.2892308672164319
 10
6.231961085623405
 20
0.0964102890721428
 10
6.328371374695551
 20
0.0964102890721428
 10
6.328371374695551
 20
0.2892308672164319
 10
6.328371374695551
 20
0.463733490437015
 10
6.328371374695551
 20
0.6179899529524456
  0
LWPOLYLINE
  5
A3
100
AcDbEntity
  8
USP-GEO
100
AcDbPolyline
 90
        2
 70
   128
 43
0.0
 10
6.231961085623405
 20
0.0964102890721428
 10
6.212679027808976
 20
0.0964102890721428
  0
LWPOLYLINE
  5
A4
100
AcDbEntity
  8
USP-GEO
100
AcDbPolyline
 90
        2
 70
   129
 43
0.0
 10
6.213643130699699
 20
0.0964102890721428
 10
6.212679027808976
 20
0.0964102890721428
  0
LWPOLYLINE
  5
A5
100
AcDbEntity
  8
USP-GEO
100
AcDbPolyline
 90
        2
 70
   128
 43
0.0
 10
6.231961085623405
 20
0.0964102890721428
 10
6.212679027808976
 20
0.0964102890721428
  0
LWPOLYLINE
  5
A6
100
AcDbEntity
  8
USP-GEO
100
AcDbPolyline
 90
        3
 70
   128
 43
0.0
 10
6.231961085623405
 20
0.0964102890721428
 10
6.231961085623405
 20
0.0
 10
6.232925188514128
 20
0.0
  0
LWPOLYLINE
  5
A7
100
AcDbEntity
  8
USP-GEO
100
AcDbPolyline
 90
        2
 70
   129
 43
0.0
 10
6.232925188514128
 20
0.0964102890721428
 10
6.231961085623405
 20
0.0964102890721428
  0
LWPOLYLINE
  5
A8
100
AcDbEntity
  8
USP-GEO
100
AcDbPolyline
 90
        5
 70
   128
 43
0.0
 10
6.424781663767694
 20
0.9650669936121651
 10
6.444063721582123
 20
0.9457849357977359
 10
6.444063721582123
 20
0.9072208201688773
 10
6.444063721582123
 20
0.8686567045400188
 10
6.424781663767694
 20
0.8493746467255895
  0
LWPOLYLINE
  5
A9
100
AcDbEntity
  8
USP-GEO
100
AcDbPolyline
 90
       12
 70
   129
 43
0.0
 10
6.424781663767694
 20
0.9072208201688773
 10
6.424781663767694
 20
0.8686567045400188
 10
6.444063721582123
 20
0.8493746467255895
 10
6.463345779396552
 20
0.8300925889111638
 10
6.501909895025411
 20
0.8493746467255895
 10
6.52119195283984
 20
0.8686567045400188
 10
6.52119195283984
 20
0.9072208201688773
 10
6.52119195283984
 20
0.9457849357977359
 10
6.501909895025411
 20
0.9843490514265944
 10
6.463345779396552
 20
0.9843490514265944
 10
6.444063721582123
 20
0.9843490514265944
 10
6.424781663767694
 20
0.9457849357977359
  0
LWPOLYLINE
  5
AA
100
AcDbEntity
  8
USP-GEO
100
AcDbPolyline
 90
       11
 70
   128
 43
0.0
 10
8.836967096352745
 20
6.986853649058296
 10
8.836967096352745
 20
7.160392169388156
 10
6.328371374695551
 20
7.160392169388156
 10
8.836967096352745
 20
7.160392169388156
 10
8.836967096352745
 20
6.986853649058296
 10
8.817685038538316
 20
6.871161302171723
 10
8.759838865095028
 20
6.774751013099578
 10
8.682710633837315
 20
6.716904839656292
 10
8.566054184060019
 20
6.601212492769718
 10
8.488925952802302
 20
6.466238088068717
 10
8.450361837173447
 20
6.291735464848136
  0
LWPOLYLINE
  5
AB
100
AcDbEntity
  8
USP-GEO
100
AcDbPolyline
 90
        4
 70
   128
 43
0.0
 10
7.929746276183868
 20
2.277211027884048
 10
8.2189771434003
 20
2.683098344877775
 10
8.39251566373016
 20
3.145867732424067
 10
8.450361837173447
 20
3.628883280675511
  0
LWPOLYLINE
  5
AC
100
AcDbEntity
  8
USP-GEO
100
AcDbPolyline
 90
        7
 70
   128
 43
0.0
 10
6.6947304731697
 20
4.284473246366092
 10
6.656166357540842
 20
4.284473246366092
 10
6.617602241911983
 20
4.323037361994948
 10
6.617602241911983
 20
4.361601477623807
 10
6.617602241911983
 20
4.400165593252665
 10
6.656166357540842
 20
4.439693811772244
 10
6.6947304731697
 20
4.458975869586673
  0
LWPOLYLINE
  5
AD
100
AcDbEntity
  8
USP-GEO
100
AcDbPolyline
 90
        7
 70
   128
 43
0.0
 10
6.86826899349956
 20
4.284473246366092
 10
6.906833109128415
 20
4.284473246366092
 10
6.945397224757273
 20
4.323037361994948
 10
6.945397224757273
 20
4.361601477623807
 10
6.945397224757273
 20
4.400165593252665
 10
6.906833109128415
 20
4.439693811772244
 10
6.86826899349956
 20
4.458975869586673
  0
LWPOLYLINE
  5
AE
100
AcDbEntity
  8
USP-GEO
100
AcDbPolyline
 90
        4
 70
   128
 43
0.0
 10
6.231961085623405
 20
4.844617025875249
 10
6.231961085623405
 20
4.728924678988677
 10
6.231961085623405
 20
4.574668216473245
 10
6.231961085623405
 20
4.420411753957814
  0
LWPOLYLINE
  5
AF
100
AcDbEntity
  8
USP-GEO
100
AcDbPolyline
 90
       13
 70
   128
 43
0.0
 10
6.328371374695551
 20
3.628883280675511
 10
6.328371374695551
 20
4.420411753957814
 10
6.328371374695551
 20
4.574668216473245
 10
6.328371374695551
 20
4.728924678988677
 10
6.328371374695551
 20
4.844617025875249
 10
6.328371374695551
 20
4.902463199318537
 10
6.328371374695551
 20
4.99887348839068
 10
6.328371374695551
 20
5.095283777462825
 10
6.231961085623405
 20
5.095283777462825
 10
6.231961085623405
 20
4.99887348839068
 10
6.231961085623405
 20
4.902463199318537
 10
6.231961085623405
 20
4.844617025875249
 10
6.328371374695551
 20
4.844617025875249
  0
LWPOLYLINE
  5
B0
100
AcDbEntity
  8
USP-GEO
100
AcDbPolyline
 90
        7
 70
   128
 43
0.0
 10
6.328371374695551
 20
4.632514389916533
 10
6.405499605953265
 20
4.593950274287674
 10
6.540474010654266
 20
4.458975869586673
 10
6.579038126283125
 20
4.284473246366092
 10
6.540474010654266
 20
4.110934726036232
 10
6.405499605953265
 20
3.975960321335231
 10
6.328371374695551
 20
3.956678263520801
  0
LWPOLYLINE
  5
B1
100
AcDbEntity
  8
USP-GEO
100
AcDbPolyline
 90
        8
 70
   128
 43
0.0
 10
6.328371374695551
 20
2.277211027884048
 10
6.328371374695551
 20
2.683098344877775
 10
6.328371374695551
 20
3.145867732424067
 10
6.328371374695551
 20
3.628883280675511
 10
6.231961085623405
 20
3.628883280675511
 10
6.231961085623405
 20
3.145867732424067
 10
6.231961085623405
 20
2.683098344877775
 10
6.231961085623405
 20
2.277211027884048
  0
LWPOLYLINE
  5
B2
100
AcDbEntity
  8
USP-GEO
100
AcDbPolyline
 90
        7
 70
   128
 43
0.0
 10
6.328371374695551
 20
3.493908875974508
 10
6.405499605953265
 20
3.47462681816008
 10
6.540474010654266
 20
3.338688310568356
 10
6.579038126283125
 20
3.165149790238496
 10
6.540474010654266
 20
2.991611269908636
 10
6.405499605953265
 20
2.856636865207635
 10
6.328371374695551
 20
2.818072749578776
  0
LWPOLYLINE
  5
B3
100
AcDbEntity
  8
USP-GEO
100
AcDbPolyline
 90
        2
 70
   129
 43
0.0
 10
6.328371374695551
 20
1.448082541863607
 10
6.424781663767694
 20
1.448082541863607
  0
LWPOLYLINE
  5
B4
100
AcDbEntity
  8
USP-GEO
100
AcDbPolyline
 90
        2
 70
   129
 43
0.0
 10
6.424781663767694
 20
1.621621062193467
 10
6.328371374695551
 20
1.621621062193467
  0
LWPOLYLINE
  5
B5
100
AcDbEntity
  8
USP-GEO
100
AcDbPolyline
 90
        7
 70
   128
 43
0.0
 10
6.328371374695551
 20
2.374585419846914
 10
6.405499605953265
 20
2.335057201327334
 10
6.540474010654266
 20
2.219364854440762
 10
6.579038126283125
 20
2.026544276296473
 10
6.540474010654266
 20
1.853005755966613
 10
6.405499605953265
 20
1.737313409080039
 10
6.328371374695551
 20
1.698749293451182
  0
LWPOLYLINE
  5
B6
100
AcDbEntity
  8
USP-GEO
100
AcDbPolyline
 90
        7
 70
   128
 43
0.0
 10
6.424781663767694
 20
1.621621062193467
 10
6.463345779396552
 20
1.602339004379038
 10
6.482627837210982
 20
1.583056946564608
 10
6.501909895025411
 20
1.544492830935752
 10
6.482627837210982
 20
1.486646657492464
 10
6.463345779396552
 20
1.467364599678035
 10
6.424781663767694
 20
1.448082541863607
  0
LWPOLYLINE
  5
B7
100
AcDbEntity
  8
USP-GEO
100
AcDbPolyline
 90
        5
 70
   128
 43
0.0
 10
6.424781663767694
 20
2.084390449739759
 10
6.444063721582123
 20
2.065108391925329
 10
6.444063721582123
 20
2.026544276296473
 10
6.444063721582123
 20
1.987980160667614
 10
6.424781663767694
 20
1.987980160667614
  0
LWPOLYLINE
  5
B8
100
AcDbEntity
  8
USP-GEO
100
AcDbPolyline
 90
       12
 70
   129
 43
0.0
 10
6.424781663767694
 20
2.026544276296473
 10
6.424781663767694
 20
1.987980160667614
 10
6.444063721582123
 20
1.968698102853187
 10
6.463345779396552
 20
1.949416045038757
 10
6.501909895025411
 20
1.968698102853187
 10
6.52119195283984
 20
1.987980160667614
 10
6.52119195283984
 20
2.026544276296473
 10
6.52119195283984
 20
2.065108391925329
 10
6.501909895025411
 20
2.103672507554188
 10
6.463345779396552
 20
2.122954565368617
 10
6.444063721582123
 20
2.103672507554188
 10
6.424781663767694
 20
2.065108391925329
  0
LWPOLYLINE
  5
B9
100
AcDbEntity
  8
USP-GEO
100
AcDbPolyline
 90
        2
 70
   129
 43
0.0
 10
6.6947304731697
 20
2.528841882362344
 10
6.86826899349956
 20
2.528841882362344
  0
LWPOLYLINE
  5
BA
100
AcDbEntity
  8
USP-GEO
100
AcDbPolyline
 90
        2
 70
   129
 43
0.0
 10
6.86826899349956
 20
2.702380402692204
 10
6.6947304731697
 20
2.702380402692204
  0
LWPOLYLINE
  5
BB
100
AcDbEntity
  8
USP-GEO
100
AcDbPolyline
 90
        7
 70
   128
 43
0.0
 10
6.6947304731697
 20
2.528841882362344
 10
6.656166357540842
 20
2.528841882362344
 10
6.617602241911983
 20
2.567405997991201
 10
6.617602241911983
 20
2.60597011362006
 10
6.617602241911983
 20
2.663816287063346
 10
6.656166357540842
 20
2.683098344877775
 10
6.6947304731697
 20
2.702380402692204
  0
LWPOLYLINE
  5
BC
100
AcDbEntity
  8
USP-GEO
100
AcDbPolyline
 90
        7
 70
   128
 43
0.0
 10
6.86826899349956
 20
2.702380402692204
 10
6.906833109128415
 20
2.683098344877775
 10
6.945397224757273
 20
2.663816287063346
 10
6.945397224757273
 20
2.60597011362006
 10
6.945397224757273
 20
2.567405997991201
 10
6.906833109128415
 20
2.528841882362344
 10
6.86826899349956
 20
2.528841882362344
  0
LWPOLYLINE
  5
BD
100
AcDbEntity
  8
USP-GEO
100
AcDbPolyline
 90
        3
 70
   128
 43
0.0
 10
6.328371374695551
 20
4.420411753957814
 10
6.231961085623405
 20
4.420411753957814
 10
6.231961085623405
 20
3.628883280675511
  0
LWPOLYLINE
  5
BE
100
AcDbEntity
  8
USP-GEO
100
AcDbPolyline
 90
        5
 70
   128
 43
0.0
 10
6.424781663767694
 20
3.222995963681784
 10
6.444063721582123
 20
3.203713905867354
 10
6.444063721582123
 20
3.165149790238496
 10
6.444063721582123
 20
3.126585674609639
 10
6.424781663767694
 20
3.10730361679521
  0
LWPOLYLINE
  5
BF
100
AcDbEntity
  8
USP-GEO
100
AcDbPolyline
 90
       12
 70
   129
 43
0.0
 10
6.424781663767694
 20
3.165149790238496
 10
6.424781663767694
 20
3.126585674609639
 10
6.444063721582123
 20
3.088021558980781
 10
6.463345779396552
 20
3.088021558980781
 10
6.501909895025411
 20
3.088021558980781
 10
6.52119195283984
 20
3.126585674609639
 10
6.52119195283984
 20
3.165149790238496
 10
6.52119195283984
 20
3.203713905867354
 10
6.501909895025411
 20
3.222995963681784
 10
6.463345779396552
 20
3.242278021496211
 10
6.444063721582123
 20
3.222995963681784
 10
6.424781663767694
 20
3.203713905867354
  0
LWPOLYLINE
  5
C0
100
AcDbEntity
  8
USP-GEO
100
AcDbPolyline
 90
        4
 70
   128
 43
0.0
 10
6.444063721582123
 20
3.436062702531222
 10
6.463345779396552
 20
3.416780644716792
 10
6.482627837210982
 20
3.397498586902363
 10
6.501909895025411
 20
3.377252426197214
  0
LWPOLYLINE
  5
C1
100
AcDbEntity
  8
USP-GEO
100
AcDbPolyline
 90
        2
 70
   129
 43
0.0
 10
6.6947304731697
 20
4.284473246366092
 10
6.86826899349956
 20
4.284473246366092
  0
LWPOLYLINE
  5
C2
100
AcDbEntity
  8
USP-GEO
100
AcDbPolyline
 90
        5
 70
   128
 43
0.0
 10
6.424781663767694
 20
4.342319419809378
 10
6.444063721582123
 20
4.323037361994948
 10
6.444063721582123
 20
4.284473246366092
 10
6.444063721582123
 20
4.245909130737233
 10
6.424781663767694
 20
4.226627072922806
  0
LWPOLYLINE
  5
C3
100
AcDbEntity
  8
USP-GEO
100
AcDbPolyline
 90
       12
 70
   129
 43
0.0
 10
6.424781663767694
 20
4.323037361994948
 10
6.424781663767694
 20
4.284473246366092
 10
6.424781663767694
 20
4.245909130737233
 10
6.444063721582123
 20
4.226627072922806
 10
6.463345779396552
 20
4.207345015108376
 10
6.501909895025411
 20
4.226627072922806
 10
6.52119195283984
 20
4.245909130737233
 10
6.52119195283984
 20
4.284473246366092
 10
6.52119195283984
 20
4.323037361994948
 10
6.501909895025411
 20
4.361601477623807
 10
6.463345779396552
 20
4.361601477623807
 10
6.444063721582123
 20
4.361601477623807
  0
LWPOLYLINE
  5
C4
100
AcDbEntity
  8
USP-GEO
100
AcDbPolyline
 90
       12
 70
   129
 43
0.0
 10
7.409130715194288
 20
2.084390449739759
 10
7.447694830823147
 20
2.103672507554188
 10
7.447694830823147
 20
2.161518680997474
 10
7.447694830823147
 20
2.200082796626332
 10
7.409130715194288
 20
2.238646912255189
 10
7.37056659956543
 20
2.238646912255189
 10
7.312720426122142
 20
2.238646912255189
 10
7.293438368307713
 20
2.200082796626332
 10
7.274156310493287
 20
2.161518680997474
 10
7.293438368307713
 20
2.103672507554188
 10
7.312720426122142
 20
2.084390449739759
 10
7.37056659956543
 20
2.065108391925329
  0
LWPOLYLINE
  5
C5
100
AcDbEntity
  8
USP-GEO
100
AcDbPolyline
 90
        2
 70
   128
 43
0.0
 10
7.409130715194288
 20
2.084390449739759
 10
7.37056659956543
 20
2.065108391925329
  0
LWPOLYLINE
  5
C6
100
AcDbEntity
  8
USP-GEO
100
AcDbPolyline
 90
        2
 70
   129
 43
0.0
 10
7.37056659956543
 20
3.493908875974508
 10
7.312720426122142
 20
3.47462681816008
  0
LWPOLYLINE
  5
C7
100
AcDbEntity
  8
USP-GEO
100
AcDbPolyline
 90
       12
 70
   128
 43
0.0
 10
7.37056659956543
 20
3.493908875974508
 10
7.409130715194288
 20
3.47462681816008
 10
7.447694830823147
 20
3.455344760345651
 10
7.447694830823147
 20
3.397498586902363
 10
7.447694830823147
 20
3.357970368382785
 10
7.409130715194288
 20
3.319406252753926
 10
7.37056659956543
 20
3.319406252753926
 10
7.312720426122142
 20
3.319406252753926
 10
7.293438368307713
 20
3.357970368382785
 10
7.274156310493287
 20
3.397498586902363
 10
7.293438368307713
 20
3.455344760345651
 10
7.312720426122142
 20
3.47462681816008
  0
LWPOLYLINE
  5
C8
100
AcDbEntity
  8
USP-GEO
100
AcDbPolyline
 90
       12
 70
   129
 43
0.0
 10
7.852618044926151
 20
3.049457443351924
 10
7.87190010274058
 20
3.088021558980781
 10
7.891182160555009
 20
3.126585674609639
 10
7.949028333998297
 20
3.126585674609639
 10
7.987592449627152
 20
3.126585674609639
 10
8.026156565256011
 20
3.088021558980781
 10
8.026156565256011
 20
3.049457443351924
 10
8.026156565256011
 20
2.991611269908636
 10
7.987592449627152
 20
2.972329212094209
 10
7.949028333998297
 20
2.953047154279779
 10
7.891182160555009
 20
2.972329212094209
 10
7.87190010274058
 20
2.991611269908636
  0
LWPOLYLINE
  5
C9
100
AcDbEntity
  8
USP-GEO
100
AcDbPolyline
 90
        2
 70
   128
 43
0.0
 10
7.852618044926151
 20
3.049457443351924
 10
7.87190010274058
 20
3.088021558980781
  0
LWPOLYLINE
  5
CA
100
AcDbEntity
  8
USP-GEO
100
AcDbPolyline
 90
       12
 70
   128
 43
0.0
 10
7.891182160555009
 20
4.226627072922806
 10
7.949028333998297
 20
4.207345015108376
 10
7.987592449627152
 20
4.226627072922806
 10
8.026156565256011
 20
4.245909130737233
 10
8.026156565256011
 20
4.303755304180521
 10
8.026156565256011
 20
4.342319419809378
 10
7.987592449627152
 20
4.380883535438236
 10
7.949028333998297
 20
4.380883535438236
 10
7.891182160555009
 20
4.380883535438236
 10
7.87190010274058
 20
4.342319419809378
 10
7.852618044926151
 20
4.303755304180521
 10
7.87190010274058
 20
4.245909130737233
  0
LWPOLYLINE
  5
CB
100
AcDbEntity
  8
USP-GEO
100
AcDbPolyline
 90
        2
 70
   129
 43
0.0
 10
7.87190010274058
 20
4.245909130737233
 10
7.891182160555009
 20
4.226627072922806
  0
LWPOLYLINE
  5
CC
100
AcDbEntity
  8
USP-GEO
100
AcDbPolyline
 90
       11
 70
   128
 43
0.0
 10
6.328371374695551
 20
5.674709614786412
 10
6.328371374695551
 20
5.790401961672985
 10
6.328371374695551
 20
5.944658424188416
 10
6.328371374695551
 20
6.098914886703846
 10
6.328371374695551
 20
6.291735464848136
 10
6.328371374695551
 20
6.466238088068717
 10
6.328371374695551
 20
6.601212492769718
 10
6.328371374695551
 20
6.716904839656292
 10
6.328371374695551
 20
6.774751013099578
 10
6.328371374695551
 20
6.871161302171723
 10
6.328371374695551
 20
6.986853649058296
  0
LWPOLYLINE
  5
CD
100
AcDbEntity
  8
USP-GEO
100
AcDbPolyline
 90
        9
 70
   128
 43
0.0
 10
6.328371374695551
 20
5.095283777462825
 10
6.328371374695551
 20
5.423078760308115
 10
6.328371374695551
 20
5.520453152270981
 10
6.328371374695551
 20
5.616863441343125
 10
6.328371374695551
 20
5.674709614786412
 10
6.231961085623405
 20
5.674709614786412
 10
6.231961085623405
 20
5.790401961672985
 10
6.231961085623405
 20
5.944658424188416
 10
6.231961085623405
 20
6.098914886703846
  0
LWPOLYLINE
  5
CE
100
AcDbEntity
  8
USP-GEO
100
AcDbPolyline
 90
        7
 70
   128
 43
0.0
 10
6.328371374695551
 20
6.504802203697574
 10
6.405499605953265
 20
6.466238088068717
 10
6.540474010654266
 20
6.349581638291422
 10
6.579038126283125
 20
6.156761060147134
 10
6.540474010654266
 20
5.983222539817274
 10
6.405499605953265
 20
5.848248135116271
 10
6.328371374695551
 20
5.828966077301842
  0
LWPOLYLINE
  5
CF
100
AcDbEntity
  8
USP-GEO
100
AcDbPolyline
 90
        2
 70
   129
 43
0.0
 10
6.328371374695551
 20
5.018155546205109
 10
6.424781663767694
 20
5.018155546205109
  0
LWPOLYLINE
  5
D0
100
AcDbEntity
  8
USP-GEO
100
AcDbPolyline
 90
        2
 70
   129
 43
0.0
 10
6.424781663767694
 20
5.191694066534969
 10
6.328371374695551
 20
5.191694066534969
  0
LWPOLYLINE
  5
D1
100
AcDbEntity
  8
USP-GEO
100
AcDbPolyline
 90
        3
 70
   128
 43
0.0
 10
6.328371374695551
 20
5.423078760308115
 10
6.231961085623405
 20
5.423078760308115
 10
6.231961085623405
 20
5.095283777462825
  0
LWPOLYLINE
  5
D2
100
AcDbEntity
  8
USP-GEO
100
AcDbPolyline
 90
        4
 70
   128
 43
0.0
 10
6.231961085623405
 20
5.674709614786412
 10
6.231961085623405
 20
5.616863441343125
 10
6.231961085623405
 20
5.520453152270981
 10
6.231961085623405
 20
5.423078760308115
  0
LWPOLYLINE
  5
D3
100
AcDbEntity
  8
USP-GEO
100
AcDbPolyline
 90
        2
 70
   129
 43
0.0
 10
6.86826899349956
 20
4.458975869586673
 10
6.6947304731697
 20
4.458975869586673
  0
LWPOLYLINE
  5
D4
100
AcDbEntity
  8
USP-GEO
100
AcDbPolyline
 90
        2
 70
   128
 43
0.0
 10
6.463345779396552
 20
5.018155546205109
 10
6.424781663767694
 20
5.018155546205109
  0
LWPOLYLINE
  5
D5
100
AcDbEntity
  8
USP-GEO
100
AcDbPolyline
 90
        2
 70
   129
 43
0.0
 10
6.463345779396552
 20
5.018155546205109
 10
6.482627837210982
 20
5.056719661833968
  0
LWPOLYLINE
  5
D6
100
AcDbEntity
  8
USP-GEO
100
AcDbPolyline
 90
        5
 70
   128
 43
0.0
 10
6.424781663767694
 20
5.191694066534969
 10
6.463345779396552
 20
5.17241200872054
 10
6.482627837210982
 20
5.153129950906112
 10
6.501909895025411
 20
5.095283777462825
 10
6.482627837210982
 20
5.056719661833968
  0
LWPOLYLINE
  5
D7
100
AcDbEntity
  8
USP-GEO
100
AcDbPolyline
 90
        2
 70
   129
 43
0.0
 10
6.328371374695551
 20
6.774751013099578
 10
6.424781663767694
 20
6.774751013099578
  0
LWPOLYLINE
  5
D8
100
AcDbEntity
  8
USP-GEO
100
AcDbPolyline
 90
        2
 70
   129
 43
0.0
 10
6.424781663767694
 20
6.948289533429438
 10
6.328371374695551
 20
6.948289533429438
  0
LWPOLYLINE
  5
D9
100
AcDbEntity
  8
USP-GEO
100
AcDbPolyline
 90
        5
 70
   128
 43
0.0
 10
6.328371374695551
 20
6.716904839656292
 10
6.231961085623405
 20
6.716904839656292
 10
6.231961085623405
 20
6.774751013099578
 10
6.231961085623405
 20
6.871161302171723
 10
6.231961085623405
 20
6.986853649058296
  0
LWPOLYLINE
  5
DA
100
AcDbEntity
  8
USP-GEO
100
AcDbPolyline
 90
        5
 70
   128
 43
0.0
 10
6.328371374695551
 20
6.291735464848136
 10
6.231961085623405
 20
6.291735464848136
 10
6.231961085623405
 20
6.466238088068717
 10
6.231961085623405
 20
6.601212492769718
 10
6.231961085623405
 20
6.716904839656292
  0
LWPOLYLINE
  5
DB
100
AcDbEntity
  8
USP-GEO
100
AcDbPolyline
 90
        3
 70
   128
 43
0.0
 10
6.328371374695551
 20
6.098914886703846
 10
6.231961085623405
 20
6.098914886703846
 10
6.231961085623405
 20
6.291735464848136
  0
LWPOLYLINE
  5
DC
100
AcDbEntity
  8
USP-GEO
100
AcDbPolyline
 90
        4
 70
   129
 43
0.0
 10
6.231961085623405
 20
7.160392169388156
 10
6.231961085623405
 20
6.986853649058296
 10
6.328371374695551
 20
6.986853649058296
 10
6.328371374695551
 20
7.160392169388156
  0
LWPOLYLINE
  5
DD
100
AcDbEntity
  8
USP-GEO
100
AcDbPolyline
 90
        2
 70
   129
 43
0.0
 10
6.6947304731697
 20
6.021786655446131
 10
6.86826899349956
 20
6.021786655446131
  0
LWPOLYLINE
  5
DE
100
AcDbEntity
  8
USP-GEO
100
AcDbPolyline
 90
        2
 70
   129
 43
0.0
 10
6.86826899349956
 20
6.195325175775991
 10
6.6947304731697
 20
6.195325175775991
  0
LWPOLYLINE
  5
DF
100
AcDbEntity
  8
USP-GEO
100
AcDbPolyline
 90
        5
 70
   128
 43
0.0
 10
6.424781663767694
 20
6.21460723359042
 10
6.444063721582123
 20
6.195325175775991
 10
6.444063721582123
 20
6.156761060147134
 10
6.444063721582123
 20
6.118196944518276
 10
6.424781663767694
 20
6.118196944518276
  0
LWPOLYLINE
  5
E0
100
AcDbEntity
  8
USP-GEO
100
AcDbPolyline
 90
       12
 70
   129
 43
0.0
 10
6.424781663767694
 20
6.156761060147134
 10
6.424781663767694
 20
6.118196944518276
 10
6.444063721582123
 20
6.098914886703846
 10
6.463345779396552
 20
6.079632828889419
 10
6.501909895025411
 20
6.098914886703846
 10
6.52119195283984
 20
6.118196944518276
 10
6.52119195283984
 20
6.156761060147134
 10
6.52119195283984
 20
6.195325175775991
 10
6.501909895025411
 20
6.23388929140485
 10
6.463345779396552
 20
6.23388929140485
 10
6.444063721582123
 20
6.23388929140485
 10
6.424781663767694
 20
6.195325175775991
  0
LWPOLYLINE
  5
E1
100
AcDbEntity
  8
USP-GEO
100
AcDbPolyline
 90
        7
 70
   128
 43
0.0
 10
6.6947304731697
 20
6.021786655446131
 10
6.656166357540842
 20
6.04106871326056
 10
6.617602241911983
 20
6.079632828889419
 10
6.617602241911983
 20
6.118196944518276
 10
6.617602241911983
 20
6.156761060147134
 10
6.656166357540842
 20
6.195325175775991
 10
6.6947304731697
 20
6.195325175775991
  0
LWPOLYLINE
  5
E2
100
AcDbEntity
  8
USP-GEO
100
AcDbPolyline
 90
        7
 70
   128
 43
0.0
 10
6.86826899349956
 20
6.195325175775991
 10
6.906833109128415
 20
6.195325175775991
 10
6.945397224757273
 20
6.156761060147134
 10
6.945397224757273
 20
6.118196944518276
 10
6.945397224757273
 20
6.079632828889419
 10
6.906833109128415
 20
6.04106871326056
 10
6.86826899349956
 20
6.021786655446131
  0
LWPOLYLINE
  5
E3
100
AcDbEntity
  8
USP-GEO
100
AcDbPolyline
 90
        7
 70
   128
 43
0.0
 10
6.424781663767694
 20
6.948289533429438
 10
6.463345779396552
 20
6.929007475615009
 10
6.482627837210982
 20
6.890443359986152
 10
6.501909895025411
 20
6.851879244357293
 10
6.482627837210982
 20
6.813315128728437
 10
6.463345779396552
 20
6.774751013099578
 10
6.424781663767694
 20
6.774751013099578
  0
LWPOLYLINE
  5
E4
100
AcDbEntity
  8
USP-GEO
100
AcDbPolyline
 90
       12
 70
   128
 43
0.0
 10
7.37056659956543
 20
6.002504597631702
 10
7.409130715194288
 20
5.983222539817274
 10
7.447694830823147
 20
5.944658424188416
 10
7.447694830823147
 20
5.906094308559559
 10
7.447694830823147
 20
5.867530192930701
 10
7.409130715194288
 20
5.828966077301842
 10
7.37056659956543
 20
5.809684019487415
 10
7.312720426122142
 20
5.828966077301842
 10
7.293438368307713
 20
5.867530192930701
 10
7.274156310493287
 20
5.906094308559559
 10
7.293438368307713
 20
5.944658424188416
 10
7.312720426122142
 20
5.983222539817274
  0
LWPOLYLINE
  5
E5
100
AcDbEntity
  8
USP-GEO
100
AcDbPolyline
 90
       12
 70
   128
 43
0.0
 10
7.293438368307713
 20
4.709642621174248
 10
7.312720426122142
 20
4.728924678988677
 10
7.37056659956543
 20
4.748206736803105
 10
7.409130715194288
 20
4.728924678988677
 10
7.447694830823147
 20
4.709642621174248
 10
7.447694830823147
 20
4.651796447730962
 10
7.447694830823147
 20
4.613232332102104
 10
7.409130715194288
 20
4.574668216473245
 10
7.37056659956543
 20
4.574668216473245
 10
7.312720426122142
 20
4.574668216473245
 10
7.293438368307713
 20
4.613232332102104
 10
7.274156310493287
 20
4.651796447730962
  0
LWPOLYLINE
  5
E6
100
AcDbEntity
  8
USP-GEO
100
AcDbPolyline
 90
        2
 70
   129
 43
0.0
 10
7.293438368307713
 20
4.709642621174248
 10
7.274156310493287
 20
4.651796447730962
  0
LWPOLYLINE
  5
E7
100
AcDbEntity
  8
USP-GEO
100
AcDbPolyline
 90
       12
 70
   129
 43
0.0
 10
7.852618044926151
 20
5.636145499157555
 10
7.87190010274058
 20
5.674709614786412
 10
7.891182160555009
 20
5.71327373041527
 10
7.949028333998297
 20
5.71327373041527
 10
7.987592449627152
 20
5.71327373041527
 10
8.026156565256011
 20
5.674709614786412
 10
8.026156565256011
 20
5.636145499157555
 10
8.026156565256011
 20
5.578299325714267
 10
7.987592449627152
 20
5.559017267899839
 10
7.949028333998297
 20
5.53973521008541
 10
7.891182160555009
 20
5.559017267899839
 10
7.87190010274058
 20
5.578299325714267
  0
LWPOLYLINE
  5
E8
100
AcDbEntity
  8
USP-GEO
100
AcDbPolyline
 90
        2
 70
   129
 43
0.0
 10
7.37056659956543
 20
6.002504597631702
 10
7.312720426122142
 20
5.983222539817274
  0
LWPOLYLINE
  5
E9
100
AcDbEntity
  8
USP-GEO
100
AcDbPolyline
 90
       12
 70
   128
 43
0.0
 10
7.293438368307713
 20
6.909725417800581
 10
7.312720426122142
 20
6.929007475615009
 10
7.37056659956543
 20
6.948289533429438
 10
7.409130715194288
 20
6.929007475615009
 10
7.447694830823147
 20
6.909725417800581
 10
7.447694830823147
 20
6.851879244357293
 10
7.447694830823147
 20
6.813315128728437
 10
7.409130715194288
 20
6.774751013099578
 10
7.37056659956543
 20
6.774751013099578
 10
7.312720426122142
 20
6.774751013099578
 10
7.293438368307713
 20
6.813315128728437
 10
7.274156310493287
 20
6.851879244357293
  0
LWPOLYLINE
  5
EA
100
AcDbEntity
  8
USP-GEO
100
AcDbPolyline
 90
        2
 70
   129
 43
0.0
 10
7.293438368307713
 20
6.909725417800581
 10
7.274156310493287
 20
6.851879244357293
  0
LWPOLYLINE
  5
EB
100
AcDbEntity
  8
USP-GEO
100
AcDbPolyline
 90
       12
 70
   129
 43
0.0
 10
7.852618044926151
 20
6.678340724027433
 10
7.87190010274058
 20
6.716904839656292
 10
7.891182160555009
 20
6.755468955285149
 10
7.949028333998297
 20
6.755468955285149
 10
7.987592449627152
 20
6.755468955285149
 10
8.026156565256011
 20
6.716904839656292
 10
8.026156565256011
 20
6.678340724027433
 10
8.026156565256011
 20
6.620494550584147
 10
7.987592449627152
 20
6.601212492769718
 10
7.949028333998297
 20
6.581930434955291
 10
7.891182160555009
 20
6.601212492769718
 10
7.87190010274058
 20
6.620494550584147
  0
LWPOLYLINE
  5
EC
100
AcDbEntity
  8
USP-GEO
100
AcDbPolyline
 90
        2
 70
   128
 43
0.0
 10
7.852618044926151
 20
6.678340724027433
 10
7.87190010274058
 20
6.716904839656292
  0
LWPOLYLINE
  5
ED
100
AcDbEntity
  8
USP-GEO
100
AcDbPolyline
 90
        7
 70
   128
 43
0.0
 10
8.836967096352745
 20
5.095283777462825
 10
8.817685038538316
 20
4.99887348839068
 10
8.759838865095028
 20
4.902463199318537
 10
8.682710633837315
 20
4.844617025875249
 10
8.566054184060019
 20
4.728924678988677
 10
8.488925952802302
 20
4.574668216473245
 10
8.450361837173447
 20
4.420411753957814
  0
LWPOLYLINE
  5
EE
100
AcDbEntity
  8
USP-GEO
100
AcDbPolyline
 90
        2
 70
   129
 43
0.0
 10
8.450361837173447
 20
4.420411753957814
 10
8.450361837173447
 20
3.628883280675511
  0
LWPOLYLINE
  5
EF
100
AcDbEntity
  8
USP-GEO
100
AcDbPolyline
 90
        2
 70
   129
 43
0.0
 10
8.450361837173447
 20
6.098914886703846
 10
8.488925952802302
 20
5.944658424188416
  0
LWPOLYLINE
  5
F0
100
AcDbEntity
  8
USP-GEO
100
AcDbPolyline
 90
        2
 70
   129
 43
0.0
 10
8.836967096352745
 20
5.423078760308115
 10
8.836967096352745
 20
5.095283777462825
  0
LWPOLYLINE
  5
F1
100
AcDbEntity
  8
USP-GEO
100
AcDbPolyline
 90
       12
 70
   129
 43
0.0
 10
8.450361837173447
 20
5.056719661833968
 10
8.431079779359018
 20
5.095283777462825
 10
8.450361837173447
 20
5.133847893091683
 10
8.469643894987873
 20
5.17241200872054
 10
8.527490068431161
 20
5.191694066534969
 10
8.566054184060019
 20
5.17241200872054
 10
8.604618299688878
 20
5.133847893091683
 10
8.604618299688878
 20
5.095283777462825
 10
8.604618299688878
 20
5.056719661833968
 10
8.566054184060019
 20
5.018155546205109
 10
8.527490068431161
 20
4.99887348839068
 10
8.469643894987873
 20
5.018155546205109
  0
LWPOLYLINE
  5
F2
100
AcDbEntity
  8
USP-GEO
100
AcDbPolyline
 90
        6
 70
   128
 43
0.0
 10
8.488925952802302
 20
5.944658424188416
 10
8.566054184060019
 20
5.790401961672985
 10
8.682710633837315
 20
5.674709614786412
 10
8.759838865095028
 20
5.616863441343125
 10
8.817685038538316
 20
5.520453152270981
 10
8.836967096352745
 20
5.423078760308115
  0
LWPOLYLINE
  5
F3
100
AcDbEntity
  8
USP-GEO
100
AcDbPolyline
 90
        2
 70
   129
 43
0.0
 10
8.450361837173447
 20
6.291735464848136
 10
8.450361837173447
 20
6.098914886703846
  0
LWPOLYLINE
  5
F4
100
AcDbEntity
  8
USP-GEO
100
AcDbPolyline
 90
        2
 70
   129
 43
0.0
 10
8.527490068431161
 20
6.948289533429438
 10
8.469643894987873
 20
6.929007475615009
  0
LWPOLYLINE
  5
F5
100
AcDbEntity
  8
USP-GEO
100
AcDbPolyline
 90
       12
 70
   128
 43
0.0
 10
8.469643894987873
 20
6.929007475615009
 10
8.450361837173447
 20
6.890443359986152
 10
8.431079779359018
 20
6.851879244357293
 10
8.450361837173447
 20
6.813315128728437
 10
8.469643894987873
 20
6.774751013099578
 10
8.527490068431161
 20
6.755468955285149
 10
8.566054184060019
 20
6.774751013099578
 10
8.604618299688878
 20
6.813315128728437
 10
8.604618299688878
 20
6.851879244357293
 10
8.604618299688878
 20
6.890443359986152
 10
8.566054184060019
 20
6.929007475615009
 10
8.527490068431161
 20
6.948289533429438
  0
ENDBLK
  5
F7
100
AcDbEntity
  8
0
100
AcDbBlockEnd
  0
BLOCK
  5
13F
100
AcDbEntity
  8
0
100
AcDbBlockBegin
  2
THDH48_S
 70
     0
 10
0.0
 20
0.0
 30
0.0
  3
THDH48_S
  1

  0
TEXT
  5
FA
100
AcDbEntity
  8
USP-TXT
100
AcDbText
 10
-0.3943540528760785
 20
-2.181790068179871
 30
0.0
 40
0.296875
  1
THDH48 - SIDE VIEW
 72
     1
 11
2.228041780457254
 21
-2.181790068179871
 31
0.0
100
AcDbText
  0
LWPOLYLINE
  5
FB
100
AcDbEntity
  8
USP-GEO
100
AcDbPolyline
 90
       43
 70
   128
 43
0.0
 10
0.2313846937731458
 20
0.0964102890721428
 10
0.2313846937731458
 20
0.0
 10
4.224698867141363
 20
0.0
 10
4.224698867141363
 20
0.0964102890721428
 10
4.205416809326933
 20
0.2892308672164319
 10
4.128288578069218
 20
0.463733490437015
 10
4.012596231182644
 20
0.6179899529524456
 10
2.507631618766472
 20
2.277211027884048
 10
2.218400751550039
 20
2.683098344877775
 10
2.025580173405751
 20
3.145867732424067
 10
1.967733999962463
 20
3.628883280675511
 10
1.967733999962463
 20
4.420411753957814
 10
1.948451942148036
 20
4.574668216473245
 10
1.871323710890321
 20
4.728924678988677
 10
1.736349306189318
 20
4.844617025875249
 10
1.659221074931602
 20
4.902463199318537
 10
1.620656959302746
 20
4.99887348839068
 10
1.601374901488316
 20
5.095283777462825
 10
1.601374901488316
 20
5.423078760308115
 10
1.620656959302746
 20
5.520453152270981
 10
1.659221074931602
 20
5.616863441343125
 10
1.736349306189318
 20
5.674709614786412
 10
1.871323710890321
 20
5.790401961672985
 10
1.948451942148036
 20
5.944658424188416
 10
1.967733999962463
 20
6.098914886703846
 10
1.967733999962463
 20
6.291735464848136
 10
1.948451942148036
 20
6.466238088068717
 10
1.871323710890321
 20
6.601212492769718
 10
1.736349306189318
 20
6.716904839656292
 10
1.659221074931602
 20
6.774751013099578
 10
1.620656959302746
 20
6.871161302171723
 10
1.601374901488316
 20
6.986853649058296
 10
1.601374901488316
 20
7.160392169388156
 10
0.0964102890721446
 20
7.160392169388156
 10
0.0964102890721446
 20
6.986853649058296
 10
0.0964102890721446
 20
6.871161302171723
 10
0.1928205781442882
 20
6.871161302171723
 10
0.2313846937731458
 20
6.871161302171723
 10
0.2506667515875751
 20
6.832597186542866
 10
0.2699488094020035
 20
6.794033070914007
 10
0.2506667515875751
 20
6.755468955285149
 10
0.2313846937731458
 20
6.716904839656292
 10
0.1928205781442882
 20
6.697622781841863
  0
LWPOLYLINE
  5
FC
100
AcDbEntity
  8
USP-GEO
100
AcDbPolyline
 90
       67
 70
   128
 43
0.0
 10
4.224698867141363
 20
0.0964102890721428
 10
4.224698867141363
 20
0.0
 10
0.2313846937731458
 20
0.0
 10
0.2313846937731458
 20
0.0964102890721428
 10
0.2121026359587175
 20
0.2313846937731476
 10
0.1735385203298598
 20
0.3866052591792979
 10
0.0964102890721446
 20
0.50229760606587
 10
0.0
 20
0.50229760606587
 10
0.0964102890721446
 20
0.50229760606587
 10
0.0964102890721446
 20
0.5408617216947285
 10
0.0964102890721446
 20
0.579425837323587
 10
0.0964102890721446
 20
0.6179899529524456
 10
0.0964102890721446
 20
2.277211027884048
 10
0.0964102890721446
 20
2.683098344877775
 10
0.0964102890721446
 20
3.145867732424067
 10
0.0964102890721446
 20
3.628883280675511
 10
0.0964102890721446
 20
4.420411753957814
 10
0.0964102890721446
 20
4.574668216473245
 10
0.0964102890721446
 20
4.728924678988677
 10
0.0964102890721446
 20
4.844617025875249
 10
0.0964102890721446
 20
4.902463199318537
 10
0.0964102890721446
 20
4.99887348839068
 10
0.0964102890721446
 20
5.095283777462825
 10
0.0964102890721446
 20
5.423078760308115
 10
0.0964102890721446
 20
5.520453152270981
 10
0.0964102890721446
 20
5.616863441343125
 10
0.0964102890721446
 20
5.674709614786412
 10
0.0964102890721446
 20
5.790401961672985
 10
0.0964102890721446
 20
5.944658424188416
 10
0.0964102890721446
 20
6.098914886703846
 10
0.0964102890721446
 20
6.291735464848136
 10
0.0964102890721446
 20
6.466238088068717
 10
0.0964102890721446
 20
6.601212492769718
 10
0.0964102890721446
 20
6.716904839656292
 10
0.0964102890721446
 20
6.774751013099578
 10
0.0964102890721446
 20
6.871161302171723
 10
0.0964102890721446
 20
6.986853649058296
 10
0.0964102890721446
 20
7.160392169388156
 10
0.0
 20
7.160392169388156
 10
0.0
 20
6.986853649058296
 10
0.0
 20
6.871161302171723
 10
0.0
 20
6.774751013099578
 10
0.0
 20
6.716904839656292
 10
0.0
 20
6.601212492769718
 10
0.0
 20
6.466238088068717
 10
0.0
 20
6.291735464848136
 10
0.0
 20
6.098914886703846
 10
0.0
 20
5.944658424188416
 10
0.0
 20
5.790401961672985
 10
0.0
 20
5.674709614786412
 10
0.0
 20
5.616863441343125
 10
0.0
 20
5.520453152270981
 10
0.0
 20
5.423078760308115
 10
0.0
 20
5.095283777462825
 10
0.0
 20
4.99887348839068
 10
0.0
 20
4.902463199318537
 10
0.0
 20
4.844617025875249
 10
0.0
 20
4.728924678988677
 10
0.0
 20
4.574668216473245
 10
0.0
 20
4.420411753957814
 10
0.0
 20
3.628883280675511
 10
0.0
 20
3.145867732424067
 10
0.0
 20
2.683098344877775
 10
0.0
 20
2.277211027884048
 10
0.0
 20
0.6179899529524456
 10
0.0
 20
0.579425837323587
 10
0.0
 20
0.5408617216947285
  0
LWPOLYLINE
  5
FD
100
AcDbEntity
  8
USP-GEO
100
AcDbPolyline
 90
        7
 70
   128
 43
0.0
 10
0.1928205781442882
 20
1.505928715306893
 10
0.2313846937731458
 20
1.486646657492464
 10
0.2506667515875751
 20
1.448082541863607
 10
0.2699488094020035
 20
1.409518426234749
 10
0.2506667515875751
 20
1.370954310605892
 10
0.2313846937731458
 20
1.331426092086312
 10
0.1928205781442882
 20
1.331426092086312
  0
LWPOLYLINE
  5
FE
100
AcDbEntity
  8
USP-GEO
100
AcDbPolyline
 90
       29
 70
   128
 43
0.0
 10
0.0964102890721446
 20
0.50229760606587
 10
0.0964102890721446
 20
0.5408617216947285
 10
0.0964102890721446
 20
0.579425837323587
 10
0.0964102890721446
 20
0.6179899529524456
 10
0.0964102890721446
 20
2.277211027884048
 10
0.0964102890721446
 20
2.683098344877775
 10
0.0964102890721446
 20
3.145867732424067
 10
0.0964102890721446
 20
3.628883280675511
 10
0.0964102890721446
 20
4.420411753957814
 10
0.0964102890721446
 20
4.574668216473245
 10
0.0964102890721446
 20
4.728924678988677
 10
0.0964102890721446
 20
4.844617025875249
 10
0.0964102890721446
 20
4.902463199318537
 10
0.0964102890721446
 20
4.99887348839068
 10
0.0964102890721446
 20
5.095283777462825
 10
0.0964102890721446
 20
5.423078760308115
 10
0.0964102890721446
 20
5.520453152270981
 10
0.0964102890721446
 20
5.616863441343125
 10
0.0964102890721446
 20
5.674709614786412
 10
0.0964102890721446
 20
5.790401961672985
 10
0.0964102890721446
 20
5.944658424188416
 10
0.0964102890721446
 20
6.098914886703846
 10
0.0964102890721446
 20
6.291735464848136
 10
0.0964102890721446
 20
6.466238088068717
 10
0.0964102890721446
 20
6.601212492769718
 10
0.0964102890721446
 20
6.716904839656292
 10
0.0964102890721446
 20
6.774751013099578
 10
0.0964102890721446
 20
6.871161302171723
 10
0.1928205781442882
 20
6.871161302171723
  0
LWPOLYLINE
  5
FF
100
AcDbEntity
  8
USP-GEO
100
AcDbPolyline
 90
        2
 70
   128
 43
0.0
 10
0.0
 20
2.277211027884048
 10
0.0
 20
0.6179899529524456
  0
LWPOLYLINE
  5
100
100
AcDbEntity
  8
USP-GEO
100
AcDbPolyline
 90
       12
 70
   129
 43
0.0
 10
1.235015803014167
 20
0.8108105310967346
 10
1.118359353236874
 20
0.9265028779833066
 10
1.060513179793586
 20
1.100041398313166
 10
1.118359353236874
 20
1.273579918643026
 10
1.235015803014167
 20
1.390236368420319
 10
1.408554323344027
 20
1.428800484049178
 10
1.582092843673887
 20
1.390236368420319
 10
1.697785190560461
 20
1.273579918643026
 10
1.736349306189318
 20
1.100041398313166
 10
1.697785190560461
 20
0.9265028779833066
 10
1.582092843673887
 20
0.8108105310967346
 10
1.408554323344027
 20
0.7529643576534469
  0
LWPOLYLINE
  5
101
100
AcDbEntity
  8
USP-GEO
100
AcDbPolyline
 90
        4
 70
   128
 43
0.0
 10
0.0964102890721446
 20
0.6179899529524456
 10
0.0
 20
0.6179899529524456
 10
0.0
 20
0.579425837323587
 10
0.0
 20
0.5408617216947285
  0
LWPOLYLINE
  5
102
100
AcDbEntity
  8
USP-GEO
100
AcDbPolyline
 90
        2
 70
   129
 43
0.0
 10
0.0
 20
0.50229760606587
 10
0.0
 20
0.5408617216947285
  0
LWPOLYLINE
  5
103
100
AcDbEntity
  8
USP-GEO
100
AcDbPolyline
 90
        2
 70
   129
 43
0.0
 10
0.0964102890721446
 20
1.331426092086312
 10
0.1928205781442882
 20
1.331426092086312
  0
LWPOLYLINE
  5
104
100
AcDbEntity
  8
USP-GEO
100
AcDbPolyline
 90
        5
 70
   128
 43
0.0
 10
1.601374901488316
 20
1.157887571756454
 10
1.620656959302746
 20
1.138605513942025
 10
1.620656959302746
 20
1.100041398313166
 10
1.620656959302746
 20
1.061477282684307
 10
1.601374901488316
 20
1.042195224869878
  0
LWPOLYLINE
  5
105
100
AcDbEntity
  8
USP-GEO
100
AcDbPolyline
 90
       12
 70
   129
 43
0.0
 10
1.601374901488316
 20
1.138605513942025
 10
1.601374901488316
 20
1.100041398313166
 10
1.601374901488316
 20
1.061477282684307
 10
1.620656959302746
 20
1.022913167055449
 10
1.639939017117173
 20
1.022913167055449
 10
1.678503132746032
 20
1.022913167055449
 10
1.697785190560461
 20
1.061477282684307
 10
1.697785190560461
 20
1.100041398313166
 10
1.697785190560461
 20
1.138605513942025
 10
1.678503132746032
 20
1.157887571756454
 10
1.639939017117173
 20
1.17716962957088
 10
1.620656959302746
 20
1.157887571756454
  0
LWPOLYLINE
  5
106
100
AcDbEntity
  8
USP-GEO
100
AcDbPolyline
 90
        4
 70
   128
 43
0.0
 10
0.0
 20
4.844617025875249
 10
0.0
 20
4.728924678988677
 10
0.0
 20
4.574668216473245
 10
0.0
 20
4.420411753957814
  0
LWPOLYLINE
  5
107
100
AcDbEntity
  8
USP-GEO
100
AcDbPolyline
 90
        6
 70
   128
 43
0.0
 10
1.601374901488316
 20
4.536104100844388
 10
1.620656959302746
 20
4.516822043029959
 10
1.620656959302746
 20
4.478257927401102
 10
1.620656959302746
 20
4.439693811772244
 10
1.601374901488316
 20
4.420411753957814
 10
1.602339004379038
 20
4.420411753957814
  0
LWPOLYLINE
  5
108
100
AcDbEntity
  8
USP-GEO
100
AcDbPolyline
 90
       12
 70
   129
 43
0.0
 10
1.601374901488316
 20
4.516822043029959
 10
1.601374901488316
 20
4.478257927401102
 10
1.601374901488316
 20
4.439693811772244
 10
1.620656959302746
 20
4.400165593252665
 10
1.639939017117173
 20
4.400165593252665
 10
1.678503132746032
 20
4.400165593252665
 10
1.697785190560461
 20
4.439693811772244
 10
1.697785190560461
 20
4.478257927401102
 10
1.697785190560461
 20
4.516822043029959
 10
1.678503132746032
 20
4.536104100844388
 10
1.639939017117173
 20
4.555386158658818
 10
1.620656959302746
 20
4.536104100844388
  0
LWPOLYLINE
  5
109
100
AcDbEntity
  8
USP-GEO
100
AcDbPolyline
 90
       12
 70
   129
 43
0.0
 10
1.118359353236874
 20
4.651796447730962
 10
1.235015803014167
 20
4.767488794617534
 10
1.408554323344027
 20
4.806052910246393
 10
1.582092843673887
 20
4.767488794617534
 10
1.697785190560461
 20
4.651796447730962
 10
1.736349306189318
 20
4.478257927401102
 10
1.697785190560461
 20
4.303755304180521
 10
1.582092843673887
 20
4.188062957293947
 10
1.408554323344027
 20
4.130216783850661
 10
1.235015803014167
 20
4.188062957293947
 10
1.118359353236874
 20
4.303755304180521
 10
1.060513179793586
 20
4.478257927401102
  0
LWPOLYLINE
  5
10A
100
AcDbEntity
  8
USP-GEO
100
AcDbPolyline
 90
        4
 70
   129
 43
0.0
 10
1.021949064164729
 20
1.660185177822324
 10
1.156923468865731
 20
1.795159582523327
 10
1.273579918643026
 20
1.660185177822324
 10
1.156923468865731
 20
1.525210773121322
  0
LWPOLYLINE
  5
10B
100
AcDbEntity
  8
USP-GEO
100
AcDbPolyline
 90
        4
 70
   129
 43
0.0
 10
1.021949064164729
 20
1.660185177822324
 10
1.156923468865731
 20
1.795159582523327
 10
1.273579918643026
 20
1.660185177822324
 10
1.156923468865731
 20
1.525210773121322
  0
LWPOLYLINE
  5
10C
100
AcDbEntity
  8
USP-GEO
100
AcDbPolyline
 90
        2
 70
   129
 43
0.0
 10
1.156923468865731
 20
1.602339004379038
 10
1.118359353236874
 20
1.563774888750179
  0
LWPOLYLINE
  5
10D
100
AcDbEntity
  8
USP-GEO
100
AcDbPolyline
 90
       12
 70
   129
 43
0.0
 10
1.060513179793586
 20
3.357970368382785
 10
1.118359353236874
 20
3.513190933788937
 10
1.235015803014167
 20
3.648165338489938
 10
1.408554323344027
 20
3.686729454118797
 10
1.582092843673887
 20
3.648165338489938
 10
1.697785190560461
 20
3.513190933788937
 10
1.736349306189318
 20
3.357970368382785
 10
1.697785190560461
 20
3.184431848052925
 10
1.582092843673887
 20
3.049457443351924
 10
1.408554323344027
 20
3.010893327723065
 10
1.235015803014167
 20
3.049457443351924
 10
1.118359353236874
 20
3.184431848052925
  0
LWPOLYLINE
  5
10E
100
AcDbEntity
  8
USP-GEO
100
AcDbPolyline
 90
       12
 70
   129
 43
0.0
 10
1.060513179793586
 20
2.219364854440762
 10
1.118359353236874
 20
2.393867477661341
 10
1.235015803014167
 20
2.509559824547915
 10
1.408554323344027
 20
2.567405997991201
 10
1.582092843673887
 20
2.509559824547915
 10
1.697785190560461
 20
2.393867477661341
 10
1.736349306189318
 20
2.219364854440762
 10
1.697785190560461
 20
2.045826334110902
 10
1.582092843673887
 20
1.930133987224328
 10
1.408554323344027
 20
1.89156987159547
 10
1.235015803014167
 20
1.930133987224328
 10
1.118359353236874
 20
2.045826334110902
  0
LWPOLYLINE
  5
10F
100
AcDbEntity
  8
USP-GEO
100
AcDbPolyline
 90
        6
 70
   128
 43
0.0
 10
0.0964102890721446
 20
3.628883280675511
 10
0.0
 20
3.628883280675511
 10
0.0
 20
3.145867732424067
 10
0.0
 20
2.683098344877775
 10
0.0
 20
2.277211027884048
 10
0.0964102890721446
 20
2.277211027884048
  0
LWPOLYLINE
  5
110
100
AcDbEntity
  8
USP-GEO
100
AcDbPolyline
 90
        2
 70
   129
 43
0.0
 10
0.1928205781442882
 20
1.505928715306893
 10
0.0964102890721446
 20
1.505928715306893
  0
LWPOLYLINE
  5
111
100
AcDbEntity
  8
USP-GEO
100
AcDbPolyline
 90
        2
 70
   129
 43
0.0
 10
0.0964102890721446
 20
1.448082541863607
 10
0.1928205781442882
 20
1.448082541863607
  0
LWPOLYLINE
  5
112
100
AcDbEntity
  8
USP-GEO
100
AcDbPolyline
 90
        3
 70
   128
 43
0.0
 10
0.1928205781442882
 20
1.448082541863607
 10
0.2313846937731458
 20
1.467364599678035
 10
0.2323487966638673
 20
1.467364599678035
  0
LWPOLYLINE
  5
113
100
AcDbEntity
  8
USP-GEO
100
AcDbPolyline
 90
        3
 70
   128
 43
0.0
 10
0.0964102890721446
 20
4.420411753957814
 10
0.0
 20
4.420411753957814
 10
0.0
 20
3.628883280675511
  0
LWPOLYLINE
  5
114
100
AcDbEntity
  8
USP-GEO
100
AcDbPolyline
 90
        2
 70
   129
 43
0.0
 10
0.1928205781442882
 20
3.377252426197214
 10
0.0964102890721446
 20
3.377252426197214
  0
LWPOLYLINE
  5
115
100
AcDbEntity
  8
USP-GEO
100
AcDbPolyline
 90
        2
 70
   129
 43
0.0
 10
0.0964102890721446
 20
3.203713905867354
 10
0.1928205781442882
 20
3.203713905867354
  0
LWPOLYLINE
  5
116
100
AcDbEntity
  8
USP-GEO
100
AcDbPolyline
 90
        2
 70
   129
 43
0.0
 10
0.0964102890721446
 20
3.26156007931064
 10
0.1928205781442882
 20
3.26156007931064
  0
LWPOLYLINE
  5
117
100
AcDbEntity
  8
USP-GEO
100
AcDbPolyline
 90
        7
 70
   128
 43
0.0
 10
0.1928205781442882
 20
3.377252426197214
 10
0.2313846937731458
 20
3.357970368382785
 10
0.2506667515875751
 20
3.338688310568356
 10
0.2699488094020035
 20
3.28084213712507
 10
0.2506667515875751
 20
3.242278021496211
 10
0.2313846937731458
 20
3.203713905867354
 10
0.1928205781442882
 20
3.203713905867354
  0
LWPOLYLINE
  5
118
100
AcDbEntity
  8
USP-GEO
100
AcDbPolyline
 90
        4
 70
   128
 43
0.0
 10
0.2699488094020035
 20
3.319406252753926
 10
0.2506667515875751
 20
3.300124194939499
 10
0.2313846937731458
 20
3.28084213712507
 10
0.1928205781442882
 20
3.26156007931064
  0
LWPOLYLINE
  5
119
100
AcDbEntity
  8
USP-GEO
100
AcDbPolyline
 90
        6
 70
   128
 43
0.0
 10
1.601374901488316
 20
2.180800738811903
 10
1.601374901488316
 20
2.161518680997474
 10
1.620656959302746
 20
2.180800738811903
 10
1.620656959302746
 20
2.219364854440762
 10
1.620656959302746
 20
2.257928970069619
 10
1.601374901488316
 20
2.277211027884048
  0
LWPOLYLINE
  5
11A
100
AcDbEntity
  8
USP-GEO
100
AcDbPolyline
 90
       12
 70
   129
 43
0.0
 10
1.601374901488316
 20
2.180800738811903
 10
1.601374901488316
 20
2.219364854440762
 10
1.601374901488316
 20
2.257928970069619
 10
1.620656959302746
 20
2.296493085698477
 10
1.639939017117173
 20
2.296493085698477
 10
1.678503132746032
 20
2.296493085698477
 10
1.697785190560461
 20
2.257928970069619
 10
1.697785190560461
 20
2.219364854440762
 10
1.697785190560461
 20
2.180800738811903
 10
1.678503132746032
 20
2.161518680997474
 10
1.639939017117173
 20
2.142236623183045
 10
1.620656959302746
 20
2.161518680997474
  0
LWPOLYLINE
  5
11B
100
AcDbEntity
  8
USP-GEO
100
AcDbPolyline
 90
        2
 70
   129
 43
0.0
 10
1.17620552668016
 20
1.563774888750179
 10
1.156923468865731
 20
1.602339004379038
  0
LWPOLYLINE
  5
11C
100
AcDbEntity
  8
USP-GEO
100
AcDbPolyline
 90
        5
 70
   128
 43
0.0
 10
1.601374901488316
 20
3.397498586902363
 10
1.620656959302746
 20
3.397498586902363
 10
1.620656959302746
 20
3.357970368382785
 10
1.620656959302746
 20
3.319406252753926
 10
1.601374901488316
 20
3.300124194939499
  0
LWPOLYLINE
  5
11D
100
AcDbEntity
  8
USP-GEO
100
AcDbPolyline
 90
       12
 70
   129
 43
0.0
 10
1.601374901488316
 20
3.319406252753926
 10
1.620656959302746
 20
3.28084213712507
 10
1.639939017117173
 20
3.26156007931064
 10
1.678503132746032
 20
3.28084213712507
 10
1.697785190560461
 20
3.319406252753926
 10
1.697785190560461
 20
3.357970368382785
 10
1.697785190560461
 20
3.397498586902363
 10
1.678503132746032
 20
3.416780644716792
 10
1.639939017117173
 20
3.436062702531222
 10
1.620656959302746
 20
3.416780644716792
 10
1.601374901488316
 20
3.397498586902363
 10
1.601374901488316
 20
3.357970368382785
  0
LWPOLYLINE
  5
11E
100
AcDbEntity
  8
USP-GEO
100
AcDbPolyline
 90
        2
 70
   128
 43
0.0
 10
1.967733999962463
 20
3.628883280675511
 10
1.967733999962463
 20
4.420411753957814
  0
LWPOLYLINE
  5
11F
100
AcDbEntity
  8
USP-GEO
100
AcDbPolyline
 90
        6
 70
   128
 43
0.0
 10
1.620656959302746
 20
6.871161302171723
 10
1.601374901488316
 20
6.986853649058296
 10
1.601374901488316
 20
7.160392169388156
 10
0.0964102890721446
 20
7.160392169388156
 10
0.0
 20
7.160392169388156
 10
0.0
 20
6.986853649058296
  0
LWPOLYLINE
  5
120
100
AcDbEntity
  8
USP-GEO
100
AcDbPolyline
 90
       12
 70
   129
 43
0.0
 10
1.060513179793586
 20
6.349581638291422
 10
1.118359353236874
 20
6.524084261512003
 10
1.235015803014167
 20
6.639776608398577
 10
1.408554323344027
 20
6.697622781841863
 10
1.582092843673887
 20
6.639776608398577
 10
1.697785190560461
 20
6.524084261512003
 10
1.736349306189318
 20
6.349581638291422
 10
1.697785190560461
 20
6.176043117961562
 10
1.582092843673887
 20
6.06035077107499
 10
1.408554323344027
 20
6.021786655446131
 10
1.235015803014167
 20
6.06035077107499
 10
1.118359353236874
 20
6.176043117961562
  0
LWPOLYLINE
  5
121
100
AcDbEntity
  8
USP-GEO
100
AcDbPolyline
 90
        4
 70
   128
 43
0.0
 10
0.0
 20
5.674709614786412
 10
0.0
 20
5.790401961672985
 10
0.0
 20
5.944658424188416
 10
0.0
 20
6.098914886703846
  0
LWPOLYLINE
  5
122
100
AcDbEntity
  8
USP-GEO
100
AcDbPolyline
 90
        3
 70
   128
 43
0.0
 10
0.0964102890721446
 20
5.423078760308115
 10
0.0
 20
5.423078760308115
 10
0.0
 20
5.095283777462825
  0
LWPOLYLINE
  5
123
100
AcDbEntity
  8
USP-GEO
100
AcDbPolyline
 90
        2
 70
   129
 43
0.0
 10
0.1928205781442882
 20
5.133847893091683
 10
0.0964102890721446
 20
5.133847893091683
  0
LWPOLYLINE
  5
124
100
AcDbEntity
  8
USP-GEO
100
AcDbPolyline
 90
        2
 70
   129
 43
0.0
 10
0.0964102890721446
 20
4.960309372761823
 10
0.1928205781442882
 20
4.960309372761823
  0
LWPOLYLINE
  5
125
100
AcDbEntity
  8
USP-GEO
100
AcDbPolyline
 90
        2
 70
   129
 43
0.0
 10
0.0964102890721446
 20
5.018155546205109
 10
0.1928205781442882
 20
5.018155546205109
  0
LWPOLYLINE
  5
126
100
AcDbEntity
  8
USP-GEO
100
AcDbPolyline
 90
        6
 70
   128
 43
0.0
 10
0.0964102890721446
 20
5.095283777462825
 10
0.0
 20
5.095283777462825
 10
0.0
 20
4.99887348839068
 10
0.0
 20
4.902463199318537
 10
0.0
 20
4.844617025875249
 10
0.0964102890721446
 20
4.844617025875249
  0
LWPOLYLINE
  5
127
100
AcDbEntity
  8
USP-GEO
100
AcDbPolyline
 90
        7
 70
   128
 43
0.0
 10
0.1928205781442882
 20
4.960309372761823
 10
0.2313846937731458
 20
4.960309372761823
 10
0.2506667515875751
 20
4.99887348839068
 10
0.2699488094020035
 20
5.037437604019538
 10
0.2506667515875751
 20
5.076001719648395
 10
0.2313846937731458
 20
5.114565835277254
 10
0.1928205781442882
 20
5.133847893091683
  0
LWPOLYLINE
  5
128
100
AcDbEntity
  8
USP-GEO
100
AcDbPolyline
 90
        4
 70
   128
 43
0.0
 10
0.2699488094020035
 20
5.076001719648395
 10
0.2506667515875751
 20
5.056719661833968
 10
0.2313846937731458
 20
5.018155546205109
 10
0.1928205781442882
 20
5.018155546205109
  0
LWPOLYLINE
  5
129
100
AcDbEntity
  8
USP-GEO
100
AcDbPolyline
 90
        5
 70
   128
 43
0.0
 10
0.0964102890721446
 20
5.674709614786412
 10
0.0
 20
5.674709614786412
 10
0.0
 20
5.616863441343125
 10
0.0
 20
5.520453152270981
 10
0.0
 20
5.423078760308115
  0
LWPOLYLINE
  5
12A
100
AcDbEntity
  8
USP-GEO
100
AcDbPolyline
 90
        4
 70
   129
 43
0.0
 10
0.9833849485358712
 20
4.921745257132965
 10
1.099077295422445
 20
4.786770852431963
 10
0.9833849485358712
 20
4.651796447730962
 10
0.8484105438348699
 20
4.786770852431963
  0
LWPOLYLINE
  5
12B
100
AcDbEntity
  8
USP-GEO
100
AcDbPolyline
 90
        4
 70
   129
 43
0.0
 10
0.9833849485358712
 20
4.921745257132965
 10
1.099077295422445
 20
4.786770852431963
 10
0.9833849485358712
 20
4.651796447730962
 10
0.8484105438348699
 20
4.786770852431963
  0
LWPOLYLINE
  5
12C
100
AcDbEntity
  8
USP-GEO
100
AcDbPolyline
 90
        2
 70
   129
 43
0.0
 10
1.0026670063503
 20
4.690360563359819
 10
0.9833849485358712
 20
4.728924678988677
  0
LWPOLYLINE
  5
12D
100
AcDbEntity
  8
USP-GEO
100
AcDbPolyline
 90
        2
 70
   129
 43
0.0
 10
0.9833849485358712
 20
4.728924678988677
 10
0.9448208329070144
 20
4.690360563359819
  0
LWPOLYLINE
  5
12E
100
AcDbEntity
  8
USP-GEO
100
AcDbPolyline
 90
        5
 70
   128
 43
0.0
 10
0.0964102890721446
 20
6.986853649058296
 10
0.0
 20
6.986853649058296
 10
0.0
 20
6.871161302171723
 10
0.0
 20
6.774751013099578
 10
0.0
 20
6.716904839656292
  0
LWPOLYLINE
  5
12F
100
AcDbEntity
  8
USP-GEO
100
AcDbPolyline
 90
        2
 70
   129
 43
0.0
 10
0.0964102890721446
 20
6.697622781841863
 10
0.1928205781442882
 20
6.697622781841863
  0
LWPOLYLINE
  5
130
100
AcDbEntity
  8
USP-GEO
100
AcDbPolyline
 90
        6
 70
   128
 43
0.0
 10
0.0964102890721446
 20
6.716904839656292
 10
0.0
 20
6.716904839656292
 10
0.0
 20
6.601212492769718
 10
0.0
 20
6.466238088068717
 10
0.0
 20
6.291735464848136
 10
0.0964102890721446
 20
6.291735464848136
  0
LWPOLYLINE
  5
131
100
AcDbEntity
  8
USP-GEO
100
AcDbPolyline
 90
        3
 70
   128
 43
0.0
 10
0.0964102890721446
 20
6.098914886703846
 10
0.0
 20
6.098914886703846
 10
0.0
 20
6.291735464848136
  0
LWPOLYLINE
  5
132
100
AcDbEntity
  8
USP-GEO
100
AcDbPolyline
 90
        2
 70
   129
 43
0.0
 10
0.0964102890721446
 20
6.774751013099578
 10
0.1928205781442882
 20
6.774751013099578
  0
LWPOLYLINE
  5
133
100
AcDbEntity
  8
USP-GEO
100
AcDbPolyline
 90
        4
 70
   128
 43
0.0
 10
0.2699488094020035
 20
6.813315128728437
 10
0.2506667515875751
 20
6.813315128728437
 10
0.2313846937731458
 20
6.774751013099578
 10
0.1928205781442882
 20
6.774751013099578
  0
LWPOLYLINE
  5
134
100
AcDbEntity
  8
USP-GEO
100
AcDbPolyline
 90
        4
 70
   129
 43
0.0
 10
0.8484105438348699
 20
6.659058666213006
 10
0.9833849485358712
 20
6.794033070914007
 10
1.099077295422445
 20
6.659058666213006
 10
0.9833849485358712
 20
6.543366319326432
  0
LWPOLYLINE
  5
135
100
AcDbEntity
  8
USP-GEO
100
AcDbPolyline
 90
        4
 70
   129
 43
0.0
 10
0.9833849485358712
 20
6.794033070914007
 10
1.099077295422445
 20
6.659058666213006
 10
0.9833849485358712
 20
6.543366319326432
 10
0.8484105438348699
 20
6.659058666213006
  0
LWPOLYLINE
  5
136
100
AcDbEntity
  8
USP-GEO
100
AcDbPolyline
 90
        2
 70
   129
 43
0.0
 10
1.0026670063503
 20
6.562648377140861
 10
0.9833849485358712
 20
6.601212492769718
  0
LWPOLYLINE
  5
137
100
AcDbEntity
  8
USP-GEO
100
AcDbPolyline
 90
        2
 70
   129
 43
0.0
 10
0.9833849485358712
 20
6.601212492769718
 10
0.9448208329070144
 20
6.562648377140861
  0
LWPOLYLINE
  5
138
100
AcDbEntity
  8
USP-GEO
100
AcDbPolyline
 90
        3
 70
   128
 43
0.0
 10
1.620656959302746
 20
4.99887348839068
 10
1.601374901488316
 20
5.095283777462825
 10
1.601374901488316
 20
5.423078760308115
  0
LWPOLYLINE
  5
139
100
AcDbEntity
  8
USP-GEO
100
AcDbPolyline
 90
       12
 70
   129
 43
0.0
 10
1.697785190560461
 20
6.38814575392028
 10
1.678503132746032
 20
6.426709869549137
 10
1.639939017117173
 20
6.426709869549137
 10
1.620656959302746
 20
6.426709869549137
 10
1.601374901488316
 20
6.38814575392028
 10
1.601374901488316
 20
6.349581638291422
 10
1.601374901488316
 20
6.311017522662565
 10
1.620656959302746
 20
6.291735464848136
 10
1.639939017117173
 20
6.272453407033706
 10
1.678503132746032
 20
6.291735464848136
 10
1.697785190560461
 20
6.311017522662565
 10
1.697785190560461
 20
6.349581638291422
  0
LWPOLYLINE
  5
13A
100
AcDbEntity
  8
USP-GEO
100
AcDbPolyline
 90
        6
 70
   128
 43
0.0
 10
1.601374901488316
 20
6.407427811734709
 10
1.620656959302746
 20
6.38814575392028
 10
1.620656959302746
 20
6.349581638291422
 10
1.620656959302746
 20
6.311017522662565
 10
1.601374901488316
 20
6.291735464848136
 10
1.601374901488316
 20
6.311017522662565
  0
LWPOLYLINE
  5
13B
100
AcDbEntity
  8
USP-GEO
100
AcDbPolyline
 90
        2
 70
   128
 43
0.0
 10
1.967733999962463
 20
6.098914886703846
 10
1.967733999962463
 20
6.291735464848136
  0
LWPOLYLINE
  5
13C
100
AcDbEntity
  8
USP-GEO
100
AcDbPolyline
 90
        2
 70
   128
 43
0.0
 10
4.012596231182644
 20
0.6179899529524456
 10
2.507631618766472
 20
2.277211027884048
  0
LWPOLYLINE
  5
13D
100
AcDbEntity
  8
USP-GEO
100
AcDbPolyline
 90
        2
 70
   129
 43
0.0
 10
4.225662970032084
 20
0.0964102890721428
 10
4.224698867141363
 20
0.0964102890721428
  0
LWPOLYLINE
  5
13E
100
AcDbEntity
  8
USP-GEO
100
AcDbPolyline
 90
        2
 70
   129
 43
0.0
 10
4.225662970032084
 20
0.0
 10
4.224698867141363
 20
0.0
  0
ENDBLK
  5
140
100
AcDbEntity
  8
0
100
AcDbBlockEnd
  0
ENDSEC
  0
SECTION
  2
ENTITIES
  0
INSERT
  5
3
100
AcDbEntity
  8
USP
100
AcDbBlockReference
  2
THDH48_T
 10
7.608478693609276
 20
15.0968411105602
 30
0.0
  0
INSERT
  5
32
100
AcDbEntity
  8
USP
100
AcDbBlockReference
  2
THDH48_F
 10
7.608478693609276
 20
2.18461109512792
 30
0.0
  0
INSERT
  5
F8
100
AcDbEntity
  8
USP
100
AcDbBlockReference
  2
THDH48_S
 10
0.6437994110375734
 20
2.18461109512792
 30
0.0
  0
ENDSEC
  0
SECTION
  2
OBJECTS
  0
DICTIONARY
  5
159
102
{ACAD_XDICTIONARY
360
15A
102
}
100
AcDbDictionary
  3
ACAD_GROUP
350
157
  3
ACAD_MLINESTYLE
350
158
  0
DICTIONARY
  5
9
100
AcDbDictionary
280
     1
  3
ACAD_XREC_ROUNDTRIP
360
A
  0
DICTIONARY
  5
E
100
AcDbDictionary
280
     1
  3
ACAD_XREC_ROUNDTRIP
360
F
  0
DICTIONARY
  5
141
100
AcDbDictionary
280
     1
  3
ACAD_LAYOUTSELFREF
360
142
  0
DICTIONARY
  5
146
100
AcDbDictionary
280
     1
  3
ACAD_LAYOUTSELFREF
360
147
  0
DICTIONARY
  5
15A
100
AcDbDictionary
280
     1
  3
ACAD_XREC_ROUNDTRIP
360
15B
  0
DICTIONARY
  5
157
102
{ACAD_REACTORS
330
159
102
}
100
AcDbDictionary
  0
DICTIONARY
  5
158
102
{ACAD_REACTORS
330
159
102
}
100
AcDbDictionary
  3
STANDARD
350
15C
  0
XRECORD
  5
A
102
{ACAD_REACTORS
330
9
102
}
100
AcDbXrecord
102
EXTNAMES
  1
USP-GEO
  2
USP-Geo
  0
XRECORD
  5
F
102
{ACAD_REACTORS
330
E
102
}
100
AcDbXrecord
102
EXTNAMES
  1
USP-TXT
  2
USP-Txt
  0
XRECORD
  5
142
102
{ACAD_REACTORS
330
141
102
}
100
AcDbXrecord
340
18
  0
XRECORD
  5
147
102
{ACAD_REACTORS
330
146
102
}
100
AcDbXrecord
340
15
  0
XRECORD
  5
15B
102
{ACAD_REACTORS
330
15A
102
}
100
AcDbXrecord
102
EXTNAMES
  1
ACDBVARIABLEDICTIONARY
  2
AcDbVariableDictionary
  0
MLINESTYLE
  5
15C
102
{ACAD_REACTORS
330
158
102
}
100
AcDbMlineStyle
  2
STANDARD
 70
     0
  3

 62
     0
 51
90.0
 52
90.0
 71
     2
 49
0.5
 62
   256
  6
BYLAYER
 49
-0.5
 62
   256
  6
BYLAYER
  0
ENDSEC
  0
EOF
