  0
SECTION
  2
HEADER
  9
$ACADVER
  1
AC1014
  9
$ACADMAINTVER
 70
     9
  9
$DWGCODEPAGE
  3
ANSI_1252
  9
$INSBASE
 10
0.0
 20
0.0
 30
0.0
  9
$EXTMIN
 10
0.0025847512308417
 20
0.0004353341506941
 30
0.0
  9
$EXTMAX
 10
22.84053670498017
 20
19.63417611843677
 30
0.0
  9
$LIMMIN
 10
0.0
 20
0.0
  9
$LIMMAX
 10
12.0
 20
9.0
  9
$ORTHOMODE
 70
     0
  9
$REGENMODE
 70
     1
  9
$FILLMODE
 70
     1
  9
$QTEXTMODE
 70
     0
  9
$MIRRTEXT
 70
     0
  9
$DRAGMODE
 70
     2
  9
$LTSCALE
 40
1.5
  9
$OSMODE
 70
    37
  9
$ATTMODE
 70
     1
  9
$TEXTSIZE
 40
0.4375
  9
$TRACEWID
 40
0.05
  9
$TEXTSTYLE
  7
STANDARD
  9
$CLAYER
  8
0
  9
$CELTYPE
  6
BYLAYER
  9
$CECOLOR
 62
   256
  9
$CELTSCALE
 40
1.0
  9
$DELOBJ
 70
     1
  9
$DISPSILH
 70
     1
  9
$DIMSCALE
 40
6.0
  9
$DIMASZ
 40
0.125
  9
$DIMEXO
 40
0.0625
  9
$DIMDLI
 40
0.37890625
  9
$DIMRND
 40
0.0
  9
$DIMDLE
 40
0.0
  9
$DIMEXE
 40
0.09375
  9
$DIMTP
 40
0.0
  9
$DIMTM
 40
0.0
  9
$DIMTXT
 40
0.109375
  9
$DIMCEN
 40
0.0
  9
$DIMTSZ
 40
0.0
  9
$DIMTOL
 70
     0
  9
$DIMLIM
 70
     0
  9
$DIMTIH
 70
     1
  9
$DIMTOH
 70
     1
  9
$DIMSE1
 70
     0
  9
$DIMSE2
 70
     0
  9
$DIMTAD
 70
     0
  9
$DIMZIN
 70
     8
  9
$DIMBLK
  1

  9
$DIMASO
 70
     1
  9
$DIMSHO
 70
     1
  9
$DIMPOST
  1

  9
$DIMAPOST
  1

  9
$DIMALT
 70
     0
  9
$DIMALTD
 70
     2
  9
$DIMALTF
 40
25.4
  9
$DIMLFAC
 40
1.0
  9
$DIMTOFL
 70
     0
  9
$DIMTVP
 40
0.0
  9
$DIMTIX
 70
     0
  9
$DIMSOXD
 70
     0
  9
$DIMSAH
 70
     0
  9
$DIMBLK1
  1

  9
$DIMBLK2
  1

  9
$DIMSTYLE
  2
STANDARD
  9
$DIMCLRD
 70
     0
  9
$DIMCLRE
 70
     0
  9
$DIMCLRT
 70
   256
  9
$DIMTFAC
 40
1.0
  9
$DIMGAP
 40
0.08984375
  9
$DIMJUST
 70
     0
  9
$DIMSD1
 70
     0
  9
$DIMSD2
 70
     0
  9
$DIMTOLJ
 70
     1
  9
$DIMTZIN
 70
     0
  9
$DIMALTZ
 70
     0
  9
$DIMALTTZ
 70
     0
  9
$DIMFIT
 70
     3
  9
$DIMUPT
 70
     1
  9
$DIMUNIT
 70
     7
  9
$DIMDEC
 70
     4
  9
$DIMTDEC
 70
     4
  9
$DIMALTU
 70
     2
  9
$DIMALTTD
 70
     2
  9
$DIMTXSTY
  7
STANDARD
  9
$DIMAUNIT
 70
     0
  9
$LUNITS
 70
     5
  9
$LUPREC
 70
     6
  9
$SKETCHINC
 40
0.1
  9
$FILLETRAD
 40
0.0
  9
$AUNITS
 70
     0
  9
$AUPREC
 70
     1
  9
$MENU
  1
CUSTOM
  9
$ELEVATION
 40
0.0
  9
$PELEVATION
 40
0.0
  9
$THICKNESS
 40
0.0
  9
$LIMCHECK
 70
     0
  9
$BLIPMODE
 70
     0
  9
$CHAMFERA
 40
0.0
  9
$CHAMFERB
 40
0.0
  9
$CHAMFERC
 40
0.0
  9
$CHAMFERD
 40
0.0
  9
$SKPOLY
 70
     0
  9
$TDCREATE
 40
2451263.663231366
  9
$TDUPDATE
 40
2452759.747320960
  9
$TDINDWG
 40
0.1209259375
  9
$TDUSRTIMER
 40
0.1209259375
  9
$USRTIMER
 70
     1
  9
$ANGBASE
 50
0.0
  9
$ANGDIR
 70
     0
  9
$PDMODE
 70
     0
  9
$PDSIZE
 40
0.0
  9
$PLINEWID
 40
0.0
  9
$COORDS
 70
     1
  9
$SPLFRAME
 70
     0
  9
$SPLINETYPE
 70
     6
  9
$SPLINESEGS
 70
     8
  9
$ATTDIA
 70
     0
  9
$ATTREQ
 70
     1
  9
$HANDLING
 70
     1
  9
$HANDSEED
  5
D8
  9
$SURFTAB1
 70
     6
  9
$SURFTAB2
 70
     6
  9
$SURFTYPE
 70
     6
  9
$SURFU
 70
     6
  9
$SURFV
 70
     6
  9
$UCSNAME
  2

  9
$UCSORG
 10
0.0
 20
0.0
 30
0.0
  9
$UCSXDIR
 10
1.0
 20
0.0
 30
0.0
  9
$UCSYDIR
 10
0.0
 20
1.0
 30
0.0
  9
$PUCSNAME
  2

  9
$PUCSORG
 10
0.0
 20
0.0
 30
0.0
  9
$PUCSXDIR
 10
1.0
 20
0.0
 30
0.0
  9
$PUCSYDIR
 10
0.0
 20
1.0
 30
0.0
  9
$USERI1
 70
     0
  9
$USERI2
 70
     0
  9
$USERI3
 70
     0
  9
$USERI4
 70
     0
  9
$USERI5
 70
     0
  9
$USERR1
 40
0.0
  9
$USERR2
 40
0.0
  9
$USERR3
 40
0.0
  9
$USERR4
 40
0.0
  9
$USERR5
 40
0.0
  9
$WORLDVIEW
 70
     1
  9
$SHADEDGE
 70
     3
  9
$SHADEDIF
 70
    70
  9
$TILEMODE
 70
     1
  9
$MAXACTVP
 70
    16
  9
$PINSBASE
 10
0.0
 20
0.0
 30
0.0
  9
$PLIMCHECK
 70
     0
  9
$PEXTMIN
 10
1.052083323321005
 20
0.7937500251559762
 30
0.0
  9
$PEXTMAX
 10
9.468749909889039
 20
7.143750226403783
 30
0.0
  9
$PLIMMIN
 10
-0.2145830289585384
 20
-0.2812499887361301
  9
$PLIMMAX
 10
10.78541673074557
 20
8.218749770967978
  9
$UNITMODE
 70
     0
  9
$VISRETAIN
 70
     0
  9
$PLINEGEN
 70
     0
  9
$PSLTSCALE
 70
     0
  9
$TREEDEPTH
 70
  3020
  9
$PICKSTYLE
 70
     1
  9
$CMLSTYLE
  2
STANDARD
  9
$CMLJUST
 70
     0
  9
$CMLSCALE
 40
1.0
  9
$PROXYGRAPHICS
 70
     1
  9
$MEASUREMENT
 70
     0
  0
ENDSEC
  0
SECTION
  2
CLASSES
  0
CLASS
  1
ACDBDICTIONARYWDFLT
  2
AcDbDictionaryWithDefault
  3
AutoCAD 2000
 90
        0
280
     0
281
     0
  0
CLASS
  1
ACDBPLACEHOLDER
  2
AcDbPlaceHolder
  3
AutoCAD 2000
 90
        0
280
     0
281
     0
  0
CLASS
  1
LAYOUT
  2
AcDbLayout
  3
AutoCAD 2000
 90
        0
280
     0
281
     0
  0
CLASS
  1
DICTIONARYVAR
  2
AcDbDictionaryVar
  3
"AutoCAD"
 90
        0
280
     0
281
     0
  0
CLASS
  1
LONG_TRANSACTION
  2
AcDbLongTransaction
  3
AutoCAD 2000
 90
        0
280
     0
281
     0
  0
CLASS
  1
LWPOLYLINE
  2
AcDbPolyline
  3
"AutoCAD"
 90
        0
280
     0
281
     1
  0
CLASS
  1
HATCH
  2
AcDbHatch
  3
"ACAD_SEDONA"
 90
        0
280
     0
281
     1
  0
CLASS
  1
XRECORD
  2
AcDbXrecord
  3
"<Built In>"
 90
        0
280
     0
281
     0
  0
CLASS
  1
LONG_TRANSACTION
  2
AcDbLongTransaction
  3
AutoCAD 2000
 90
        0
280
     0
281
     0
  0
CLASS
  1
LWPOLYLINE
  2
AcDbPolyline
  3
"AutoCAD"
 90
        0
280
     0
281
     1
  0
CLASS
  1
HATCH
  2
AcDbHatch
  3
"ACAD_SEDONA"
 90
        0
280
     0
281
     1
  0
CLASS
  1
XRECORD
  2
AcDbXrecord
  3
"<Built In>"
 90
        0
280
     0
281
     0
  0
ENDSEC
  0
SECTION
  2
TABLES
  0
TABLE
  2
VPORT
  5
BA
100
AcDbSymbolTable
 70
     1
  0
VPORT
  5
D4
100
AcDbSymbolTableRecord
100
AcDbViewportTableRecord
  2
*ACTIVE
 70
     0
 10
0.0
 20
0.0
 11
1.0
 21
1.0
 12
-11.67454244210176
 22
20.3297540568132
 13
0.0
 23
0.0
 14
1.0
 24
1.0
 15
0.0
 25
0.0
 16
0.0
 26
0.0
 36
1.0
 17
23.09603071721725
 27
-10.27010416511325
 37
-10.44050274849355
 40
20.26272285746034
 41
1.457627118644067
 42
50.0
 43
10.55307667737539
 44
10.55307667737539
 50
0.0
 51
0.0
 71
     0
 72
   100
 73
     1
 74
     1
 75
     0
 76
     0
 77
     0
 78
     0
  0
ENDTAB
  0
TABLE
  2
LTYPE
  5
B5
100
AcDbSymbolTable
 70
     2
  0
LTYPE
  5
B6
100
AcDbSymbolTableRecord
100
AcDbLinetypeTableRecord
  2
BYBLOCK
 70
     0
  3

 72
    65
 73
     0
 40
0.0
  0
LTYPE
  5
B7
100
AcDbSymbolTableRecord
100
AcDbLinetypeTableRecord
  2
BYLAYER
 70
     0
  3

 72
    65
 73
     0
 40
0.0
  0
LTYPE
  5
5
100
AcDbSymbolTableRecord
100
AcDbLinetypeTableRecord
  2
CONTINUOUS
 70
     0
  3
Solid line
 72
    65
 73
     0
 40
0.0
  0
LTYPE
  5
86
100
AcDbSymbolTableRecord
100
AcDbLinetypeTableRecord
  2
HIDDEN
 70
     0
  3
Hidden __ __ __ __ __ __ __ __ __ __ __ __ __ _
 72
    65
 73
     2
 40
0.375
 49
0.25
 74
     0
 49
-0.125
 74
     0
  0
ENDTAB
  0
TABLE
  2
LAYER
  5
B3
100
AcDbSymbolTable
 70
     5
  0
LAYER
  5
66
100
AcDbSymbolTableRecord
100
AcDbLayerTableRecord
  2
0
 70
     0
 62
     7
  6
CONTINUOUS
  0
LAYER
  5
8
100
AcDbSymbolTableRecord
100
AcDbLayerTableRecord
  2
USP-GEO
 70
     0
 62
     7
  6
CONTINUOUS
  0
LAYER
  5
B
100
AcDbSymbolTableRecord
100
AcDbLayerTableRecord
  2
USP-TXT
 70
     0
 62
     7
  6
CONTINUOUS
  0
LAYER
  5
85
100
AcDbSymbolTableRecord
100
AcDbLayerTableRecord
  2
USP-HID
 70
     0
 62
     7
  6
HIDDEN
  0
LAYER
  5
4
100
AcDbSymbolTableRecord
100
AcDbLayerTableRecord
  2
USP
 70
     0
 62
     7
  6
CONTINUOUS
  0
ENDTAB
  0
TABLE
  2
STYLE
  5
B4
100
AcDbSymbolTable
 70
     1
  0
STYLE
  5
C
100
AcDbSymbolTableRecord
100
AcDbTextStyleTableRecord
  2
STANDARD
 70
     0
 40
0.0
 41
1.0
 50
0.0
 71
     0
 42
0.4375
  3
txt
  4

  0
ENDTAB
  0
TABLE
  2
VIEW
  5
B8
100
AcDbSymbolTable
 70
     0
  0
ENDTAB
  0
TABLE
  2
UCS
  5
B9
100
AcDbSymbolTable
 70
     0
  0
ENDTAB
  0
TABLE
  2
APPID
  5
BC
100
AcDbSymbolTable
 70
     1
  0
APPID
  5
AE
100
AcDbSymbolTableRecord
100
AcDbRegAppTableRecord
  2
ACAD
 70
     0
  0
ENDTAB
  0
TABLE
  2
DIMSTYLE
  5
BD
100
AcDbSymbolTable
 70
     1
  0
DIMSTYLE
105
C5
100
AcDbSymbolTableRecord
100
AcDbDimStyleTableRecord
  2
STANDARD
 70
     0
  3

  4

  5

  6

  7

 40
1.0
 41
0.18
 42
0.0625
 43
0.38
 44
0.18
 45
0.0
 46
0.0
 47
0.0
 48
0.0
140
0.18
141
0.09
142
0.0
143
25.4
144
1.0
145
0.0
146
1.0
147
0.09
 71
     0
 72
     0
 73
     1
 74
     1
 75
     0
 76
     0
 77
     0
 78
     0
170
     0
171
     2
172
     0
173
     0
174
     0
175
     0
176
     0
177
     0
178
     0
270
     2
271
     4
272
     4
273
     2
274
     2
340
C
275
     0
280
     0
281
     0
282
     0
283
     1
284
     0
285
     0
286
     0
287
     3
288
     0
  0
ENDTAB
  0
TABLE
  2
BLOCK_RECORD
  5
1
100
AcDbSymbolTable
 70
     3
  0
BLOCK_RECORD
  5
2
102
{ACAD_XDICTIONARY
360
A5
102
}
100
AcDbSymbolTableRecord
100
AcDbBlockTableRecord
  2
*MODEL_SPACE
  0
BLOCK_RECORD
  5
A9
102
{ACAD_XDICTIONARY
360
AF
102
}
100
AcDbSymbolTableRecord
100
AcDbBlockTableRecord
  2
*PAPER_SPACE
  0
BLOCK_RECORD
  5
6
100
AcDbSymbolTableRecord
100
AcDbBlockTableRecord
  2
THDH28-3_F
  0
BLOCK_RECORD
  5
69
100
AcDbSymbolTableRecord
100
AcDbBlockTableRecord
  2
THDH28-3_T
  0
BLOCK_RECORD
  5
82
100
AcDbSymbolTableRecord
100
AcDbBlockTableRecord
  2
THDH28-3_S
  0
ENDTAB
  0
ENDSEC
  0
SECTION
  2
BLOCKS
  0
BLOCK
  5
A7
100
AcDbEntity
  8
0
100
AcDbBlockBegin
  2
*MODEL_SPACE
 70
     0
 10
0.0
 20
0.0
 30
0.0
  3
*MODEL_SPACE
  1

  0
ENDBLK
  5
A8
100
AcDbEntity
  8
0
100
AcDbBlockEnd
  0
BLOCK
  5
B1
100
AcDbEntity
 67
     1
  8
0
100
AcDbBlockBegin
  2
*PAPER_SPACE
 70
     0
 10
0.0
 20
0.0
 30
0.0
  3
*PAPER_SPACE
  1

  0
ENDBLK
  5
B2
100
AcDbEntity
 67
     1
  8
0
100
AcDbBlockEnd
  0
BLOCK
  5
65
100
AcDbEntity
  8
0
100
AcDbBlockBegin
  2
THDH28-3_F
 70
     0
 10
0.0
 20
0.0
 30
0.0
  3
THDH28-3_F
  1

  0
LINE
  5
7
100
AcDbEntity
  8
USP-GEO
100
AcDbLine
 10
11.33419999999999
 20
2.418488374866289
 30
0.0
 11
8.334199999999999
 21
0.6864375672974126
 31
0.0
  0
LINE
  5
9
100
AcDbEntity
  8
USP-GEO
100
AcDbLine
 10
8.334199999999995
 20
7.229599999999999
 30
0.0
 11
11.33419999999999
 21
7.229600000000001
 31
0.0
  0
TEXT
  5
A
100
AcDbEntity
  8
USP-TXT
100
AcDbText
 10
1.066268227707864
 20
-2.593196263316587
 30
0.0
 40
0.4375
  1
THDH28-3 - FRONT VIEW
 72
     1
 11
5.660018227707865
 21
-2.593196263316587
 31
0.0
100
AcDbText
  0
LINE
  5
D
100
AcDbEntity
  8
USP-GEO
100
AcDbLine
 10
3.104599999999997
 20
0.1045999999999978
 30
0.0
 11
8.229599999999997
 21
0.1046000000000007
 31
0.0
  0
LINE
  5
E
100
AcDbEntity
  8
USP-GEO
100
AcDbLine
 10
8.334199999999995
 20
0.000000000000002
 30
0.0
 11
3.0
 21
0.0
 31
0.0
  0
ARC
  5
F
100
AcDbEntity
  8
USP-GEO
100
AcDbCircle
 10
3.104599999999997
 20
3.479599999999997
 30
0.0
 40
0.3796
100
AcDbArc
 50
105.9949848041248
 51
254.0050151958752
  0
ELLIPSE
  5
10
100
AcDbEntity
  8
USP-GEO
100
AcDbEllipse
 10
2.843161517752264
 20
3.479599999999997
 30
0.0
 11
0.0000000000000001
 21
-0.086
 31
0.0
210
0.0
220
0.0
230
1.0
 40
0.7071067811865474
 41
0.0
 42
6.283185307179586
  0
ELLIPSE
  5
11
100
AcDbEntity
  8
USP-GEO
100
AcDbEllipse
 10
2.919898890095375
 20
3.479599999999997
 30
0.0
 11
0.0
 21
0.086
 31
0.0
210
0.0
220
0.0
230
1.0
 40
0.7071067811865475
 41
1.57079632679488
 42
2.458818297950609
  0
LINE
  5
12
100
AcDbEntity
  8
USP-GEO
100
AcDbLine
 10
2.999999999999992
 20
7.229599999999997
 30
0.0
 11
2.999999999999995
 21
0.0
 31
0.0
  0
CIRCLE
  5
13
100
AcDbEntity
  8
USP-GEO
100
AcDbCircle
 10
1.375
 20
3.479600000000001
 30
0.0
 40
0.086
  0
CIRCLE
  5
14
100
AcDbEntity
  8
USP-GEO
100
AcDbCircle
 10
2.375
 20
3.479599999999997
 30
0.0
 40
0.086
  0
CIRCLE
  5
15
100
AcDbEntity
  8
USP-GEO
100
AcDbCircle
 10
0.3749999999999964
 20
3.479599999999994
 30
0.0
 40
0.086
  0
LINE
  5
16
100
AcDbEntity
  8
USP-GEO
100
AcDbLine
 10
3.104599999999994
 20
7.229599999999997
 30
0.0
 11
3.104599999999996
 21
0.1045999999999978
 31
0.0
  0
LINE
  5
17
100
AcDbEntity
  8
USP-GEO
100
AcDbLine
 10
0.0
 20
2.418488374866278
 30
0.0
 11
-0.0000000000000022
 21
7.229600000000001
 31
0.0
  0
LINE
  5
18
100
AcDbEntity
  8
USP-GEO
100
AcDbLine
 10
2.757188473332467
 20
0.8266248675812507
 30
0.0
 11
0.0000000000000004
 21
2.418488374866279
 31
0.0
  0
CIRCLE
  5
19
100
AcDbEntity
  8
USP-GEO
100
AcDbCircle
 10
2.375
 20
2.229599999999997
 30
0.0
 40
0.086
  0
CIRCLE
  5
1A
100
AcDbEntity
  8
USP-GEO
100
AcDbCircle
 10
0.875
 20
2.854599999999997
 30
0.0
 40
0.086
  0
CIRCLE
  5
1B
100
AcDbEntity
  8
USP-GEO
100
AcDbCircle
 10
1.875
 20
2.854599999999997
 30
0.0
 40
0.086
  0
ARC
  5
1C
100
AcDbEntity
  8
USP-GEO
100
AcDbCircle
 10
3.104599999999997
 20
2.229599999999997
 30
0.0
 40
0.3796
100
AcDbArc
 50
105.9949848041248
 51
254.0050151958752
  0
ARC
  5
1D
100
AcDbEntity
  8
USP-GEO
100
AcDbCircle
 10
3.104600000000001
 20
0.9795999999999978
 30
0.0
 40
0.3796
100
AcDbArc
 50
105.9949848041252
 51
254.0050151958747
  0
ELLIPSE
  5
1E
100
AcDbEntity
  8
USP-GEO
100
AcDbEllipse
 10
2.843161517752264
 20
0.9795999999999978
 30
0.0
 11
0.0000000000000001
 21
-0.086
 31
0.0
210
0.0
220
0.0
230
1.0
 40
0.7071067811865474
 41
0.0
 42
6.283185307179586
  0
ELLIPSE
  5
1F
100
AcDbEntity
  8
USP-GEO
100
AcDbEllipse
 10
2.919898890095375
 20
0.9796000000000013
 30
0.0
 11
0.0
 21
0.086
 31
0.0
210
0.0
220
0.0
230
1.0
 40
0.7071067811865475
 41
1.570796326794881
 42
2.458818297950644
  0
ELLIPSE
  5
20
100
AcDbEntity
  8
USP-GEO
100
AcDbEllipse
 10
2.919898890095375
 20
0.9796000000000013
 30
0.0
 11
0.0
 21
0.086
 31
0.0
210
0.0
220
0.0
230
1.0
 40
0.7071067811865475
 41
0.6827743556392099
 42
1.570796326794896
  0
ELLIPSE
  5
21
100
AcDbEntity
  8
USP-GEO
100
AcDbEllipse
 10
2.919898890095375
 20
2.229599999999997
 30
0.0
 11
0.0
 21
0.086
 31
0.0
210
0.0
220
0.0
230
1.0
 40
0.7071067811865475
 41
0.6827743556391837
 42
1.570796326794896
  0
ELLIPSE
  5
22
100
AcDbEntity
  8
USP-GEO
100
AcDbEllipse
 10
2.919898890095375
 20
2.229599999999997
 30
0.0
 11
0.0
 21
0.086
 31
0.0
210
0.0
220
0.0
230
1.0
 40
0.7071067811865475
 41
1.57079632679488
 42
2.458818297950609
  0
ELLIPSE
  5
23
100
AcDbEntity
  8
USP-GEO
100
AcDbEllipse
 10
2.843161517752264
 20
2.229599999999997
 30
0.0
 11
0.0000000000000001
 21
-0.086
 31
0.0
210
0.0
220
0.0
230
1.0
 40
0.7071067811865474
 41
0.0
 42
6.283185307179586
  0
LINE
  5
24
100
AcDbEntity
  8
USP-GEO
100
AcDbLine
 10
0.0
 20
7.229599999999998
 30
0.0
 11
2.999999999999996
 21
7.229600000000001
 31
0.0
  0
CIRCLE
  5
25
100
AcDbEntity
  8
USP-GEO
100
AcDbCircle
 10
0.375
 20
4.729599999999997
 30
0.0
 40
0.086
  0
CIRCLE
  5
26
100
AcDbEntity
  8
USP-GEO
100
AcDbCircle
 10
0.3749999999999964
 20
5.979599999999997
 30
0.0
 40
0.086
  0
ARC
  5
27
100
AcDbEntity
  8
USP-GEO
100
AcDbCircle
 10
3.104599999999997
 20
5.979599999999997
 30
0.0
 40
0.3796
100
AcDbArc
 50
105.9949848041247
 51
254.0050151958752
  0
CIRCLE
  5
28
100
AcDbEntity
  8
USP-GEO
100
AcDbCircle
 10
2.375
 20
5.979600000000001
 30
0.0
 40
0.086
  0
CIRCLE
  5
29
100
AcDbEntity
  8
USP-GEO
100
AcDbCircle
 10
2.375
 20
4.729599999999994
 30
0.0
 40
0.086
  0
CIRCLE
  5
2A
100
AcDbEntity
  8
USP-GEO
100
AcDbCircle
 10
0.875
 20
4.104599999999997
 30
0.0
 40
0.086
  0
CIRCLE
  5
2B
100
AcDbEntity
  8
USP-GEO
100
AcDbCircle
 10
1.374999999999996
 20
4.729599999999997
 30
0.0
 40
0.086
  0
CIRCLE
  5
2C
100
AcDbEntity
  8
USP-GEO
100
AcDbCircle
 10
1.875
 20
4.104599999999997
 30
0.0
 40
0.086
  0
CIRCLE
  5
2D
100
AcDbEntity
  8
USP-GEO
100
AcDbCircle
 10
0.8749999999999964
 20
5.354599999999994
 30
0.0
 40
0.086
  0
CIRCLE
  5
2E
100
AcDbEntity
  8
USP-GEO
100
AcDbCircle
 10
1.374999999999996
 20
5.979599999999997
 30
0.0
 40
0.086
  0
CIRCLE
  5
2F
100
AcDbEntity
  8
USP-GEO
100
AcDbCircle
 10
1.875
 20
5.354599999999997
 30
0.0
 40
0.086
  0
ARC
  5
30
100
AcDbEntity
  8
USP-GEO
100
AcDbCircle
 10
3.104599999999997
 20
4.729599999999994
 30
0.0
 40
0.3796
100
AcDbArc
 50
105.9949848041247
 51
254.0050151958751
  0
ELLIPSE
  5
31
100
AcDbEntity
  8
USP-GEO
100
AcDbEllipse
 10
2.919898890095375
 20
3.479599999999997
 30
0.0
 11
0.0
 21
0.086
 31
0.0
210
0.0
220
0.0
230
1.0
 40
0.7071067811865475
 41
0.6827743556391831
 42
1.570796326794896
  0
ELLIPSE
  5
32
100
AcDbEntity
  8
USP-GEO
100
AcDbEllipse
 10
2.919898890095375
 20
4.729599999999997
 30
0.0
 11
0.0
 21
0.086
 31
0.0
210
0.0
220
0.0
230
1.0
 40
0.7071067811865475
 41
0.6827743556391831
 42
1.570796326794896
  0
ELLIPSE
  5
33
100
AcDbEntity
  8
USP-GEO
100
AcDbEllipse
 10
2.919898890095375
 20
4.729599999999997
 30
0.0
 11
0.0
 21
0.086
 31
0.0
210
0.0
220
0.0
230
1.0
 40
0.7071067811865475
 41
1.570796326794885
 42
2.458818297950609
  0
ELLIPSE
  5
34
100
AcDbEntity
  8
USP-GEO
100
AcDbEllipse
 10
2.843161517752264
 20
4.729599999999997
 30
0.0
 11
0.0000000000000001
 21
-0.086
 31
0.0
210
0.0
220
0.0
230
1.0
 40
0.7071067811865474
 41
0.0
 42
6.283185307179586
  0
ELLIPSE
  5
35
100
AcDbEntity
  8
USP-GEO
100
AcDbEllipse
 10
2.84316151775226
 20
5.979599999999997
 30
0.0
 11
0.0000000000000001
 21
-0.086
 31
0.0
210
0.0
220
0.0
230
1.0
 40
0.7071067811865474
 41
0.0
 42
6.283185307179586
  0
ELLIPSE
  5
36
100
AcDbEntity
  8
USP-GEO
100
AcDbEllipse
 10
2.919898890095375
 20
5.979600000000001
 30
0.0
 11
0.0
 21
0.086
 31
0.0
210
0.0
220
0.0
230
1.0
 40
0.7071067811865475
 41
0.6827743556392491
 42
1.570796326794896
  0
ELLIPSE
  5
37
100
AcDbEntity
  8
USP-GEO
100
AcDbEllipse
 10
2.919898890095375
 20
5.979600000000001
 30
0.0
 11
0.0
 21
0.086
 31
0.0
210
0.0
220
0.0
230
1.0
 40
0.7071067811865475
 41
1.570796326794885
 42
2.458818297950608
  0
CIRCLE
  5
38
100
AcDbEntity
  8
USP-GEO
100
AcDbCircle
 10
0.8749999999999964
 20
6.604599999999997
 30
0.0
 40
0.086
  0
CIRCLE
  5
39
100
AcDbEntity
  8
USP-GEO
100
AcDbCircle
 10
1.874999999999996
 20
6.604599999999997
 30
0.0
 40
0.086
  0
LINE
  5
3A
100
AcDbEntity
  8
USP-GEO
100
AcDbLine
 10
3.104599999999994
 20
7.229599999999997
 30
0.0
 11
2.999999999999992
 21
7.229599999999997
 31
0.0
  0
LINE
  5
3B
100
AcDbEntity
  8
USP-GEO
100
AcDbLine
 10
8.334199999999995
 20
0.0
 30
0.0
 11
8.334199999999992
 21
7.229600000000001
 31
0.0
  0
LINE
  5
3C
100
AcDbEntity
  8
USP-GEO
100
AcDbLine
 10
8.229599999999997
 20
0.1046000000000014
 30
0.0
 11
8.229599999999994
 21
7.229600000000001
 31
0.0
  0
CIRCLE
  5
3D
100
AcDbEntity
  8
USP-GEO
100
AcDbCircle
 10
10.45919999999999
 20
3.479600000000004
 30
0.0
 40
0.086
  0
CIRCLE
  5
3E
100
AcDbEntity
  8
USP-GEO
100
AcDbCircle
 10
9.459199999999995
 20
3.479600000000004
 30
0.0
 40
0.086
  0
CIRCLE
  5
3F
100
AcDbEntity
  8
USP-GEO
100
AcDbCircle
 10
8.959199999999995
 20
2.854600000000001
 30
0.0
 40
0.086
  0
ARC
  5
40
100
AcDbEntity
  8
USP-GEO
100
AcDbCircle
 10
8.229599999999997
 20
1.604599999999997
 30
0.0
 40
0.3796
100
AcDbArc
 50
285.9949848041253
 51
74.00501519587486
  0
ELLIPSE
  5
41
100
AcDbEntity
  8
USP-GEO
100
AcDbEllipse
 10
8.491038482247731
 20
1.604599999999997
 30
0.0
 11
0.0
 21
-0.0859999999999999
 31
0.0
210
0.0
220
0.0
230
1.0
 40
0.7071067811865476
 41
0.0
 42
6.283185307179586
  0
ELLIPSE
  5
42
100
AcDbEntity
  8
USP-GEO
100
AcDbEllipse
 10
8.41430110990462
 20
1.604599999999997
 30
0.0
 11
0.0
 21
0.086
 31
0.0
210
0.0
220
0.0
230
1.0
 40
0.7071067811865478
 41
4.71238898038473
 42
5.600410951540406
  0
ELLIPSE
  5
43
100
AcDbEntity
  8
USP-GEO
100
AcDbEllipse
 10
8.41430110990462
 20
1.604599999999997
 30
0.0
 11
0.0
 21
0.086
 31
0.0
210
0.0
220
0.0
230
1.0
 40
0.7071067811865478
 41
3.82436700922897
 42
4.712388980384742
  0
ARC
  5
44
100
AcDbEntity
  8
USP-GEO
100
AcDbCircle
 10
8.229599999999997
 20
2.854600000000001
 30
0.0
 40
0.3796
100
AcDbArc
 50
285.9949848041253
 51
74.00501519587471
  0
ELLIPSE
  5
45
100
AcDbEntity
  8
USP-GEO
100
AcDbEllipse
 10
8.41430110990462
 20
2.854600000000001
 30
0.0
 11
0.0
 21
0.086
 31
0.0
210
0.0
220
0.0
230
1.0
 40
0.7071067811865478
 41
4.71238898038473
 42
5.600410951540329
  0
ELLIPSE
  5
46
100
AcDbEntity
  8
USP-GEO
100
AcDbEllipse
 10
8.41430110990462
 20
2.854600000000001
 30
0.0
 11
0.0
 21
0.086
 31
0.0
210
0.0
220
0.0
230
1.0
 40
0.7071067811865478
 41
3.824367009229049
 42
4.712388980384746
  0
ELLIPSE
  5
47
100
AcDbEntity
  8
USP-GEO
100
AcDbEllipse
 10
8.491038482247738
 20
2.854600000000001
 30
0.0
 11
0.0
 21
-0.0859999999999999
 31
0.0
210
0.0
220
0.0
230
1.0
 40
0.7071067811865476
 41
0.0
 42
6.283185307179586
  0
CIRCLE
  5
48
100
AcDbEntity
  8
USP-GEO
100
AcDbCircle
 10
9.459199999999995
 20
2.229600000000001
 30
0.0
 40
0.086
  0
CIRCLE
  5
49
100
AcDbEntity
  8
USP-GEO
100
AcDbCircle
 10
9.959199999999995
 20
2.854600000000001
 30
0.0
 40
0.086
  0
ARC
  5
4A
100
AcDbEntity
  8
USP-GEO
100
AcDbCircle
 10
8.229599999999997
 20
6.604599999999997
 30
0.0
 40
0.3796
100
AcDbArc
 50
285.9949848041251
 51
74.00501519587554
  0
CIRCLE
  5
4B
100
AcDbEntity
  8
USP-GEO
100
AcDbCircle
 10
8.959199999999995
 20
5.354600000000001
 30
0.0
 40
0.086
  0
CIRCLE
  5
4C
100
AcDbEntity
  8
USP-GEO
100
AcDbCircle
 10
8.959199999999995
 20
4.104600000000004
 30
0.0
 40
0.086
  0
ELLIPSE
  5
4D
100
AcDbEntity
  8
USP-GEO
100
AcDbEllipse
 10
8.491038482247731
 20
4.104600000000001
 30
0.0
 11
0.0
 21
-0.0859999999999999
 31
0.0
210
0.0
220
0.0
230
1.0
 40
0.7071067811865476
 41
0.0
 42
6.283185307179586
  0
ARC
  5
4E
100
AcDbEntity
  8
USP-GEO
100
AcDbCircle
 10
8.229599999999997
 20
4.104600000000001
 30
0.0
 40
0.3796
100
AcDbArc
 50
285.9949848041246
 51
74.00501519587514
  0
ELLIPSE
  5
4F
100
AcDbEntity
  8
USP-GEO
100
AcDbEllipse
 10
8.41430110990462
 20
4.104600000000001
 30
0.0
 11
0.0
 21
0.086
 31
0.0
210
0.0
220
0.0
230
1.0
 40
0.7071067811865478
 41
4.712388980384679
 42
5.600410951540403
  0
ELLIPSE
  5
50
100
AcDbEntity
  8
USP-GEO
100
AcDbEllipse
 10
8.41430110990462
 20
4.104600000000001
 30
0.0
 11
0.0
 21
0.086
 31
0.0
210
0.0
220
0.0
230
1.0
 40
0.7071067811865478
 41
3.824367009228974
 42
4.712388980384689
  0
ARC
  5
51
100
AcDbEntity
  8
USP-GEO
100
AcDbCircle
 10
8.229599999999997
 20
5.354599999999997
 30
0.0
 40
0.3796
100
AcDbArc
 50
285.9949848041248
 51
74.00501519587528
  0
ELLIPSE
  5
52
100
AcDbEntity
  8
USP-GEO
100
AcDbEllipse
 10
8.41430110990462
 20
5.354599999999997
 30
0.0
 11
0.0
 21
0.086
 31
0.0
210
0.0
220
0.0
230
1.0
 40
0.7071067811865478
 41
4.71238898038473
 42
5.600410951540403
  0
ELLIPSE
  5
53
100
AcDbEntity
  8
USP-GEO
100
AcDbEllipse
 10
8.41430110990462
 20
5.354599999999997
 30
0.0
 11
0.0
 21
0.086
 31
0.0
210
0.0
220
0.0
230
1.0
 40
0.7071067811865478
 41
3.824367009228974
 42
4.712388980384741
  0
ELLIPSE
  5
54
100
AcDbEntity
  8
USP-GEO
100
AcDbEllipse
 10
8.491038482247731
 20
5.354599999999997
 30
0.0
 11
0.0
 21
-0.0859999999999999
 31
0.0
210
0.0
220
0.0
230
1.0
 40
0.7071067811865476
 41
0.0
 42
6.283185307179586
  0
CIRCLE
  5
55
100
AcDbEntity
  8
USP-GEO
100
AcDbCircle
 10
9.459199999999995
 20
4.729600000000004
 30
0.0
 40
0.086
  0
CIRCLE
  5
56
100
AcDbEntity
  8
USP-GEO
100
AcDbCircle
 10
9.959199999999995
 20
4.104600000000008
 30
0.0
 40
0.086
  0
CIRCLE
  5
57
100
AcDbEntity
  8
USP-GEO
100
AcDbCircle
 10
10.45919999999999
 20
4.729600000000004
 30
0.0
 40
0.086
  0
CIRCLE
  5
58
100
AcDbEntity
  8
USP-GEO
100
AcDbCircle
 10
9.459199999999995
 20
5.979600000000001
 30
0.0
 40
0.086
  0
CIRCLE
  5
59
100
AcDbEntity
  8
USP-GEO
100
AcDbCircle
 10
9.959199999999995
 20
5.354600000000004
 30
0.0
 40
0.086
  0
CIRCLE
  5
5A
100
AcDbEntity
  8
USP-GEO
100
AcDbCircle
 10
10.45919999999999
 20
5.979600000000004
 30
0.0
 40
0.086
  0
CIRCLE
  5
5B
100
AcDbEntity
  8
USP-GEO
100
AcDbCircle
 10
8.959199999999995
 20
6.604600000000001
 30
0.0
 40
0.086
  0
ELLIPSE
  5
5C
100
AcDbEntity
  8
USP-GEO
100
AcDbEllipse
 10
8.41430110990462
 20
6.604600000000001
 30
0.0
 11
0.0
 21
0.086
 31
0.0
210
0.0
220
0.0
230
1.0
 40
0.7071067811865478
 41
4.712388980384679
 42
5.600410951540403
  0
ELLIPSE
  5
5D
100
AcDbEntity
  8
USP-GEO
100
AcDbEllipse
 10
8.41430110990462
 20
6.604600000000001
 30
0.0
 11
0.0
 21
0.086
 31
0.0
210
0.0
220
0.0
230
1.0
 40
0.7071067811865478
 41
3.824367009228974
 42
4.712388980384689
  0
ELLIPSE
  5
5E
100
AcDbEntity
  8
USP-GEO
100
AcDbEllipse
 10
8.491038482247731
 20
6.604600000000001
 30
0.0
 11
0.0
 21
-0.0859999999999999
 31
0.0
210
0.0
220
0.0
230
1.0
 40
0.7071067811865476
 41
0.0
 42
6.283185307179586
  0
LINE
  5
5F
100
AcDbEntity
  8
USP-GEO
100
AcDbLine
 10
8.229599999999994
 20
7.229600000000001
 30
0.0
 11
8.334199999999995
 21
7.229600000000001
 31
0.0
  0
CIRCLE
  5
60
100
AcDbEntity
  8
USP-GEO
100
AcDbCircle
 10
9.959199999999995
 20
6.604600000000004
 30
0.0
 40
0.086
  0
LINE
  5
61
100
AcDbEntity
  8
USP-GEO
100
AcDbLine
 10
11.33419999999999
 20
7.229600000000001
 30
0.0
 11
11.33419999999999
 21
2.418488374866289
 31
0.0
  0
CIRCLE
  5
62
100
AcDbEntity
  8
USP-GEO
100
AcDbCircle
 10
10.95919999999999
 20
4.104600000000004
 30
0.0
 40
0.086
  0
CIRCLE
  5
63
100
AcDbEntity
  8
USP-GEO
100
AcDbCircle
 10
10.95919999999999
 20
5.354600000000001
 30
0.0
 40
0.086
  0
CIRCLE
  5
64
100
AcDbEntity
  8
USP-GEO
100
AcDbCircle
 10
10.95919999999998
 20
6.604600000000001
 30
0.0
 40
0.086
  0
ENDBLK
  5
67
100
AcDbEntity
  8
0
100
AcDbBlockEnd
  0
BLOCK
  5
7F
100
AcDbEntity
  8
0
100
AcDbBlockBegin
  2
THDH28-3_T
 70
     0
 10
0.0
 20
0.0
 30
0.0
  3
THDH28-3_T
  1

  0
LINE
  5
6A
100
AcDbEntity
  8
USP-GEO
100
AcDbLine
 10
8.334199999999999
 20
4.249999999999998
 30
0.0
 11
11.33419999999999
 21
4.249999999999998
 31
0.0
  0
LINE
  5
6B
100
AcDbEntity
  8
USP-GEO
100
AcDbLine
 10
11.33419999999999
 20
4.354600000000003
 30
0.0
 11
8.229600000000001
 21
4.354600000000003
 31
0.0
  0
TEXT
  5
6C
100
AcDbEntity
  8
USP-TXT
100
AcDbText
 10
1.50376822770787
 20
-2.327184575803762
 30
0.0
 40
0.4375
  1
THDH28-3 - TOP VIEW
 72
     1
 11
5.660018227707869
 21
-2.327184575803762
 31
0.0
100
AcDbText
  0
LINE
  5
6D
100
AcDbEntity
  8
USP-GEO
100
AcDbLine
 10
8.229600000000001
 20
4.000000000000001
 30
0.0
 11
3.104600000000001
 21
4.000000000000001
 31
0.0
  0
LINE
  5
6E
100
AcDbEntity
  8
USP-GEO
100
AcDbLine
 10
3.104600000000001
 20
0.0000000000000053
 30
0.0
 11
8.229600000000001
 21
0.0000000000000053
 31
0.0
  0
LINE
  5
6F
100
AcDbEntity
  8
USP-GEO
100
AcDbLine
 10
2.999999999999996
 20
4.250000000000001
 30
0.0
 11
2.999999999999996
 21
0.0000000000000036
 31
0.0
  0
LINE
  5
70
100
AcDbEntity
  8
USP-GEO
100
AcDbLine
 10
3.104600000000001
 20
4.354600000000003
 30
0.0
 11
3.1046
 21
0.0
 31
0.0
  0
LINE
  5
71
100
AcDbEntity
  8
USP-GEO
100
AcDbLine
 10
3.104599999999997
 20
0.0
 30
0.0
 11
2.999999999999996
 21
0.0
 31
0.0
  0
LINE
  5
72
100
AcDbEntity
  8
USP-GEO
100
AcDbLine
 10
3.104600000000001
 20
4.354600000000003
 30
0.0
 11
0.0
 21
4.354600000000003
 31
0.0
  0
LINE
  5
73
100
AcDbEntity
  8
USP-GEO
100
AcDbLine
 10
0.0000000000000036
 20
4.250000000000005
 30
0.0
 11
3.0
 21
4.250000000000005
 31
0.0
  0
LINE
  5
74
100
AcDbEntity
  8
USP-GEO
100
AcDbLine
 10
0.0
 20
4.354600000000003
 30
0.0
 11
0.0
 21
4.250000000000005
 31
0.0
  0
ARC
  5
75
100
AcDbEntity
  8
USP-GEO
100
AcDbCircle
 10
3.104600000000001
 20
3.000000000000001
 30
0.0
 40
0.3796
100
AcDbArc
 50
105.9949848041245
 51
211.9057084630061
  0
LINE
  5
76
100
AcDbEntity
  8
USP-GEO
100
AcDbLine
 10
2.782350334570221
 20
2.799372700934307
 30
0.0
 11
2.903972700934307
 21
2.677750334570221
 31
0.0
  0
ARC
  5
77
100
AcDbEntity
  8
USP-GEO
100
AcDbCircle
 10
3.104600000000001
 20
3.000000000000001
 30
0.0
 40
0.3796
100
AcDbArc
 50
238.0942915369934
 51
254.0050151958753
  0
LINE
  5
78
100
AcDbEntity
  8
USP-GEO
100
AcDbLine
 10
8.334199999999999
 20
0.0
 30
0.0
 11
8.334199999999999
 21
4.250000000000001
 31
0.0
  0
LINE
  5
79
100
AcDbEntity
  8
USP-GEO
100
AcDbLine
 10
8.229600000000001
 20
4.354599999999999
 30
0.0
 11
8.229600000000001
 21
0.0000000000000018
 31
0.0
  0
LINE
  5
7A
100
AcDbEntity
  8
USP-GEO
100
AcDbLine
 10
8.229599999999997
 20
0.0000000000000018
 30
0.0
 11
8.334199999999999
 21
0.0000000000000018
 31
0.0
  0
ARC
  5
7B
100
AcDbEntity
  8
USP-GEO
100
AcDbCircle
 10
8.229600000000001
 20
3.000000000000001
 30
0.0
 40
0.3796
100
AcDbArc
 50
328.0942915369932
 51
74.00501519587544
  0
LINE
  5
7C
100
AcDbEntity
  8
USP-GEO
100
AcDbLine
 10
8.551849665429777
 20
2.799372700934311
 30
0.0
 11
8.430227299065691
 21
2.677750334570225
 31
0.0
  0
ARC
  5
7D
100
AcDbEntity
  8
USP-GEO
100
AcDbCircle
 10
8.229600000000001
 20
3.000000000000001
 30
0.0
 40
0.3796000000000001
100
AcDbArc
 50
285.9949848041245
 51
301.9057084630066
  0
LINE
  5
7E
100
AcDbEntity
  8
USP-GEO
100
AcDbLine
 10
11.33419999999999
 20
4.354600000000003
 30
0.0
 11
11.33419999999999
 21
4.249999999999998
 31
0.0
  0
ENDBLK
  5
80
100
AcDbEntity
  8
0
100
AcDbBlockEnd
  0
BLOCK
  5
A3
100
AcDbEntity
  8
0
100
AcDbBlockBegin
  2
THDH28-3_S
 70
     0
 10
0.0
 20
0.0
 30
0.0
  3
THDH28-3_S
  1

  0
TEXT
  5
83
100
AcDbEntity
  8
USP-TXT
100
AcDbText
 10
-2.195387549294627
 20
-2.593196263316585
 30
0.0
 40
0.4375
  1
THDH28-3 - SIDE VIEW
 72
     1
 11
2.106695784038704
 21
-2.593196263316585
 31
0.0
100
AcDbText
  0
LINE
  5
84
100
AcDbEntity
  8
USP-HID
100
AcDbLine
 10
3.999999999999998
 20
0.1046000000000031
 30
0.0
 11
0.0
 21
0.1046000000000031
 31
0.0
  0
LINE
  5
87
100
AcDbEntity
  8
USP-GEO
100
AcDbLine
 10
-0.0000000000000018
 20
7.229600000000003
 30
0.0
 11
4.249999999999998
 21
7.229600000000003
 31
0.0
  0
LINE
  5
88
100
AcDbEntity
  8
USP-GEO
100
AcDbLine
 10
3.999999999999998
 20
0.0000000000000018
 30
0.0
 11
0.0
 21
0.0
 31
0.0
  0
LINE
  5
89
100
AcDbEntity
  8
USP-GEO
100
AcDbLine
 10
0.0
 20
0.0000000000000018
 30
0.0
 11
0.0
 21
7.229600000000003
 31
0.0
  0
LINE
  5
8A
100
AcDbEntity
  8
USP-GEO
100
AcDbLine
 10
4.249999999999994
 20
7.229600000000003
 30
0.0
 11
4.249999999999994
 21
2.41848837486629
 31
0.0
  0
LINE
  5
8B
100
AcDbEntity
  8
USP-GEO
100
AcDbLine
 10
4.354600000000003
 20
7.22960000000001
 30
0.0
 11
4.354600000000003
 21
2.418488374866287
 31
0.0
  0
CIRCLE
  5
8C
100
AcDbEntity
  8
USP-GEO
100
AcDbCircle
 10
2.125000000000001
 20
2.229600000000003
 30
0.0
 40
0.125
  0
CIRCLE
  5
8D
100
AcDbEntity
  8
USP-GEO
100
AcDbCircle
 10
3.000000000000001
 20
1.604600000000003
 30
0.0
 40
0.3649040969898806
  0
ELLIPSE
  5
8E
100
AcDbEntity
  8
USP-GEO
100
AcDbEllipse
 10
2.738561517752264
 20
1.604599999999999
 30
0.0
 11
0.0
 21
-0.0859999999999999
 31
0.0
210
0.0
220
0.0
230
1.0
 40
0.7071067811865476
 41
0.0
 42
6.283185307179586
  0
ELLIPSE
  5
8F
100
AcDbEntity
  8
USP-GEO
100
AcDbEllipse
 10
2.815298890095375
 20
1.604599999999999
 30
0.0
 11
0.0
 21
0.086
 31
0.0
210
0.0
220
0.0
230
1.0
 40
0.7071067811865476
 41
0.6827743556391838
 42
2.458818297950609
  0
CIRCLE
  5
90
100
AcDbEntity
  8
USP-GEO
100
AcDbCircle
 10
3.000000000000001
 20
2.854600000000003
 30
0.0
 40
0.3649040969898806
  0
ELLIPSE
  5
91
100
AcDbEntity
  8
USP-GEO
100
AcDbEllipse
 10
2.738561517752268
 20
2.854600000000003
 30
0.0
 11
0.0
 21
-0.0859999999999999
 31
0.0
210
0.0
220
0.0
230
1.0
 40
0.7071067811865476
 41
0.0
 42
6.283185307179586
  0
ELLIPSE
  5
92
100
AcDbEntity
  8
USP-GEO
100
AcDbEllipse
 10
2.815298890095375
 20
2.854600000000003
 30
0.0
 11
0.0
 21
0.086
 31
0.0
210
0.0
220
0.0
230
1.0
 40
0.7071067811865476
 41
0.6827743556391659
 42
2.458818297950627
  0
LINE
  5
93
100
AcDbEntity
  8
USP-GEO
100
AcDbLine
 10
4.249999999999998
 20
0.6864375672974072
 30
0.0
 11
3.999999999999998
 21
0.5420999999999989
 31
0.0
  0
LINE
  5
94
100
AcDbEntity
  8
USP-GEO
100
AcDbLine
 10
3.999999999999998
 20
0.5420999999999996
 30
0.0
 11
3.999999999999998
 21
0.0000000000000018
 31
0.0
  0
LINE
  5
95
100
AcDbEntity
  8
USP-GEO
100
AcDbLine
 10
4.249999999999998
 20
2.41848837486629
 30
0.0
 11
4.249999999999998
 21
0.6864375672974143
 31
0.0
  0
LINE
  5
96
100
AcDbEntity
  8
USP-GEO
100
AcDbLine
 10
4.354599999999999
 20
2.418488374866287
 30
0.0
 11
4.354599999999999
 21
0.6864375672974087
 31
0.0
  0
LINE
  5
97
100
AcDbEntity
  8
USP-GEO
100
AcDbLine
 10
4.354599999999999
 20
0.6864375672974088
 30
0.0
 11
4.249999999999998
 21
0.6864375672974088
 31
0.0
  0
LINE
  5
98
100
AcDbEntity
  8
USP-GEO
100
AcDbLine
 10
4.354599999999999
 20
2.418488374866287
 30
0.0
 11
4.249999999999998
 21
2.418488374866287
 31
0.0
  0
CIRCLE
  5
99
100
AcDbEntity
  8
USP-GEO
100
AcDbCircle
 10
3.000000000000001
 20
6.604600000000006
 30
0.0
 40
0.3649040969898805
  0
CIRCLE
  5
9A
100
AcDbEntity
  8
USP-GEO
100
AcDbCircle
 10
2.999999999999998
 20
4.104599999999999
 30
0.0
 40
0.3649040969898806
  0
ELLIPSE
  5
9B
100
AcDbEntity
  8
USP-GEO
100
AcDbEllipse
 10
2.738561517752264
 20
4.104600000000003
 30
0.0
 11
0.0
 21
-0.0859999999999999
 31
0.0
210
0.0
220
0.0
230
1.0
 40
0.7071067811865476
 41
0.0
 42
6.283185307179586
  0
ELLIPSE
  5
9C
100
AcDbEntity
  8
USP-GEO
100
AcDbEllipse
 10
2.815298890095375
 20
4.104600000000003
 30
0.0
 11
0.0
 21
0.086
 31
0.0
210
0.0
220
0.0
230
1.0
 40
0.7071067811865476
 41
0.6827743556391822
 42
2.458818297950611
  0
CIRCLE
  5
9D
100
AcDbEntity
  8
USP-GEO
100
AcDbCircle
 10
2.999999999999998
 20
5.354599999999999
 30
0.0
 40
0.3649040969898805
  0
ELLIPSE
  5
9E
100
AcDbEntity
  8
USP-GEO
100
AcDbEllipse
 10
2.738561517752264
 20
5.354599999999999
 30
0.0
 11
0.0
 21
-0.0859999999999999
 31
0.0
210
0.0
220
0.0
230
1.0
 40
0.7071067811865476
 41
0.0
 42
6.283185307179586
  0
ELLIPSE
  5
9F
100
AcDbEntity
  8
USP-GEO
100
AcDbEllipse
 10
2.815298890095375
 20
5.354599999999999
 30
0.0
 11
0.0
 21
0.086
 31
0.0
210
0.0
220
0.0
230
1.0
 40
0.7071067811865476
 41
0.6827743556391822
 42
2.458818297950611
  0
ELLIPSE
  5
A0
100
AcDbEntity
  8
USP-GEO
100
AcDbEllipse
 10
2.738561517752264
 20
6.604600000000003
 30
0.0
 11
0.0
 21
-0.0859999999999999
 31
0.0
210
0.0
220
0.0
230
1.0
 40
0.7071067811865476
 41
0.0
 42
6.283185307179586
  0
ELLIPSE
  5
A1
100
AcDbEntity
  8
USP-GEO
100
AcDbEllipse
 10
2.815298890095371
 20
6.604600000000003
 30
0.0
 11
0.0
 21
0.086
 31
0.0
210
0.0
220
0.0
230
1.0
 40
0.7071067811865476
 41
0.6827743556391691
 42
2.458818297950624
  0
LINE
  5
A2
100
AcDbEntity
  8
USP-GEO
100
AcDbLine
 10
4.354600000000003
 20
7.22960000000001
 30
0.0
 11
4.249999999999994
 21
7.22960000000001
 31
0.0
  0
ENDBLK
  5
A4
100
AcDbEntity
  8
0
100
AcDbBlockEnd
  0
ENDSEC
  0
SECTION
  2
ENTITIES
  0
INSERT
  5
3
100
AcDbEntity
  8
USP
100
AcDbBlockReference
  2
THDH28-3_F
 10
0.0025847512308452
 20
2.593631597467281
 30
0.0
  0
INSERT
  5
68
100
AcDbEntity
  8
USP
100
AcDbBlockReference
  2
THDH28-3_T
 10
0.0025847512308417
 20
15.27957611843677
 30
0.0
  0
INSERT
  5
81
100
AcDbEntity
  8
USP
100
AcDbBlockReference
  2
THDH28-3_S
 10
16.43175758760815
 20
2.593631597467281
 30
0.0
  0
VIEWPORT
  5
AA
102
{ACAD_XDICTIONARY
360
AB
102
}
100
AcDbEntity
 67
     1
  8
0
100
AcDbViewport
 10
5.285416850893516
 20
3.968749891115924
 30
0.0
 40
13.50573247017707
 41
8.992999745766947
 68
    -1
 69
     1
1001
ACAD
1000
MVIEW
1002
{
1070
    16
1010
0.0
1020
0.0
1030
0.0
1010
0.0
1020
0.0
1030
1.0
1040
0.0
1040
8.992999745766947
1040
5.285416850893516
1040
3.968749891115924
1040
50.0
1040
0.0
1040
0.0
1070
     0
1070
   100
1070
     1
1070
     1
1070
     0
1070
     0
1070
     0
1070
     0
1040
0.0
1040
0.0
1040
0.0
1040
0.5
1040
0.5
1040
0.5
1040
0.5
1070
     0
1002
{
1002
}
1002
}
  0
ENDSEC
  0
SECTION
  2
OBJECTS
  0
DICTIONARY
  5
C1
102
{ACAD_XDICTIONARY
360
C2
102
}
100
AcDbDictionary
  3
ACAD_GROUP
350
BF
  3
ACAD_MLINESTYLE
350
C0
  0
DICTIONARY
  5
A5
100
AcDbDictionary
280
     1
  3
ACAD_LAYOUTSELFREF
360
A6
  0
DICTIONARY
  5
AF
100
AcDbDictionary
280
     1
  3
ACAD_LAYOUTSELFREF
360
B0
  0
DICTIONARY
  5
AB
100
AcDbDictionary
280
     1
  3
ACAD_XREC_ROUNDTRIP
360
AC
  0
DICTIONARY
  5
C2
100
AcDbDictionary
280
     1
  3
ACAD_XREC_ROUNDTRIP
360
C3
  0
DICTIONARY
  5
BF
102
{ACAD_REACTORS
330
C1
102
}
100
AcDbDictionary
  0
DICTIONARY
  5
C0
102
{ACAD_REACTORS
330
C1
102
}
100
AcDbDictionary
  3
STANDARD
350
C4
  0
XRECORD
  5
A6
102
{ACAD_REACTORS
330
A5
102
}
100
AcDbXrecord
340
18
  0
XRECORD
  5
B0
102
{ACAD_REACTORS
330
AF
102
}
100
AcDbXrecord
340
15
  0
XRECORD
  5
AC
102
{ACAD_REACTORS
330
AB
102
}
100
AcDbXrecord
102
UCS
 74
     0
 71
     1
 10
0.0
 20
0.0
 30
0.0
 10
1.0
 20
0.0
 30
0.0
 10
0.0
 20
1.0
 30
0.0
146
0.0
 79
     0
102
VIEW
281
     0
102
NEWVIEWCONTROL
280
     4
  0
XRECORD
  5
C3
102
{ACAD_REACTORS
330
C2
102
}
100
AcDbXrecord
102
EXTNAMES
  1
ACDBVARIABLEDICTIONARY
  2
AcDbVariableDictionary
  0
MLINESTYLE
  5
C4
102
{ACAD_REACTORS
330
C0
102
}
100
AcDbMlineStyle
  2
STANDARD
 70
     0
  3

 62
     0
 51
90.0
 52
90.0
 71
     2
 49
0.5
 62
   256
  6
BYLAYER
 49
-0.5
 62
   256
  6
BYLAYER
  0
ENDSEC
  0
EOF
