  0
SECTION
  2
HEADER
  9
$ACADVER
  1
AC1014
  9
$ACADMAINTVER
 70
     9
  9
$DWGCODEPAGE
  3
ANSI_1252
  9
$INSBASE
 10
0.0
 20
0.0
 30
0.0
  9
$EXTMIN
 10
0.2318376425928448
 20
0.0013204311401509
 30
0.0
  9
$EXTMAX
 10
16.79655811990715
 20
18.47659698447749
 30
0.0
  9
$LIMMIN
 10
0.0
 20
0.0
  9
$LIMMAX
 10
12.0
 20
9.0
  9
$ORTHOMODE
 70
     1
  9
$REGENMODE
 70
     1
  9
$FILLMODE
 70
     1
  9
$QTEXTMODE
 70
     0
  9
$MIRRTEXT
 70
     0
  9
$DRAGMODE
 70
     2
  9
$LTSCALE
 40
1.5
  9
$OSMODE
 70
     0
  9
$ATTMODE
 70
     1
  9
$TEXTSIZE
 40
0.75
  9
$TRACEWID
 40
0.05
  9
$TEXTSTYLE
  7
STANDARD
  9
$CLAYER
  8
USP
  9
$CELTYPE
  6
BYLAYER
  9
$CECOLOR
 62
   256
  9
$CELTSCALE
 40
1.0
  9
$DELOBJ
 70
     1
  9
$DISPSILH
 70
     1
  9
$DIMSCALE
 40
7.0
  9
$DIMASZ
 40
0.125
  9
$DIMEXO
 40
0.0625
  9
$DIMDLI
 40
0.37890625
  9
$DIMRND
 40
0.0
  9
$DIMDLE
 40
0.0
  9
$DIMEXE
 40
0.09375
  9
$DIMTP
 40
0.0
  9
$DIMTM
 40
0.0
  9
$DIMTXT
 40
0.109375
  9
$DIMCEN
 40
0.0
  9
$DIMTSZ
 40
0.0
  9
$DIMTOL
 70
     0
  9
$DIMLIM
 70
     0
  9
$DIMTIH
 70
     1
  9
$DIMTOH
 70
     1
  9
$DIMSE1
 70
     0
  9
$DIMSE2
 70
     0
  9
$DIMTAD
 70
     0
  9
$DIMZIN
 70
     8
  9
$DIMBLK
  1

  9
$DIMASO
 70
     1
  9
$DIMSHO
 70
     1
  9
$DIMPOST
  1

  9
$DIMAPOST
  1

  9
$DIMALT
 70
     0
  9
$DIMALTD
 70
     2
  9
$DIMALTF
 40
25.4
  9
$DIMLFAC
 40
1.0
  9
$DIMTOFL
 70
     0
  9
$DIMTVP
 40
0.0
  9
$DIMTIX
 70
     0
  9
$DIMSOXD
 70
     0
  9
$DIMSAH
 70
     0
  9
$DIMBLK1
  1

  9
$DIMBLK2
  1

  9
$DIMSTYLE
  2
STANDARD
  9
$DIMCLRD
 70
     0
  9
$DIMCLRE
 70
     0
  9
$DIMCLRT
 70
   256
  9
$DIMTFAC
 40
1.0
  9
$DIMGAP
 40
0.08984375
  9
$DIMJUST
 70
     0
  9
$DIMSD1
 70
     0
  9
$DIMSD2
 70
     0
  9
$DIMTOLJ
 70
     1
  9
$DIMTZIN
 70
     0
  9
$DIMALTZ
 70
     0
  9
$DIMALTTZ
 70
     0
  9
$DIMFIT
 70
     3
  9
$DIMUPT
 70
     1
  9
$DIMUNIT
 70
     7
  9
$DIMDEC
 70
     4
  9
$DIMTDEC
 70
     4
  9
$DIMALTU
 70
     2
  9
$DIMALTTD
 70
     2
  9
$DIMTXSTY
  7
STANDARD
  9
$DIMAUNIT
 70
     0
  9
$LUNITS
 70
     5
  9
$LUPREC
 70
     6
  9
$SKETCHINC
 40
0.1
  9
$FILLETRAD
 40
0.0
  9
$AUNITS
 70
     0
  9
$AUPREC
 70
     1
  9
$MENU
  1
CUSTOM
  9
$ELEVATION
 40
0.0
  9
$PELEVATION
 40
0.0
  9
$THICKNESS
 40
0.0
  9
$LIMCHECK
 70
     0
  9
$BLIPMODE
 70
     0
  9
$CHAMFERA
 40
0.0
  9
$CHAMFERB
 40
0.0
  9
$CHAMFERC
 40
0.0
  9
$CHAMFERD
 40
0.0
  9
$SKPOLY
 70
     0
  9
$TDCREATE
 40
2451263.663231366
  9
$TDUPDATE
 40
2452768.687126007
  9
$TDINDWG
 40
0.4381430440
  9
$TDUSRTIMER
 40
0.4381430440
  9
$USRTIMER
 70
     1
  9
$ANGBASE
 50
0.0
  9
$ANGDIR
 70
     0
  9
$PDMODE
 70
     0
  9
$PDSIZE
 40
0.0
  9
$PLINEWID
 40
0.0
  9
$COORDS
 70
     2
  9
$SPLFRAME
 70
     0
  9
$SPLINETYPE
 70
     6
  9
$SPLINESEGS
 70
     8
  9
$ATTDIA
 70
     0
  9
$ATTREQ
 70
     0
  9
$HANDLING
 70
     1
  9
$HANDSEED
  5
142
  9
$SURFTAB1
 70
     6
  9
$SURFTAB2
 70
     6
  9
$SURFTYPE
 70
     6
  9
$SURFU
 70
     6
  9
$SURFV
 70
     6
  9
$UCSNAME
  2

  9
$UCSORG
 10
0.0
 20
0.0
 30
0.0
  9
$UCSXDIR
 10
1.0
 20
0.0
 30
0.0
  9
$UCSYDIR
 10
0.0
 20
1.0
 30
0.0
  9
$PUCSNAME
  2

  9
$PUCSORG
 10
0.0
 20
0.0
 30
0.0
  9
$PUCSXDIR
 10
1.0
 20
0.0
 30
0.0
  9
$PUCSYDIR
 10
0.0
 20
1.0
 30
0.0
  9
$USERI1
 70
     0
  9
$USERI2
 70
     0
  9
$USERI3
 70
     0
  9
$USERI4
 70
     0
  9
$USERI5
 70
     0
  9
$USERR1
 40
0.0
  9
$USERR2
 40
0.0
  9
$USERR3
 40
0.0
  9
$USERR4
 40
0.0
  9
$USERR5
 40
0.0
  9
$WORLDVIEW
 70
     1
  9
$SHADEDGE
 70
     3
  9
$SHADEDIF
 70
    70
  9
$TILEMODE
 70
     1
  9
$MAXACTVP
 70
    16
  9
$PINSBASE
 10
0.0
 20
0.0
 30
0.0
  9
$PLIMCHECK
 70
     0
  9
$PEXTMIN
 10
1.000000000000000E+20
 20
1.000000000000000E+20
 30
1.000000000000000E+20
  9
$PEXTMAX
 10
-1.000000000000000E+20
 20
-1.000000000000000E+20
 30
-1.000000000000000E+20
  9
$PLIMMIN
 10
0.0
 20
0.0
  9
$PLIMMAX
 10
12.0
 20
9.0
  9
$UNITMODE
 70
     0
  9
$VISRETAIN
 70
     0
  9
$PLINEGEN
 70
     0
  9
$PSLTSCALE
 70
     0
  9
$TREEDEPTH
 70
  3020
  9
$PICKSTYLE
 70
     0
  9
$CMLSTYLE
  2
STANDARD
  9
$CMLJUST
 70
     0
  9
$CMLSCALE
 40
1.0
  9
$PROXYGRAPHICS
 70
     1
  9
$MEASUREMENT
 70
     0
  0
ENDSEC
  0
SECTION
  2
CLASSES
  0
CLASS
  1
ACDBDICTIONARYWDFLT
  2
AcDbDictionaryWithDefault
  3
AutoCAD 2000
 90
        0
280
     0
281
     0
  0
CLASS
  1
ACDBPLACEHOLDER
  2
AcDbPlaceHolder
  3
AutoCAD 2000
 90
        0
280
     0
281
     0
  0
CLASS
  1
LAYOUT
  2
AcDbLayout
  3
AutoCAD 2000
 90
        0
280
     0
281
     0
  0
CLASS
  1
DICTIONARYVAR
  2
AcDbDictionaryVar
  3
"AutoCAD"
 90
        0
280
     0
281
     0
  0
CLASS
  1
LONG_TRANSACTION
  2
AcDbLongTransaction
  3
AutoCAD 2000
 90
        0
280
     0
281
     0
  0
CLASS
  1
LWPOLYLINE
  2
AcDbPolyline
  3
"AutoCAD"
 90
        0
280
     0
281
     1
  0
CLASS
  1
HATCH
  2
AcDbHatch
  3
"ACAD_SEDONA"
 90
        0
280
     0
281
     1
  0
CLASS
  1
XRECORD
  2
AcDbXrecord
  3
"<Built In>"
 90
        0
280
     0
281
     0
  0
CLASS
  1
LONG_TRANSACTION
  2
AcDbLongTransaction
  3
AutoCAD 2000
 90
        0
280
     0
281
     0
  0
CLASS
  1
LWPOLYLINE
  2
AcDbPolyline
  3
"AutoCAD"
 90
        0
280
     0
281
     1
  0
CLASS
  1
HATCH
  2
AcDbHatch
  3
"ACAD_SEDONA"
 90
        0
280
     0
281
     1
  0
CLASS
  1
XRECORD
  2
AcDbXrecord
  3
"<Built In>"
 90
        0
280
     0
281
     0
  0
ENDSEC
  0
SECTION
  2
TABLES
  0
TABLE
  2
VPORT
  5
132
100
AcDbSymbolTable
 70
     1
  0
VPORT
  5
133
100
AcDbSymbolTableRecord
100
AcDbViewportTableRecord
  2
*ACTIVE
 70
     0
 10
0.0
 20
0.0
 11
1.0
 21
1.0
 12
-14.93448130313496
 22
19.97581098073629
 13
0.0
 23
0.0
 14
1.0
 24
1.0
 15
0.0
 25
0.0
 16
0.0
 26
0.0
 36
1.0
 17
23.09603071721725
 27
-10.27010416511325
 37
-10.44050274849355
 40
27.97910068472523
 41
1.457627118644067
 42
50.0
 43
10.55307667737539
 44
10.55307667737539
 50
0.0
 51
0.0
 71
     0
 72
   100
 73
     1
 74
     1
 75
     0
 76
     0
 77
     0
 78
     0
  0
ENDTAB
  0
TABLE
  2
LTYPE
  5
12D
100
AcDbSymbolTable
 70
     1
  0
LTYPE
  5
12E
100
AcDbSymbolTableRecord
100
AcDbLinetypeTableRecord
  2
BYBLOCK
 70
     0
  3

 72
    65
 73
     0
 40
0.0
  0
LTYPE
  5
12F
100
AcDbSymbolTableRecord
100
AcDbLinetypeTableRecord
  2
BYLAYER
 70
     0
  3

 72
    65
 73
     0
 40
0.0
  0
LTYPE
  5
5
100
AcDbSymbolTableRecord
100
AcDbLinetypeTableRecord
  2
CONTINUOUS
 70
     0
  3
Solid line
 72
    65
 73
     0
 40
0.0
  0
ENDTAB
  0
TABLE
  2
LAYER
  5
12B
100
AcDbSymbolTable
 70
     4
  0
LAYER
  5
25
100
AcDbSymbolTableRecord
100
AcDbLayerTableRecord
  2
0
 70
     0
 62
     7
  6
CONTINUOUS
  0
LAYER
  5
8
102
{ACAD_XDICTIONARY
360
9
102
}
100
AcDbSymbolTableRecord
100
AcDbLayerTableRecord
  2
USP-GEO
 70
     0
 62
     7
  6
CONTINUOUS
  0
LAYER
  5
C
102
{ACAD_XDICTIONARY
360
D
102
}
100
AcDbSymbolTableRecord
100
AcDbLayerTableRecord
  2
USP-TXT
 70
     0
 62
     7
  6
CONTINUOUS
  0
LAYER
  5
4
100
AcDbSymbolTableRecord
100
AcDbLayerTableRecord
  2
USP
 70
     0
 62
     7
  6
CONTINUOUS
  0
ENDTAB
  0
TABLE
  2
STYLE
  5
12C
100
AcDbSymbolTable
 70
     1
  0
STYLE
  5
F
100
AcDbSymbolTableRecord
100
AcDbTextStyleTableRecord
  2
STANDARD
 70
     0
 40
0.0
 41
1.0
 50
0.0
 71
     0
 42
0.75
  3
txt
  4

  0
ENDTAB
  0
TABLE
  2
VIEW
  5
130
100
AcDbSymbolTable
 70
     0
  0
ENDTAB
  0
TABLE
  2
UCS
  5
131
100
AcDbSymbolTable
 70
     0
  0
ENDTAB
  0
TABLE
  2
APPID
  5
134
100
AcDbSymbolTable
 70
     1
  0
APPID
  5
135
100
AcDbSymbolTableRecord
100
AcDbRegAppTableRecord
  2
ACAD
 70
     0
  0
ENDTAB
  0
TABLE
  2
DIMSTYLE
  5
136
100
AcDbSymbolTable
 70
     1
  0
DIMSTYLE
105
13E
100
AcDbSymbolTableRecord
100
AcDbDimStyleTableRecord
  2
STANDARD
 70
     0
  3

  4

  5

  6

  7

 40
1.0
 41
0.18
 42
0.0625
 43
0.38
 44
0.18
 45
0.0
 46
0.0
 47
0.0
 48
0.0
140
0.18
141
0.09
142
0.0
143
25.4
144
1.0
145
0.0
146
1.0
147
0.09
 71
     0
 72
     0
 73
     1
 74
     1
 75
     0
 76
     0
 77
     0
 78
     0
170
     0
171
     2
172
     0
173
     0
174
     0
175
     0
176
     0
177
     0
178
     0
270
     2
271
     4
272
     4
273
     2
274
     2
340
F
275
     0
280
     0
281
     0
282
     0
283
     1
284
     0
285
     0
286
     0
287
     3
288
     0
  0
ENDTAB
  0
TABLE
  2
BLOCK_RECORD
  5
1
100
AcDbSymbolTable
 70
     3
  0
BLOCK_RECORD
  5
2
102
{ACAD_XDICTIONARY
360
122
102
}
100
AcDbSymbolTableRecord
100
AcDbBlockTableRecord
  2
*MODEL_SPACE
  0
BLOCK_RECORD
  5
126
102
{ACAD_XDICTIONARY
360
127
102
}
100
AcDbSymbolTableRecord
100
AcDbBlockTableRecord
  2
*PAPER_SPACE
  0
BLOCK_RECORD
  5
6
100
AcDbSymbolTableRecord
100
AcDbBlockTableRecord
  2
THDH28-2_T
  0
BLOCK_RECORD
  5
28
100
AcDbSymbolTableRecord
100
AcDbBlockTableRecord
  2
THDH28-2_F
  0
BLOCK_RECORD
  5
DC
100
AcDbSymbolTableRecord
100
AcDbBlockTableRecord
  2
THDH28-2_S
  0
ENDTAB
  0
ENDSEC
  0
SECTION
  2
BLOCKS
  0
BLOCK
  5
124
100
AcDbEntity
  8
0
100
AcDbBlockBegin
  2
*MODEL_SPACE
 70
     0
 10
0.0
 20
0.0
 30
0.0
  3
*MODEL_SPACE
  1

  0
ENDBLK
  5
125
100
AcDbEntity
  8
0
100
AcDbBlockEnd
  0
BLOCK
  5
129
100
AcDbEntity
 67
     1
  8
0
100
AcDbBlockBegin
  2
*PAPER_SPACE
 70
     0
 10
0.0
 20
0.0
 30
0.0
  3
*PAPER_SPACE
  1

  0
ENDBLK
  5
12A
100
AcDbEntity
 67
     1
  8
0
100
AcDbBlockEnd
  0
BLOCK
  5
24
100
AcDbEntity
  8
0
100
AcDbBlockBegin
  2
THDH28-2_T
 70
     0
 10
0.0
 20
0.0
 30
0.0
  3
THDH28-2_T
  1

  0
LWPOLYLINE
  5
7
100
AcDbEntity
  8
USP-GEO
100
AcDbPolyline
 90
       73
 70
   128
 43
0.0
 10
2.509825929516603
 20
3.156184480799169
 10
2.436061758186211
 20
3.13774343796657
 10
2.306974458358025
 20
3.008656138138384
 10
2.251651329860232
 20
2.824245709812402
 10
2.306974458358025
 20
2.63891322934479
 10
2.306974458358025
 20
2.620472186512191
 10
2.325415501190624
 20
2.602031143679596
 10
2.362297586855818
 20
2.583590100846997
 10
2.380738629688417
 20
2.546708015181799
 10
2.417620715353612
 20
2.528266972349204
 10
2.436061758186211
 20
2.509825929516605
 10
2.509825929516603
 20
2.491384886684006
 10
2.602031143679594
 20
2.491384886684006
 10
2.602031143679594
 20
2.36229758685582
 10
2.602031143679594
 20
2.288533415525428
 10
2.602031143679594
 20
2.25165132986023
 10
2.509825929516603
 20
2.25165132986023
 10
2.509825929516603
 20
2.288533415525428
 10
2.509825929516603
 20
2.36229758685582
 10
2.509825929516603
 20
2.491384886684006
 10
2.509825929516603
 20
2.565149058014398
 10
2.509825929516603
 20
2.602031143679596
 10
2.509825929516603
 20
2.620472186512191
 10
2.509825929516603
 20
4.134481803068499
 10
2.509825929516603
 20
2.620472186512191
 10
2.602031143679594
 20
2.620472186512191
 10
2.602031143679594
 20
4.22668701723149
 10
0.0
 20
4.22668701723149
 10
0.0
 20
4.134481803068499
 10
2.509825929516603
 20
4.134481803068499
 10
0.0
 20
4.134481803068499
 10
0.0
 20
4.22668701723149
 10
2.602031143679594
 20
4.22668701723149
 10
2.602031143679594
 20
2.620472186512191
 10
2.602031143679594
 20
2.602031143679596
 10
2.602031143679594
 20
2.565149058014398
 10
2.602031143679594
 20
2.491384886684006
 10
2.602031143679594
 20
2.36229758685582
 10
2.602031143679594
 20
2.288533415525428
 10
2.602031143679594
 20
2.25165132986023
 10
2.602031143679594
 20
2.196328201362437
 10
2.602031143679594
 20
2.011917773036454
 10
2.602031143679594
 20
1.734380078405854
 10
2.602031143679594
 20
2.011917773036454
 10
2.602031143679594
 20
2.196328201362437
 10
2.602031143679594
 20
2.25165132986023
 10
2.509825929516603
 20
2.25165132986023
 10
2.509825929516603
 20
2.196328201362437
 10
2.509825929516603
 20
2.011917773036454
 10
2.509825929516603
 20
1.734380078405854
 10
2.602031143679594
 20
1.734380078405854
 10
2.602031143679594
 20
0.2028514711585814
 10
2.602031143679594
 20
0.0922052141629912
 10
2.602031143679594
 20
0.018441042832599
 10
2.602031143679594
 20
0.0
 10
3.359035951957748
 20
0.0
 10
3.359035951957748
 20
0.0368820856651979
 10
3.395918037622942
 20
0.0553231284977951
 10
3.414359080455541
 20
0.0553231284977951
 10
3.672533680111916
 20
0.0553231284977951
 10
3.70941576577711
 20
0.0553231284977951
 10
3.727856808609709
 20
0.0368820856651979
 10
3.727856808609709
 20
0.0
 10
4.724595173711639
 20
0.0
 10
4.743036216544235
 20
0.0368820856651979
 10
4.761477259376833
 20
0.0553231284977951
 10
4.798359345042031
 20
0.0553231284977951
 10
5.038092901865807
 20
0.0553231284977951
 10
5.074974987531001
 20
0.0553231284977951
 10
5.0934160303636
 20
0.0368820856651979
 10
5.111857073196199
 20
0.0
 10
5.849498786500122
 20
0.0
 10
5.111857073196199
 20
0.0
  0
TEXT
  5
B
100
AcDbEntity
  8
USP-TXT
100
AcDbText
 10
1.405913491160675
 20
-2.187802361978437
 30
0.0
 40
0.296875
  1
THDH28-2 - TOP VIEW
 72
     1
 11
4.226225991160674
 21
-2.187802361978437
 31
0.0
100
AcDbText
  0
LWPOLYLINE
  5
10
100
AcDbEntity
  8
USP-GEO
100
AcDbPolyline
 90
        2
 70
   129
 43
0.0
 10
5.111857073196199
 20
4.005394503240314
 10
5.849498786500122
 20
4.005394503240314
  0
LWPOLYLINE
  5
11
100
AcDbEntity
  8
USP-GEO
100
AcDbPolyline
 90
       20
 70
   128
 43
0.0
 10
2.602031143679594
 20
2.491384886684006
 10
2.602031143679594
 20
2.565149058014398
 10
2.602031143679594
 20
2.602031143679596
 10
2.602031143679594
 20
2.620472186512191
 10
2.509825929516603
 20
2.620472186512191
 10
2.509825929516603
 20
2.602031143679596
 10
2.509825929516603
 20
2.565149058014398
 10
2.509825929516603
 20
2.491384886684006
 10
2.509825929516603
 20
2.36229758685582
 10
2.509825929516603
 20
2.288533415525428
 10
2.509825929516603
 20
2.25165132986023
 10
2.509825929516603
 20
2.196328201362437
 10
2.509825929516603
 20
2.011917773036454
 10
2.509825929516603
 20
1.734380078405854
 10
2.509825929516603
 20
0.2028514711585814
 10
2.509825929516603
 20
0.0922052141629912
 10
2.509825929516603
 20
0.018441042832599
 10
2.509825929516603
 20
0.0
 10
2.602031143679594
 20
0.0
 10
3.359035951957748
 20
0.0
  0
LWPOLYLINE
  5
12
100
AcDbEntity
  8
USP-GEO
100
AcDbPolyline
 90
       10
 70
   128
 43
0.0
 10
2.509825929516603
 20
1.734380078405854
 10
2.509825929516603
 20
0.2028514711585814
 10
2.509825929516603
 20
0.0922052141629912
 10
2.509825929516603
 20
0.018441042832599
 10
2.509825929516603
 20
0.0
 10
2.602031143679594
 20
0.0
 10
2.602031143679594
 20
0.018441042832599
 10
2.602031143679594
 20
0.0922052141629912
 10
2.602031143679594
 20
0.2028514711585814
 10
2.602031143679594
 20
1.734380078405854
  0
LWPOLYLINE
  5
13
100
AcDbEntity
  8
USP-GEO
100
AcDbPolyline
 90
        2
 70
   128
 43
0.0
 10
2.602031143679594
 20
0.2028514711585814
 10
2.509825929516603
 20
0.2028514711585814
  0
LWPOLYLINE
  5
14
100
AcDbEntity
  8
USP-GEO
100
AcDbPolyline
 90
        3
 70
   128
 43
0.0
 10
3.727856808609709
 20
0.0368820856651979
 10
3.727856808609709
 20
0.0
 10
4.724595173711639
 20
0.0
  0
LWPOLYLINE
  5
15
100
AcDbEntity
  8
USP-GEO
100
AcDbPolyline
 90
        3
 70
   128
 43
0.0
 10
3.395918037622942
 20
0.0553231284977951
 10
3.414359080455541
 20
0.0553231284977951
 10
3.672533680111916
 20
0.0553231284977951
  0
LWPOLYLINE
  5
16
100
AcDbEntity
  8
USP-GEO
100
AcDbPolyline
 90
        2
 70
   128
 43
0.0
 10
4.798359345042031
 20
0.0553231284977951
 10
5.038092901865807
 20
0.0553231284977951
  0
LWPOLYLINE
  5
17
100
AcDbEntity
  8
USP-GEO
100
AcDbPolyline
 90
        2
 70
   129
 43
0.0
 10
2.602031143679594
 20
4.005394503240314
 10
3.359035951957748
 20
4.005394503240314
  0
LWPOLYLINE
  5
18
100
AcDbEntity
  8
USP-GEO
100
AcDbPolyline
 90
        2
 70
   128
 43
0.0
 10
2.306974458358025
 20
2.63891322934479
 10
2.307896510499654
 20
2.63891322934479
  0
LWPOLYLINE
  5
19
100
AcDbEntity
  8
USP-GEO
100
AcDbPolyline
 90
        2
 70
   128
 43
0.0
 10
2.417620715353612
 20
2.528266972349204
 10
2.418542767495244
 20
2.528266972349204
  0
LWPOLYLINE
  5
1A
100
AcDbEntity
  8
USP-GEO
100
AcDbPolyline
 90
       16
 70
   128
 43
0.0
 10
5.111857073196199
 20
4.005394503240314
 10
5.0934160303636
 20
3.968512417575116
 10
5.074974987531001
 20
3.950071374742517
 10
5.038092901865807
 20
3.950071374742517
 10
4.798359345042031
 20
3.950071374742517
 10
4.761477259376833
 20
3.950071374742517
 10
4.743036216544235
 20
3.968512417575116
 10
4.724595173711639
 20
4.005394503240314
 10
3.727856808609709
 20
4.005394503240314
 10
3.727856808609709
 20
3.968512417575116
 10
3.70941576577711
 20
3.950071374742517
 10
3.672533680111916
 20
3.950071374742517
 10
3.414359080455541
 20
3.950071374742517
 10
3.395918037622942
 20
3.950071374742517
 10
3.359035951957748
 20
3.968512417575116
 10
3.359035951957748
 20
4.005394503240314
  0
LWPOLYLINE
  5
1B
100
AcDbEntity
  8
USP-GEO
100
AcDbPolyline
 90
        3
 70
   128
 43
0.0
 10
4.743036216544235
 20
3.968512417575116
 10
4.724595173711639
 20
4.005394503240314
 10
3.727856808609709
 20
4.005394503240314
  0
LWPOLYLINE
  5
1C
100
AcDbEntity
  8
USP-GEO
100
AcDbPolyline
 90
        3
 70
   128
 43
0.0
 10
3.70941576577711
 20
3.950071374742517
 10
3.672533680111916
 20
3.950071374742517
 10
3.414359080455541
 20
3.950071374742517
  0
LWPOLYLINE
  5
1D
100
AcDbEntity
  8
USP-GEO
100
AcDbPolyline
 90
        3
 70
   128
 43
0.0
 10
5.074974987531001
 20
3.950071374742517
 10
5.038092901865807
 20
3.950071374742517
 10
4.798359345042031
 20
3.950071374742517
  0
LWPOLYLINE
  5
1E
100
AcDbEntity
  8
USP-GEO
100
AcDbPolyline
 90
       36
 70
   129
 43
0.0
 10
5.849498786500122
 20
2.620472186512191
 10
5.849498786500122
 20
2.602031143679596
 10
5.849498786500122
 20
2.565149058014398
 10
5.849498786500122
 20
2.491384886684006
 10
5.849498786500122
 20
2.36229758685582
 10
5.849498786500122
 20
2.288533415525428
 10
5.849498786500122
 20
2.25165132986023
 10
5.849498786500122
 20
2.196328201362437
 10
5.849498786500122
 20
2.011917773036454
 10
5.849498786500122
 20
1.734380078405854
 10
5.849498786500122
 20
0.2028514711585814
 10
5.849498786500122
 20
0.0922052141629912
 10
5.849498786500122
 20
0.018441042832599
 10
5.849498786500122
 20
0.0
 10
5.960145043495712
 20
0.0
 10
5.960145043495712
 20
0.018441042832599
 10
5.960145043495712
 20
0.0922052141629912
 10
5.960145043495712
 20
0.2028514711585814
 10
5.960145043495712
 20
1.734380078405854
 10
5.960145043495712
 20
2.011917773036454
 10
5.960145043495712
 20
2.196328201362437
 10
5.960145043495712
 20
2.25165132986023
 10
5.960145043495712
 20
2.288533415525428
 10
5.960145043495712
 20
2.36229758685582
 10
5.960145043495712
 20
2.491384886684006
 10
5.960145043495712
 20
2.565149058014398
 10
5.960145043495712
 20
2.602031143679596
 10
5.960145043495712
 20
2.620472186512191
 10
5.849498786500122
 20
2.620472186512191
 10
5.849498786500122
 20
4.22668701723149
 10
8.469970973012317
 20
4.22668701723149
 10
8.469970973012317
 20
4.134481803068499
 10
5.960145043495712
 20
4.134481803068499
 10
8.469970973012317
 20
4.134481803068499
 10
8.469970973012317
 20
4.22668701723149
 10
5.849498786500122
 20
4.22668701723149
  0
LWPOLYLINE
  5
1F
100
AcDbEntity
  8
USP-GEO
100
AcDbPolyline
 90
       10
 70
   129
 43
0.0
 10
5.849498786500122
 20
0.2028514711585814
 10
5.849498786500122
 20
1.734380078405854
 10
5.960145043495712
 20
1.734380078405854
 10
5.960145043495712
 20
0.2028514711585814
 10
5.960145043495712
 20
0.0922052141629912
 10
5.960145043495712
 20
0.018441042832599
 10
5.960145043495712
 20
0.0
 10
5.849498786500122
 20
0.0
 10
5.849498786500122
 20
0.018441042832599
 10
5.849498786500122
 20
0.0922052141629912
  0
LWPOLYLINE
  5
20
100
AcDbEntity
  8
USP-GEO
100
AcDbPolyline
 90
        2
 70
   128
 43
0.0
 10
5.960145043495712
 20
0.2028514711585814
 10
5.849498786500122
 20
0.2028514711585814
  0
LWPOLYLINE
  5
21
100
AcDbEntity
  8
USP-GEO
100
AcDbPolyline
 90
        2
 70
   129
 43
0.0
 10
5.960145043495712
 20
4.134481803068499
 10
5.960145043495712
 20
2.620472186512191
  0
LWPOLYLINE
  5
22
100
AcDbEntity
  8
USP-GEO
100
AcDbPolyline
 90
        8
 70
   128
 43
0.0
 10
5.960145043495712
 20
1.734380078405854
 10
5.960145043495712
 20
2.011917773036454
 10
5.960145043495712
 20
2.196328201362437
 10
5.960145043495712
 20
2.25165132986023
 10
5.849498786500122
 20
2.25165132986023
 10
5.849498786500122
 20
2.196328201362437
 10
5.849498786500122
 20
2.011917773036454
 10
5.849498786500122
 20
1.734380078405854
  0
LWPOLYLINE
  5
23
100
AcDbEntity
  8
USP-GEO
100
AcDbPolyline
 90
       27
 70
   128
 43
0.0
 10
5.960145043495712
 20
3.156184480799169
 10
6.033909214826104
 20
3.13774343796657
 10
6.16299651465429
 20
3.008656138138384
 10
6.219241695293716
 20
2.824245709812402
 10
6.16299651465429
 20
2.63891322934479
 10
6.144555471821695
 20
2.620472186512191
 10
6.126114428989096
 20
2.602031143679596
 10
6.107673386156497
 20
2.583590100846997
 10
6.070791300491302
 20
2.546708015181799
 10
6.052350257658703
 20
2.528266972349204
 10
6.033909214826104
 20
2.509825929516605
 10
5.960145043495712
 20
2.491384886684006
 10
5.849498786500122
 20
2.491384886684006
 10
5.849498786500122
 20
2.565149058014398
 10
5.849498786500122
 20
2.602031143679596
 10
5.849498786500122
 20
2.620472186512191
 10
5.960145043495712
 20
2.620472186512191
 10
5.960145043495712
 20
2.602031143679596
 10
5.960145043495712
 20
2.565149058014398
 10
5.960145043495712
 20
2.491384886684006
 10
5.960145043495712
 20
2.36229758685582
 10
5.960145043495712
 20
2.288533415525428
 10
5.960145043495712
 20
2.25165132986023
 10
5.849498786500122
 20
2.25165132986023
 10
5.849498786500122
 20
2.288533415525428
 10
5.849498786500122
 20
2.36229758685582
 10
5.849498786500122
 20
2.491384886684006
  0
ENDBLK
  5
26
100
AcDbEntity
  8
0
100
AcDbBlockEnd
  0
BLOCK
  5
D9
100
AcDbEntity
  8
0
100
AcDbBlockBegin
  2
THDH28-2_F
 70
     0
 10
0.0
 20
0.0
 30
0.0
  3
THDH28-2_F
  1

  0
LWPOLYLINE
  5
29
100
AcDbEntity
  8
USP-GEO
100
AcDbPolyline
 90
        4
 70
   128
 43
0.0
 10
0.1484503948024152
 20
5.86978393361598
 10
0.0737641713303923
 20
5.814460805118185
 10
0.018441042832599
 20
5.722255590955196
 10
0.0
 20
5.611609333959606
  0
LWPOLYLINE
  5
2A
100
AcDbEntity
  8
USP-GEO
100
AcDbPolyline
 90
       11
 70
   128
 43
0.0
 10
0.0
 20
5.297189553663809
 10
0.018441042832599
 20
5.204984339500818
 10
0.0737641713303923
 20
5.112779125337826
 10
0.1484503948024152
 20
5.039014954007434
 10
0.2775376946306025
 20
4.928368697011846
 10
0.3513018659609948
 20
4.780840354351061
 10
0.3697429087935919
 20
4.614870968857678
 10
0.3697429087935919
 20
3.82098407491433
 10
0.4435070801239842
 20
3.340594909125147
 10
0.6094764656173677
 20
2.879568838310195
 10
0.9045331509389384
 20
2.472943843851407
  0
LWPOLYLINE
  5
2B
100
AcDbEntity
  8
USP-GEO
100
AcDbPolyline
 90
       10
 70
   128
 43
0.0
 10
0.0
 20
7.180020026872076
 10
0.018441042832599
 20
7.069373769876488
 10
0.0737641713303923
 20
6.977168555713497
 10
0.1484503948024152
 20
6.921845427215703
 10
0.2775376946306025
 20
6.811199170220113
 10
0.3513018659609948
 20
6.663670827559329
 10
0.3697429087935919
 20
6.497701442065945
 10
0.3697429087935919
 20
6.293927918765737
 10
0.3513018659609948
 20
6.127958533272353
 10
0.2775376946306025
 20
5.980430190611569
  0
LWPOLYLINE
  5
2C
100
AcDbEntity
  8
USP-GEO
100
AcDbPolyline
 90
       74
 70
   128
 43
0.0
 10
2.509825929516603
 20
5.039014954007434
 10
2.509825929516603
 20
4.928368697011846
 10
2.509825929516603
 20
4.780840354351061
 10
2.509825929516603
 20
4.614870968857678
 10
2.509825929516603
 20
3.82098407491433
 10
2.509825929516603
 20
3.340594909125147
 10
2.509825929516603
 20
2.879568838310195
 10
2.509825929516603
 20
2.472943843851407
 10
2.509825929516603
 20
0.8123279367759455
 10
2.602031143679594
 20
0.8123279367759455
 10
2.602031143679594
 20
0.6647995941151628
 10
2.602031143679594
 20
0.4794671136475515
 10
2.602031143679594
 20
0.2766156424889701
 10
2.602031143679594
 20
0.4794671136475515
 10
2.602031143679594
 20
0.6647995941151628
 10
2.602031143679594
 20
0.8123279367759455
 10
2.602031143679594
 20
2.472943843851407
 10
2.602031143679594
 20
2.879568838310195
 10
2.602031143679594
 20
3.340594909125147
 10
2.602031143679594
 20
3.82098407491433
 10
2.602031143679594
 20
4.614870968857678
 10
2.602031143679594
 20
4.780840354351061
 10
2.602031143679594
 20
4.928368697011846
 10
2.602031143679594
 20
5.039014954007434
 10
2.602031143679594
 20
5.112779125337826
 10
2.602031143679594
 20
5.204984339500818
 10
2.602031143679594
 20
5.297189553663809
 10
2.602031143679594
 20
5.611609333959606
 10
2.602031143679594
 20
5.722255590955196
 10
2.602031143679594
 20
5.814460805118185
 10
2.602031143679594
 20
5.86978393361598
 10
2.602031143679594
 20
5.980430190611569
 10
2.602031143679594
 20
6.127958533272353
 10
2.602031143679594
 20
6.293927918765737
 10
2.602031143679594
 20
6.497701442065945
 10
2.602031143679594
 20
6.663670827559329
 10
2.602031143679594
 20
6.811199170220113
 10
2.602031143679594
 20
6.921845427215703
 10
2.602031143679594
 20
6.977168555713497
 10
2.602031143679594
 20
7.069373769876488
 10
2.602031143679594
 20
7.180020026872076
 10
2.602031143679594
 20
7.364430455198057
 10
2.509825929516603
 20
7.364430455198057
 10
0.0
 20
7.364430455198057
 10
2.509825929516603
 20
7.364430455198057
 10
2.509825929516603
 20
7.180020026872076
 10
2.509825929516603
 20
7.069373769876488
 10
2.509825929516603
 20
6.977168555713497
 10
2.509825929516603
 20
6.921845427215703
 10
2.509825929516603
 20
6.811199170220113
 10
2.509825929516603
 20
6.663670827559329
 10
2.509825929516603
 20
6.497701442065945
 10
2.509825929516603
 20
6.293927918765737
 10
2.509825929516603
 20
6.127958533272353
 10
2.509825929516603
 20
5.980430190611569
 10
2.509825929516603
 20
5.86978393361598
 10
2.509825929516603
 20
5.814460805118185
 10
2.509825929516603
 20
5.722255590955196
 10
2.509825929516603
 20
5.611609333959606
 10
2.509825929516603
 20
5.297189553663809
 10
2.509825929516603
 20
5.204984339500818
 10
2.509825929516603
 20
5.112779125337826
 10
2.509825929516603
 20
5.039014954007434
 10
2.509825929516603
 20
4.928368697011846
 10
2.509825929516603
 20
4.780840354351061
 10
2.509825929516603
 20
4.614870968857678
 10
2.509825929516603
 20
3.82098407491433
 10
2.509825929516603
 20
3.340594909125147
 10
2.509825929516603
 20
2.879568838310195
 10
2.509825929516603
 20
2.472943843851407
 10
2.509825929516603
 20
0.8123279367759455
 10
2.509825929516603
 20
0.6647995941151628
 10
2.509825929516603
 20
0.4794671136475515
 10
2.509825929516603
 20
0.2766156424889701
  0
LWPOLYLINE
  5
2D
100
AcDbEntity
  8
USP-GEO
100
AcDbPolyline
 90
        2
 70
   129
 43
0.0
 10
0.0
 20
5.297189553663809
 10
0.0
 20
5.611609333959606
  0
LWPOLYLINE
  5
2E
100
AcDbEntity
  8
USP-GEO
100
AcDbPolyline
 90
        2
 70
   129
 43
0.0
 10
0.0
 20
7.180020026872076
 10
0.0
 20
7.364430455198057
  0
TEXT
  5
2F
100
AcDbEntity
  8
USP-TXT
100
AcDbText
 10
1.109038491160675
 20
-1.788898946260932
 30
0.0
 40
0.296875
  1
THDH28-2 - FRONT VIEW
 72
     1
 11
4.226225991160674
 21
-1.788898946260932
 31
0.0
100
AcDbText
  0
LWPOLYLINE
  5
30
100
AcDbEntity
  8
USP-GEO
100
AcDbPolyline
 90
       12
 70
   128
 43
0.0
 10
5.111857073196199
 20
0.0
 10
5.111857073196199
 20
0.1106462569955866
 10
5.849498786500122
 20
0.1106462569955866
 10
5.111857073196199
 20
0.1106462569955866
 10
5.0934160303636
 20
0.1106462569955866
 10
5.074974987531001
 20
0.1106462569955866
 10
5.038092901865807
 20
0.1106462569955866
 10
4.798359345042031
 20
0.1106462569955866
 10
4.761477259376833
 20
0.1106462569955866
 10
4.743036216544235
 20
0.1106462569955866
 10
4.724595173711639
 20
0.1106462569955866
 10
3.727856808609709
 20
0.1106462569955866
  0
LWPOLYLINE
  5
31
100
AcDbEntity
  8
USP-GEO
100
AcDbPolyline
 90
       96
 70
   128
 43
0.0
 10
5.960145043495712
 20
0.8123279367759455
 10
5.849498786500122
 20
0.8123279367759455
 10
5.849498786500122
 20
0.6647995941151628
 10
5.849498786500122
 20
0.4794671136475515
 10
5.849498786500122
 20
0.2766156424889701
 10
5.849498786500122
 20
0.4794671136475515
 10
5.849498786500122
 20
0.6647995941151628
 10
5.849498786500122
 20
0.8123279367759455
 10
5.849498786500122
 20
2.472943843851407
 10
5.849498786500122
 20
2.879568838310195
 10
5.849498786500122
 20
3.340594909125147
 10
5.849498786500122
 20
3.82098407491433
 10
5.849498786500122
 20
4.614870968857678
 10
5.849498786500122
 20
4.780840354351061
 10
5.849498786500122
 20
4.928368697011846
 10
5.849498786500122
 20
5.039014954007434
 10
5.849498786500122
 20
5.112779125337826
 10
5.849498786500122
 20
5.204984339500818
 10
5.849498786500122
 20
5.297189553663809
 10
5.849498786500122
 20
5.611609333959606
 10
5.849498786500122
 20
5.722255590955196
 10
5.849498786500122
 20
5.814460805118185
 10
5.849498786500122
 20
5.86978393361598
 10
5.849498786500122
 20
5.980430190611569
 10
5.849498786500122
 20
6.127958533272353
 10
5.849498786500122
 20
6.293927918765737
 10
5.849498786500122
 20
6.497701442065945
 10
5.849498786500122
 20
6.663670827559329
 10
5.849498786500122
 20
6.811199170220113
 10
5.849498786500122
 20
6.921845427215703
 10
5.849498786500122
 20
6.977168555713497
 10
5.849498786500122
 20
7.069373769876488
 10
5.849498786500122
 20
7.180020026872076
 10
5.849498786500122
 20
7.364430455198057
 10
5.960145043495712
 20
7.364430455198057
 10
5.960145043495712
 20
7.180020026872076
 10
5.960145043495712
 20
7.069373769876488
 10
5.960145043495712
 20
6.977168555713497
 10
5.960145043495712
 20
6.921845427215703
 10
5.960145043495712
 20
6.811199170220113
 10
5.960145043495712
 20
6.663670827559329
 10
5.960145043495712
 20
6.497701442065945
 10
5.960145043495712
 20
6.293927918765737
 10
5.960145043495712
 20
6.127958533272353
 10
5.960145043495712
 20
5.980430190611569
 10
5.960145043495712
 20
5.86978393361598
 10
5.960145043495712
 20
5.814460805118185
 10
5.960145043495712
 20
5.722255590955196
 10
5.960145043495712
 20
5.611609333959606
 10
5.960145043495712
 20
5.297189553663809
 10
5.960145043495712
 20
5.204984339500818
 10
5.960145043495712
 20
5.112779125337826
 10
5.960145043495712
 20
5.039014954007434
 10
5.960145043495712
 20
4.928368697011846
 10
5.960145043495712
 20
4.780840354351061
 10
5.960145043495712
 20
4.614870968857678
 10
5.960145043495712
 20
3.82098407491433
 10
5.960145043495712
 20
3.340594909125147
 10
5.960145043495712
 20
2.879568838310195
 10
5.960145043495712
 20
2.472943843851407
 10
5.960145043495712
 20
0.8123279367759455
 10
5.960145043495712
 20
0.6647995941151628
 10
5.960145043495712
 20
0.4794671136475515
 10
5.960145043495712
 20
0.2766156424889701
 10
5.960145043495712
 20
0.0
 10
5.111857073196199
 20
0.0
 10
5.0934160303636
 20
0.0
 10
5.074974987531001
 20
0.0
 10
5.038092901865807
 20
0.0
 10
4.798359345042031
 20
0.0
 10
4.761477259376833
 20
0.0
 10
4.743036216544235
 20
0.0
 10
4.724595173711639
 20
0.0
 10
3.727856808609709
 20
0.0
 10
3.70941576577711
 20
0.0
 10
3.672533680111916
 20
0.0
 10
3.414359080455541
 20
0.0
 10
3.395918037622942
 20
0.0
 10
3.359035951957748
 20
0.0
 10
2.509825929516603
 20
0.0
 10
3.359035951957748
 20
0.0
 10
3.395918037622942
 20
0.0
 10
3.414359080455541
 20
0.0
 10
3.672533680111916
 20
0.0
 10
3.70941576577711
 20
0.0
 10
3.727856808609709
 20
0.0
 10
4.724595173711639
 20
0.0
 10
4.743036216544235
 20
0.0
 10
4.761477259376833
 20
0.0
 10
4.798359345042031
 20
0.0
 10
5.038092901865807
 20
0.0
 10
5.074974987531001
 20
0.0
 10
5.0934160303636
 20
0.0
 10
5.111857073196199
 20
0.0
 10
5.960145043495712
 20
0.0
 10
5.960145043495712
 20
0.2766156424889701
  0
LWPOLYLINE
  5
32
100
AcDbEntity
  8
USP-GEO
100
AcDbPolyline
 90
        2
 70
   129
 43
0.0
 10
2.417620715353612
 20
0.8123279367759455
 10
0.9045331509389384
 20
2.472943843851407
  0
LWPOLYLINE
  5
33
100
AcDbEntity
  8
USP-GEO
100
AcDbPolyline
 90
        6
 70
   128
 43
0.0
 10
2.417620715353612
 20
1.698420044882285
 10
2.380738629688417
 20
1.679979002049687
 10
2.343856544023219
 20
1.661537959217088
 10
2.325415501190624
 20
1.606214830719295
 10
2.343856544023219
 20
1.568410692912468
 10
2.362297586855818
 20
1.549969650079871
  0
LWPOLYLINE
  5
34
100
AcDbEntity
  8
USP-GEO
100
AcDbPolyline
 90
        7
 70
   128
 43
0.0
 10
2.602031143679594
 20
0.8123279367759455
 10
2.602031143679594
 20
2.472943843851407
 10
2.602031143679594
 20
2.879568838310195
 10
2.602031143679594
 20
3.340594909125147
 10
2.602031143679594
 20
3.82098407491433
 10
2.602031143679594
 20
4.614870968857678
 10
2.509825929516603
 20
4.614870968857678
  0
LWPOLYLINE
  5
35
100
AcDbEntity
  8
USP-GEO
100
AcDbPolyline
 90
       12
 70
   128
 43
0.0
 10
3.727856808609709
 20
0.1106462569955866
 10
3.70941576577711
 20
0.1106462569955866
 10
3.672533680111916
 20
0.1106462569955866
 10
3.414359080455541
 20
0.1106462569955866
 10
3.395918037622942
 20
0.1106462569955866
 10
3.359035951957748
 20
0.1106462569955866
 10
2.602031143679594
 20
0.1106462569955866
 10
2.602031143679594
 20
0.2766156424889701
 10
2.509825929516603
 20
0.2766156424889701
 10
2.509825929516603
 20
0.4794671136475515
 10
2.509825929516603
 20
0.6647995941151628
 10
2.509825929516603
 20
0.8123279367759455
  0
LWPOLYLINE
  5
36
100
AcDbEntity
  8
USP-GEO
100
AcDbPolyline
 90
        4
 70
   128
 43
0.0
 10
3.359035951957748
 20
0.0
 10
3.359035951957748
 20
0.1106462569955866
 10
2.602031143679594
 20
0.1106462569955866
 10
2.602031143679594
 20
0.2766156424889701
  0
LWPOLYLINE
  5
37
100
AcDbEntity
  8
USP-GEO
100
AcDbPolyline
 90
        2
 70
   129
 43
0.0
 10
2.509825929516603
 20
0.0
 10
2.509825929516603
 20
0.2766156424889701
  0
LWPOLYLINE
  5
38
100
AcDbEntity
  8
USP-GEO
100
AcDbPolyline
 90
        4
 70
   128
 43
0.0
 10
2.509825929516603
 20
0.7016816797803572
 10
2.472943843851409
 20
0.7385637654455551
 10
2.45450280101881
 20
0.7754458511107494
 10
2.417620715353612
 20
0.8123279367759455
  0
LWPOLYLINE
  5
39
100
AcDbEntity
  8
USP-GEO
100
AcDbPolyline
 90
       12
 70
   129
 43
0.0
 10
2.306974458358025
 20
1.2549129647583
 10
2.325415501190624
 20
1.236471921925703
 10
2.362297586855818
 20
1.218030879093104
 10
2.380738629688417
 20
1.236471921925703
 10
2.417620715353612
 20
1.2549129647583
 10
2.417620715353612
 20
1.291795050423496
 10
2.417620715353612
 20
1.328677136088693
 10
2.380738629688417
 20
1.365559221753889
 10
2.362297586855818
 20
1.384000264586488
 10
2.325415501190624
 20
1.365559221753889
 10
2.306974458358025
 20
1.328677136088693
 10
2.306974458358025
 20
1.291795050423496
  0
LWPOLYLINE
  5
3A
100
AcDbEntity
  8
USP-GEO
100
AcDbPolyline
 90
        7
 70
   128
 43
0.0
 10
2.509825929516603
 20
1.643096916384491
 10
2.436061758186211
 20
1.606214830719295
 10
2.306974458358025
 20
1.476205478749479
 10
2.251651329860232
 20
1.291795050423496
 10
2.306974458358025
 20
1.125825664930113
 10
2.436061758186211
 20
0.9967383651019279
 10
2.509825929516603
 20
0.9598562794367317
  0
LWPOLYLINE
  5
3B
100
AcDbEntity
  8
USP-GEO
100
AcDbPolyline
 90
        5
 70
   128
 43
0.0
 10
2.399179672521016
 20
1.236471921925703
 10
2.399179672521016
 20
1.2549129647583
 10
2.380738629688417
 20
1.291795050423496
 10
2.399179672521016
 20
1.328677136088693
 10
2.399179672521016
 20
1.347118178921292
  0
LWPOLYLINE
  5
3C
100
AcDbEntity
  8
USP-GEO
100
AcDbPolyline
 90
        2
 70
   128
 43
0.0
 10
4.724595173711639
 20
0.1106462569955866
 10
3.727856808609709
 20
0.1106462569955866
  0
LWPOLYLINE
  5
3D
100
AcDbEntity
  8
USP-GEO
100
AcDbPolyline
 90
        4
 70
   128
 43
0.0
 10
3.727856808609709
 20
0.1106462569955866
 10
3.70941576577711
 20
0.1106462569955866
 10
3.672533680111916
 20
0.1106462569955866
 10
3.672533680111916
 20
0.0
  0
LWPOLYLINE
  5
3E
100
AcDbEntity
  8
USP-GEO
100
AcDbPolyline
 90
        3
 70
   128
 43
0.0
 10
3.414359080455541
 20
0.0
 10
3.414359080455541
 20
0.1106462569955866
 10
3.672533680111916
 20
0.1106462569955866
  0
LWPOLYLINE
  5
3F
100
AcDbEntity
  8
USP-GEO
100
AcDbPolyline
 90
        4
 70
   128
 43
0.0
 10
3.414359080455541
 20
0.1106462569955866
 10
3.395918037622942
 20
0.1106462569955866
 10
3.359035951957748
 20
0.1106462569955866
 10
3.359958004099377
 20
0.1106462569955866
  0
LWPOLYLINE
  5
40
100
AcDbEntity
  8
USP-GEO
100
AcDbPolyline
 90
        3
 70
   128
 43
0.0
 10
3.727856808609709
 20
0.1106462569955866
 10
3.727856808609709
 20
0.0
 10
3.728778860751338
 20
0.0
  0
LWPOLYLINE
  5
41
100
AcDbEntity
  8
USP-GEO
100
AcDbPolyline
 90
        2
 70
   129
 43
0.0
 10
3.728778860751338
 20
0.1106462569955866
 10
3.727856808609709
 20
0.1106462569955866
  0
LWPOLYLINE
  5
42
100
AcDbEntity
  8
USP-GEO
100
AcDbPolyline
 90
        3
 70
   128
 43
0.0
 10
4.798359345042031
 20
0.0
 10
4.798359345042031
 20
0.1106462569955866
 10
5.038092901865807
 20
0.1106462569955866
  0
LWPOLYLINE
  5
43
100
AcDbEntity
  8
USP-GEO
100
AcDbPolyline
 90
        5
 70
   128
 43
0.0
 10
4.724595173711639
 20
0.0
 10
4.724595173711639
 20
0.1106462569955866
 10
4.743036216544235
 20
0.1106462569955866
 10
4.761477259376833
 20
0.1106462569955866
 10
4.798359345042031
 20
0.1106462569955866
  0
LWPOLYLINE
  5
44
100
AcDbEntity
  8
USP-GEO
100
AcDbPolyline
 90
        5
 70
   128
 43
0.0
 10
5.111857073196199
 20
0.1106462569955866
 10
5.0934160303636
 20
0.1106462569955866
 10
5.074974987531001
 20
0.1106462569955866
 10
5.038092901865807
 20
0.1106462569955866
 10
5.038092901865807
 20
0.0
  0
LWPOLYLINE
  5
45
100
AcDbEntity
  8
USP-GEO
100
AcDbPolyline
 90
        2
 70
   128
 43
0.0
 10
0.3697429087935919
 20
4.614870968857678
 10
0.3697429087935919
 20
3.82098407491433
  0
LWPOLYLINE
  5
46
100
AcDbEntity
  8
USP-GEO
100
AcDbPolyline
 90
        7
 70
   128
 43
0.0
 10
1.975035687371258
 20
4.411097445557469
 10
1.919712558873465
 20
4.429538488390067
 10
1.901271516040866
 20
4.447979531222665
 10
1.882830473208267
 20
4.503302659720459
 10
1.901271516040866
 20
4.541106797527286
 10
1.919712558873465
 20
4.577988883192482
 10
1.975035687371258
 20
4.577988883192482
  0
LWPOLYLINE
  5
47
100
AcDbEntity
  8
USP-GEO
100
AcDbPolyline
 90
        7
 70
   128
 43
0.0
 10
2.141005072864642
 20
4.577988883192482
 10
2.177887158529836
 20
4.577988883192482
 10
2.214769244195034
 20
4.541106797527286
 10
2.233210287027633
 20
4.503302659720459
 10
2.214769244195034
 20
4.447979531222665
 10
2.177887158529836
 20
4.429538488390067
 10
2.141005072864642
 20
4.411097445557469
  0
LWPOLYLINE
  5
48
100
AcDbEntity
  8
USP-GEO
100
AcDbPolyline
 90
        7
 70
   128
 43
0.0
 10
2.509825929516603
 20
5.020573911174837
 10
2.436061758186211
 20
4.983691825509641
 10
2.306974458358025
 20
4.854604525681454
 10
2.251651329860232
 20
4.670194097355473
 10
2.306974458358025
 20
4.503302659720459
 10
2.436061758186211
 20
4.374215359892273
 10
2.509825929516603
 20
4.337333274227077
  0
LWPOLYLINE
  5
49
100
AcDbEntity
  8
USP-GEO
100
AcDbPolyline
 90
       12
 70
   128
 43
0.0
 10
1.457764435916882
 20
3.451241166120738
 10
1.420882350251686
 20
3.469682208953335
 10
1.384000264586489
 20
3.488123251785934
 10
1.384000264586489
 20
3.544368432425358
 10
1.384000264586489
 20
3.581250518090554
 10
1.420882350251686
 20
3.61813260375575
 10
1.457764435916882
 20
3.636573646588347
 10
1.513087564414675
 20
3.61813260375575
 10
1.549969650079871
 20
3.581250518090554
 10
1.549969650079871
 20
3.544368432425358
 10
1.549969650079871
 20
3.488123251785934
 10
1.513087564414675
 20
3.469682208953335
  0
LWPOLYLINE
  5
4A
100
AcDbEntity
  8
USP-GEO
100
AcDbPolyline
 90
       12
 70
   129
 43
0.0
 10
1.384000264586489
 20
2.343856544023219
 10
1.420882350251686
 20
2.362297586855818
 10
1.457764435916882
 20
2.380738629688416
 10
1.513087564414675
 20
2.362297586855818
 10
1.549969650079871
 20
2.343856544023219
 10
1.549969650079871
 20
2.288533415525424
 10
1.549969650079871
 20
2.251651329860228
 10
1.513087564414675
 20
2.214769244195032
 10
1.457764435916882
 20
2.196328201362435
 10
1.420882350251686
 20
2.214769244195032
 10
1.384000264586489
 20
2.251651329860228
 10
1.384000264586489
 20
2.288533415525424
  0
LWPOLYLINE
  5
4B
100
AcDbEntity
  8
USP-GEO
100
AcDbPolyline
 90
       12
 70
   128
 43
0.0
 10
0.8860921081063395
 20
3.100861352301372
 10
0.8492100224411434
 20
3.100861352301372
 10
0.8123279367759472
 20
3.137743437966568
 10
0.7938868939433501
 20
3.174625523631766
 10
0.8123279367759472
 20
3.229948652129559
 10
0.8492100224411434
 20
3.266830737794755
 10
0.8860921081063395
 20
3.266830737794755
 10
0.9414152366041346
 20
3.266830737794755
 10
0.9598562794367317
 20
3.229948652129559
 10
0.9782973222693307
 20
3.174625523631766
 10
0.9598562794367317
 20
3.137743437966568
 10
0.9414152366041346
 20
3.100861352301372
  0
LWPOLYLINE
  5
4C
100
AcDbEntity
  8
USP-GEO
100
AcDbPolyline
 90
        2
 70
   129
 43
0.0
 10
0.8860921081063395
 20
3.100861352301372
 10
0.9414152366041346
 20
3.100861352301372
  0
LWPOLYLINE
  5
4D
100
AcDbEntity
  8
USP-GEO
100
AcDbPolyline
 90
        2
 70
   129
 43
0.0
 10
0.8860921081063395
 20
4.337333274227077
 10
0.9414152366041346
 20
4.355774317059674
  0
LWPOLYLINE
  5
4E
100
AcDbEntity
  8
USP-GEO
100
AcDbPolyline
 90
       12
 70
   128
 43
0.0
 10
0.8860921081063395
 20
4.337333274227077
 10
0.8492100224411434
 20
4.355774317059674
 10
0.8123279367759472
 20
4.39265640272487
 10
0.7938868939433501
 20
4.429538488390067
 10
0.8123279367759472
 20
4.484861616887862
 10
0.8492100224411434
 20
4.503302659720459
 10
0.8860921081063395
 20
4.522665754694687
 10
0.9414152366041346
 20
4.503302659720459
 10
0.9598562794367317
 20
4.484861616887862
 10
0.9782973222693307
 20
4.429538488390067
 10
0.9598562794367317
 20
4.39265640272487
 10
0.9414152366041346
 20
4.355774317059674
  0
LWPOLYLINE
  5
4F
100
AcDbEntity
  8
USP-GEO
100
AcDbPolyline
 90
        2
 70
   129
 43
0.0
 10
1.975035687371258
 20
2.658276324319018
 10
2.141005072864642
 20
2.658276324319018
  0
LWPOLYLINE
  5
50
100
AcDbEntity
  8
USP-GEO
100
AcDbPolyline
 90
        2
 70
   129
 43
0.0
 10
2.141005072864642
 20
2.842686752644999
 10
1.975035687371258
 20
2.842686752644999
  0
LWPOLYLINE
  5
51
100
AcDbEntity
  8
USP-GEO
100
AcDbPolyline
 90
        7
 70
   128
 43
0.0
 10
1.975035687371258
 20
2.658276324319018
 10
1.919712558873465
 20
2.676717367151615
 10
1.901271516040866
 20
2.713599452816811
 10
1.882830473208267
 20
2.750481538482008
 10
1.901271516040866
 20
2.787363624147204
 10
1.919712558873465
 20
2.8242457098124
 10
1.975035687371258
 20
2.842686752644999
  0
LWPOLYLINE
  5
52
100
AcDbEntity
  8
USP-GEO
100
AcDbPolyline
 90
        5
 70
   128
 43
0.0
 10
2.399179672521016
 20
2.362297586855818
 10
2.399179672521016
 20
2.380738629688416
 10
2.380738629688417
 20
2.417620715353612
 10
2.399179672521016
 20
2.454502801018808
 10
2.399179672521016
 20
2.472943843851407
  0
LWPOLYLINE
  5
53
100
AcDbEntity
  8
USP-GEO
100
AcDbPolyline
 90
       12
 70
   129
 43
0.0
 10
2.306974458358025
 20
2.380738629688416
 10
2.325415501190624
 20
2.362297586855818
 10
2.362297586855818
 20
2.343856544023219
 10
2.380738629688417
 20
2.362297586855818
 10
2.417620715353612
 20
2.380738629688416
 10
2.417620715353612
 20
2.417620715353612
 10
2.417620715353612
 20
2.454502801018808
 10
2.380738629688417
 20
2.491384886684004
 10
2.362297586855818
 20
2.509825929516603
 10
2.325415501190624
 20
2.491384886684004
 10
2.306974458358025
 20
2.454502801018808
 10
2.306974458358025
 20
2.417620715353612
  0
LWPOLYLINE
  5
54
100
AcDbEntity
  8
USP-GEO
100
AcDbPolyline
 90
        7
 70
   128
 43
0.0
 10
2.509825929516603
 20
2.768922581314607
 10
2.436061758186211
 20
2.73204049564941
 10
2.306974458358025
 20
2.602953195821223
 10
2.251651329860232
 20
2.417620715353612
 10
2.306974458358025
 20
2.251651329860228
 10
2.436061758186211
 20
2.122564030032043
 10
2.509825929516603
 20
2.085681944366847
  0
LWPOLYLINE
  5
55
100
AcDbEntity
  8
USP-GEO
100
AcDbPolyline
 90
        2
 70
   129
 43
0.0
 10
2.509825929516603
 20
1.698420044882285
 10
2.417620715353612
 20
1.698420044882285
  0
LWPOLYLINE
  5
56
100
AcDbEntity
  8
USP-GEO
100
AcDbPolyline
 90
        7
 70
   128
 43
0.0
 10
2.141005072864642
 20
2.842686752644999
 10
2.177887158529836
 20
2.8242457098124
 10
2.214769244195034
 20
2.787363624147204
 10
2.233210287027633
 20
2.750481538482008
 10
2.214769244195034
 20
2.713599452816811
 10
2.177887158529836
 20
2.676717367151615
 10
2.141005072864642
 20
2.658276324319018
  0
LWPOLYLINE
  5
57
100
AcDbEntity
  8
USP-GEO
100
AcDbPolyline
 90
        2
 70
   128
 43
0.0
 10
2.602031143679594
 20
2.472943843851407
 10
2.509825929516603
 20
2.472943843851407
  0
LWPOLYLINE
  5
58
100
AcDbEntity
  8
USP-GEO
100
AcDbPolyline
 90
        2
 70
   129
 43
0.0
 10
1.975035687371258
 20
4.411097445557469
 10
2.141005072864642
 20
4.411097445557469
  0
LWPOLYLINE
  5
59
100
AcDbEntity
  8
USP-GEO
100
AcDbPolyline
 90
        2
 70
   129
 43
0.0
 10
1.457764435916882
 20
3.451241166120738
 10
1.513087564414675
 20
3.469682208953335
  0
LWPOLYLINE
  5
5A
100
AcDbEntity
  8
USP-GEO
100
AcDbPolyline
 90
        7
 70
   128
 43
0.0
 10
2.509825929516603
 20
3.894748246244722
 10
2.436061758186211
 20
3.857866160579526
 10
2.306974458358025
 20
3.728778860751338
 10
2.251651329860232
 20
3.544368432425358
 10
2.306974458358025
 20
3.377476994790344
 10
2.436061758186211
 20
3.248389694962158
 10
2.509825929516603
 20
3.211507609296962
  0
LWPOLYLINE
  5
5B
100
AcDbEntity
  8
USP-GEO
100
AcDbPolyline
 90
       12
 70
   129
 43
0.0
 10
2.306974458358025
 20
3.506564294618531
 10
2.325415501190624
 20
3.488123251785934
 10
2.362297586855818
 20
3.469682208953335
 10
2.380738629688417
 20
3.488123251785934
 10
2.417620715353612
 20
3.506564294618531
 10
2.417620715353612
 20
3.544368432425358
 10
2.417620715353612
 20
3.581250518090554
 10
2.380738629688417
 20
3.61813260375575
 10
2.362297586855818
 20
3.636573646588347
 10
2.325415501190624
 20
3.61813260375575
 10
2.306974458358025
 20
3.581250518090554
 10
2.306974458358025
 20
3.544368432425358
  0
LWPOLYLINE
  5
5C
100
AcDbEntity
  8
USP-GEO
100
AcDbPolyline
 90
        2
 70
   128
 43
0.0
 10
2.602031143679594
 20
3.82098407491433
 10
2.509825929516603
 20
3.82098407491433
  0
LWPOLYLINE
  5
5D
100
AcDbEntity
  8
USP-GEO
100
AcDbPolyline
 90
        5
 70
   128
 43
0.0
 10
2.399179672521016
 20
3.488123251785934
 10
2.399179672521016
 20
3.506564294618531
 10
2.380738629688417
 20
3.544368432425358
 10
2.399179672521016
 20
3.581250518090554
 10
2.399179672521016
 20
3.599691560923151
  0
LWPOLYLINE
  5
5E
100
AcDbEntity
  8
USP-GEO
100
AcDbPolyline
 90
       12
 70
   128
 43
0.0
 10
1.457764435916882
 20
4.707076183020669
 10
1.420882350251686
 20
4.707076183020669
 10
1.384000264586489
 20
4.743958268685865
 10
1.384000264586489
 20
4.799281397183658
 10
1.384000264586489
 20
4.836163482848856
 10
1.420882350251686
 20
4.873045568514053
 10
1.457764435916882
 20
4.89148661134665
 10
1.513087564414675
 20
4.873045568514053
 10
1.549969650079871
 20
4.836163482848856
 10
1.549969650079871
 20
4.799281397183658
 10
1.549969650079871
 20
4.743958268685865
 10
1.513087564414675
 20
4.707076183020669
  0
LWPOLYLINE
  5
5F
100
AcDbEntity
  8
USP-GEO
100
AcDbPolyline
 90
       12
 70
   128
 43
0.0
 10
1.457764435916882
 20
5.96198914777897
 10
1.420882350251686
 20
5.96198914777897
 10
1.384000264586489
 20
5.998871233444168
 10
1.384000264586489
 20
6.035753319109364
 10
1.384000264586489
 20
6.091076447607157
 10
1.420882350251686
 20
6.127958533272353
 10
1.457764435916882
 20
6.127958533272353
 10
1.513087564414675
 20
6.127958533272353
 10
1.549969650079871
 20
6.091076447607157
 10
1.549969650079871
 20
6.035753319109364
 10
1.549969650079871
 20
5.998871233444168
 10
1.513087564414675
 20
5.96198914777897
  0
LWPOLYLINE
  5
60
100
AcDbEntity
  8
USP-GEO
100
AcDbPolyline
 90
       12
 70
   128
 43
0.0
 10
1.457764435916882
 20
6.9587275128809
 10
1.420882350251686
 20
6.977168555713497
 10
1.384000264586489
 20
7.014050641378693
 10
1.384000264586489
 20
7.050932727043889
 10
1.384000264586489
 20
7.106255855541684
 10
1.420882350251686
 20
7.124696898374283
 10
1.457764435916882
 20
7.14313794120688
 10
1.513087564414675
 20
7.124696898374283
 10
1.549969650079871
 20
7.106255855541684
 10
1.549969650079871
 20
7.050932727043889
 10
1.549969650079871
 20
7.014050641378693
 10
1.513087564414675
 20
6.977168555713497
  0
LWPOLYLINE
  5
61
100
AcDbEntity
  8
USP-GEO
100
AcDbPolyline
 90
       12
 70
   128
 43
0.0
 10
0.3144197802957986
 20
5.204984339500818
 10
0.2775376946306025
 20
5.223425382333417
 10
0.2406556089654064
 20
5.260307467998613
 10
0.2222145661328074
 20
5.297189553663809
 10
0.2406556089654064
 20
5.334071639329005
 10
0.2775376946306025
 20
5.370953724994201
 10
0.3144197802957986
 20
5.389394767826798
 10
0.3513018659609948
 20
5.370953724994201
 10
0.3881839516261909
 20
5.334071639329005
 10
0.4066249944587881
 20
5.297189553663809
 10
0.3881839516261909
 20
5.260307467998613
 10
0.3513018659609948
 20
5.223425382333417
  0
LWPOLYLINE
  5
62
100
AcDbEntity
  8
USP-GEO
100
AcDbPolyline
 90
        2
 70
   129
 43
0.0
 10
0.3144197802957986
 20
5.204984339500818
 10
0.3513018659609948
 20
5.223425382333417
  0
LWPOLYLINE
  5
63
100
AcDbEntity
  8
USP-GEO
100
AcDbPolyline
 90
        2
 70
   129
 43
0.0
 10
0.1484503948024152
 20
5.86978393361598
 10
0.2775376946306025
 20
5.980430190611569
  0
LWPOLYLINE
  5
64
100
AcDbEntity
  8
USP-GEO
100
AcDbPolyline
 90
       12
 70
   128
 43
0.0
 10
0.8860921081063395
 20
5.68537350529
 10
0.8492100224411434
 20
5.68537350529
 10
0.8123279367759472
 20
5.722255590955196
 10
0.7938868939433501
 20
5.759137676620392
 10
0.8123279367759472
 20
5.814460805118185
 10
0.8492100224411434
 20
5.851342890783381
 10
0.8860921081063395
 20
5.851342890783381
 10
0.9414152366041346
 20
5.851342890783381
 10
0.9598562794367317
 20
5.814460805118185
 10
0.9782973222693307
 20
5.759137676620392
 10
0.9598562794367317
 20
5.722255590955196
 10
0.9414152366041346
 20
5.68537350529
  0
LWPOLYLINE
  5
65
100
AcDbEntity
  8
USP-GEO
100
AcDbPolyline
 90
        2
 70
   129
 43
0.0
 10
0.8860921081063395
 20
5.68537350529
 10
0.9414152366041346
 20
5.68537350529
  0
LWPOLYLINE
  5
66
100
AcDbEntity
  8
USP-GEO
100
AcDbPolyline
 90
        3
 70
   128
 43
0.0
 10
0.3513018659609948
 20
6.663670827559329
 10
0.3697429087935919
 20
6.497701442065945
 10
0.3697429087935919
 20
6.293927918765737
  0
LWPOLYLINE
  5
67
100
AcDbEntity
  8
USP-GEO
100
AcDbPolyline
 90
       12
 70
   129
 43
0.0
 10
0.2775376946306025
 20
7.124696898374283
 10
0.3144197802957986
 20
7.14313794120688
 10
0.3513018659609948
 20
7.124696898374283
 10
0.3881839516261909
 20
7.087814812709085
 10
0.4066249944587881
 20
7.050932727043889
 10
0.3881839516261909
 20
6.995609598546096
 10
0.3513018659609948
 20
6.977168555713497
 10
0.3144197802957986
 20
6.9587275128809
 10
0.2775376946306025
 20
6.977168555713497
 10
0.2406556089654064
 20
6.995609598546096
 10
0.2222145661328074
 20
7.050932727043889
 10
0.2406556089654064
 20
7.087814812709085
  0
LWPOLYLINE
  5
68
100
AcDbEntity
  8
USP-GEO
100
AcDbPolyline
 90
       12
 70
   128
 43
0.0
 10
0.8860921081063395
 20
6.718993956057124
 10
0.8492100224411434
 20
6.737434998889721
 10
0.8123279367759472
 20
6.774317084554917
 10
0.7938868939433501
 20
6.811199170220113
 10
0.8123279367759472
 20
6.848081255885311
 10
0.8492100224411434
 20
6.884963341550507
 10
0.8860921081063395
 20
6.903404384383104
 10
0.9414152366041346
 20
6.884963341550507
 10
0.9598562794367317
 20
6.848081255885311
 10
0.9782973222693307
 20
6.811199170220113
 10
0.9598562794367317
 20
6.774317084554917
 10
0.9414152366041346
 20
6.737434998889721
  0
LWPOLYLINE
  5
69
100
AcDbEntity
  8
USP-GEO
100
AcDbPolyline
 90
        2
 70
   129
 43
0.0
 10
0.8860921081063395
 20
6.718993956057124
 10
0.9414152366041346
 20
6.737434998889721
  0
LWPOLYLINE
  5
6A
100
AcDbEntity
  8
USP-GEO
100
AcDbPolyline
 90
       13
 70
   128
 43
0.0
 10
2.509825929516603
 20
6.921845427215703
 10
2.509825929516603
 20
6.811199170220113
 10
2.509825929516603
 20
6.663670827559329
 10
2.509825929516603
 20
6.497701442065945
 10
2.509825929516603
 20
6.293927918765737
 10
2.509825929516603
 20
6.127958533272353
 10
2.509825929516603
 20
5.980430190611569
 10
2.509825929516603
 20
5.86978393361598
 10
2.602031143679594
 20
5.86978393361598
 10
2.602031143679594
 20
5.980430190611569
 10
2.602031143679594
 20
6.127958533272353
 10
2.602031143679594
 20
6.293927918765737
 10
2.509825929516603
 20
6.293927918765737
  0
LWPOLYLINE
  5
6B
100
AcDbEntity
  8
USP-GEO
100
AcDbPolyline
 90
        2
 70
   129
 43
0.0
 10
2.141005072864642
 20
4.577988883192482
 10
1.975035687371258
 20
4.577988883192482
  0
LWPOLYLINE
  5
6C
100
AcDbEntity
  8
USP-GEO
100
AcDbPolyline
 90
        2
 70
   129
 43
0.0
 10
1.457764435916882
 20
4.707076183020669
 10
1.513087564414675
 20
4.707076183020669
  0
LWPOLYLINE
  5
6D
100
AcDbEntity
  8
USP-GEO
100
AcDbPolyline
 90
        2
 70
   129
 43
0.0
 10
1.457764435916882
 20
5.96198914777897
 10
1.513087564414675
 20
5.96198914777897
  0
LWPOLYLINE
  5
6E
100
AcDbEntity
  8
USP-GEO
100
AcDbPolyline
 90
        7
 70
   128
 43
0.0
 10
2.417620715353612
 20
5.149661211003024
 10
2.380738629688417
 20
5.168102253835622
 10
2.343856544023219
 20
5.186543296668221
 10
2.325415501190624
 20
5.241866425166014
 10
2.343856544023219
 20
5.27874851083121
 10
2.380738629688417
 20
5.315630596496406
 10
2.417620715353612
 20
5.315630596496406
  0
LWPOLYLINE
  5
6F
100
AcDbEntity
  8
USP-GEO
100
AcDbPolyline
 90
        4
 70
   128
 43
0.0
 10
2.602031143679594
 20
5.297189553663809
 10
2.602031143679594
 20
5.204984339500818
 10
2.602031143679594
 20
5.112779125337826
 10
2.602031143679594
 20
5.039014954007434
  0
LWPOLYLINE
  5
70
100
AcDbEntity
  8
USP-GEO
100
AcDbPolyline
 90
        8
 70
   128
 43
0.0
 10
2.509825929516603
 20
5.297189553663809
 10
2.509825929516603
 20
5.204984339500818
 10
2.509825929516603
 20
5.112779125337826
 10
2.509825929516603
 20
5.039014954007434
 10
2.602031143679594
 20
5.039014954007434
 10
2.602031143679594
 20
4.928368697011846
 10
2.602031143679594
 20
4.780840354351061
 10
2.602031143679594
 20
4.614870968857678
  0
LWPOLYLINE
  5
71
100
AcDbEntity
  8
USP-GEO
100
AcDbPolyline
 90
       12
 70
   129
 43
0.0
 10
2.306974458358025
 20
4.633312011690277
 10
2.325415501190624
 20
4.614870968857678
 10
2.362297586855818
 20
4.596429926025081
 10
2.380738629688417
 20
4.614870968857678
 10
2.417620715353612
 20
4.633312011690277
 10
2.417620715353612
 20
4.670194097355473
 10
2.417620715353612
 20
4.707076183020669
 10
2.380738629688417
 20
4.743958268685865
 10
2.362297586855818
 20
4.762399311518462
 10
2.325415501190624
 20
4.743958268685865
 10
2.306974458358025
 20
4.707076183020669
 10
2.306974458358025
 20
4.670194097355473
  0
LWPOLYLINE
  5
72
100
AcDbEntity
  8
USP-GEO
100
AcDbPolyline
 90
        5
 70
   128
 43
0.0
 10
2.399179672521016
 20
4.614870968857678
 10
2.399179672521016
 20
4.633312011690277
 10
2.380738629688417
 20
4.670194097355473
 10
2.399179672521016
 20
4.707076183020669
 10
2.399179672521016
 20
4.725517225853266
  0
LWPOLYLINE
  5
73
100
AcDbEntity
  8
USP-GEO
100
AcDbPolyline
 90
        2
 70
   129
 43
0.0
 10
2.417620715353612
 20
5.149661211003024
 10
2.509825929516603
 20
5.149661211003024
  0
LWPOLYLINE
  5
74
100
AcDbEntity
  8
USP-GEO
100
AcDbPolyline
 90
        8
 70
   128
 43
0.0
 10
2.509825929516603
 20
5.86978393361598
 10
2.509825929516603
 20
5.814460805118185
 10
2.509825929516603
 20
5.722255590955196
 10
2.509825929516603
 20
5.611609333959606
 10
2.602031143679594
 20
5.611609333959606
 10
2.602031143679594
 20
5.722255590955196
 10
2.602031143679594
 20
5.814460805118185
 10
2.602031143679594
 20
5.86978393361598
  0
LWPOLYLINE
  5
75
100
AcDbEntity
  8
USP-GEO
100
AcDbPolyline
 90
        4
 70
   128
 43
0.0
 10
2.509825929516603
 20
5.611609333959606
 10
2.509825929516603
 20
5.297189553663809
 10
2.602031143679594
 20
5.297189553663809
 10
2.602031143679594
 20
5.611609333959606
  0
LWPOLYLINE
  5
76
100
AcDbEntity
  8
USP-GEO
100
AcDbPolyline
 90
        2
 70
   129
 43
0.0
 10
2.509825929516603
 20
5.315630596496406
 10
2.417620715353612
 20
5.315630596496406
  0
LWPOLYLINE
  5
77
100
AcDbEntity
  8
USP-GEO
100
AcDbPolyline
 90
        2
 70
   129
 43
0.0
 10
1.975035687371258
 20
6.164840618937549
 10
2.141005072864642
 20
6.164840618937549
  0
LWPOLYLINE
  5
78
100
AcDbEntity
  8
USP-GEO
100
AcDbPolyline
 90
        2
 70
   129
 43
0.0
 10
2.141005072864642
 20
6.330810004430933
 10
1.975035687371258
 20
6.330810004430933
  0
LWPOLYLINE
  5
79
100
AcDbEntity
  8
USP-GEO
100
AcDbPolyline
 90
        7
 70
   128
 43
0.0
 10
1.975035687371258
 20
6.164840618937549
 10
1.919712558873465
 20
6.183281661770148
 10
1.901271516040866
 20
6.201722704602746
 10
1.882830473208267
 20
6.257045833100541
 10
1.901271516040866
 20
6.293927918765737
 10
1.919712558873465
 20
6.330810004430933
 10
1.975035687371258
 20
6.330810004430933
  0
LWPOLYLINE
  5
7A
100
AcDbEntity
  8
USP-GEO
100
AcDbPolyline
 90
        2
 70
   129
 43
0.0
 10
1.457764435916882
 20
6.9587275128809
 10
1.513087564414675
 20
6.977168555713497
  0
LWPOLYLINE
  5
7B
100
AcDbEntity
  8
USP-GEO
100
AcDbPolyline
 90
        9
 70
   128
 43
0.0
 10
2.602031143679594
 20
7.180020026872076
 10
2.509825929516603
 20
7.180020026872076
 10
2.509825929516603
 20
7.069373769876488
 10
2.509825929516603
 20
6.977168555713497
 10
2.509825929516603
 20
6.921845427215703
 10
2.602031143679594
 20
6.921845427215703
 10
2.602031143679594
 20
6.811199170220113
 10
2.602031143679594
 20
6.663670827559329
 10
2.602031143679594
 20
6.497701442065945
  0
LWPOLYLINE
  5
7C
100
AcDbEntity
  8
USP-GEO
100
AcDbPolyline
 90
        7
 70
   128
 43
0.0
 10
2.509825929516603
 20
6.884963341550507
 10
2.436061758186211
 20
6.866522298717908
 10
2.306974458358025
 20
6.737434998889721
 10
2.251651329860232
 20
6.55302457056374
 10
2.306974458358025
 20
6.367692090096129
 10
2.436061758186211
 20
6.238604790267942
 10
2.509825929516603
 20
6.220163747435345
  0
LWPOLYLINE
  5
7D
100
AcDbEntity
  8
USP-GEO
100
AcDbPolyline
 90
       12
 70
   129
 43
0.0
 10
2.306974458358025
 20
6.516142484898544
 10
2.325415501190624
 20
6.479260399233348
 10
2.362297586855818
 20
6.479260399233348
 10
2.380738629688417
 20
6.479260399233348
 10
2.417620715353612
 20
6.516142484898544
 10
2.417620715353612
 20
6.55302457056374
 10
2.417620715353612
 20
6.589906656228937
 10
2.380738629688417
 20
6.626788741894133
 10
2.362297586855818
 20
6.626788741894133
 10
2.325415501190624
 20
6.626788741894133
 10
2.306974458358025
 20
6.589906656228937
 10
2.306974458358025
 20
6.55302457056374
  0
LWPOLYLINE
  5
7E
100
AcDbEntity
  8
USP-GEO
100
AcDbPolyline
 90
        7
 70
   128
 43
0.0
 10
2.141005072864642
 20
6.330810004430933
 10
2.177887158529836
 20
6.330810004430933
 10
2.214769244195034
 20
6.293927918765737
 10
2.233210287027633
 20
6.257045833100541
 10
2.214769244195034
 20
6.201722704602746
 10
2.177887158529836
 20
6.183281661770148
 10
2.141005072864642
 20
6.164840618937549
  0
LWPOLYLINE
  5
7F
100
AcDbEntity
  8
USP-GEO
100
AcDbPolyline
 90
        3
 70
   128
 43
0.0
 10
2.509825929516603
 20
6.497701442065945
 10
2.602031143679594
 20
6.497701442065945
 10
2.602031143679594
 20
6.293927918765737
  0
LWPOLYLINE
  5
80
100
AcDbEntity
  8
USP-GEO
100
AcDbPolyline
 90
        5
 70
   128
 43
0.0
 10
2.399179672521016
 20
6.497701442065945
 10
2.399179672521016
 20
6.516142484898544
 10
2.380738629688417
 20
6.55302457056374
 10
2.399179672521016
 20
6.589906656228937
 10
2.399179672521016
 20
6.608347699061535
  0
LWPOLYLINE
  5
81
100
AcDbEntity
  8
USP-GEO
100
AcDbPolyline
 90
        7
 70
   128
 43
0.0
 10
2.417620715353612
 20
6.903404384383104
 10
2.380738629688417
 20
6.921845427215703
 10
2.343856544023219
 20
6.940286470048301
 10
2.325415501190624
 20
6.995609598546096
 10
2.343856544023219
 20
7.032491684211292
 10
2.380738629688417
 20
7.069373769876488
 10
2.417620715353612
 20
7.069373769876488
  0
LWPOLYLINE
  5
82
100
AcDbEntity
  8
USP-GEO
100
AcDbPolyline
 90
        7
 70
   128
 43
0.0
 10
2.602031143679594
 20
6.921845427215703
 10
2.602031143679594
 20
6.977168555713497
 10
2.602031143679594
 20
7.069373769876488
 10
2.602031143679594
 20
7.180020026872076
 10
2.602031143679594
 20
7.364430455198057
 10
2.509825929516603
 20
7.364430455198057
 10
2.509825929516603
 20
7.180020026872076
  0
LWPOLYLINE
  5
83
100
AcDbEntity
  8
USP-GEO
100
AcDbPolyline
 90
        2
 70
   129
 43
0.0
 10
2.509825929516603
 20
7.069373769876488
 10
2.417620715353612
 20
7.069373769876488
  0
LWPOLYLINE
  5
84
100
AcDbEntity
  8
USP-GEO
100
AcDbPolyline
 90
        2
 70
   129
 43
0.0
 10
2.417620715353612
 20
6.903404384383104
 10
2.509825929516603
 20
6.903404384383104
  0
LWPOLYLINE
  5
85
100
AcDbEntity
  8
USP-GEO
100
AcDbPolyline
 90
       10
 70
   128
 43
0.0
 10
5.849498786500122
 20
0.8123279367759455
 10
5.849498786500122
 20
2.472943843851407
 10
5.960145043495712
 20
2.472943843851407
 10
5.960145043495712
 20
0.8123279367759455
 10
5.960145043495712
 20
0.6647995941151628
 10
5.960145043495712
 20
0.4794671136475515
 10
5.960145043495712
 20
0.2766156424889701
 10
5.849498786500122
 20
0.2766156424889701
 10
5.849498786500122
 20
0.1106462569955866
 10
5.849498786500122
 20
0.2766156424889701
  0
LWPOLYLINE
  5
86
100
AcDbEntity
  8
USP-GEO
100
AcDbPolyline
 90
        7
 70
   128
 43
0.0
 10
6.052350257658703
 20
1.643096916384491
 10
6.089232343323898
 20
1.661537959217088
 10
6.126114428989096
 20
1.698420044882285
 10
6.126114428989096
 20
1.735302130547482
 10
6.126114428989096
 20
1.772184216212679
 10
6.089232343323898
 20
1.809066301877875
 10
6.052350257658703
 20
1.827507344710472
  0
LWPOLYLINE
  5
87
100
AcDbEntity
  8
USP-GEO
100
AcDbPolyline
 90
        2
 70
   129
 43
0.0
 10
7.565437822073379
 20
2.472943843851407
 10
6.16299651465429
 20
0.9598562794367317
  0
LWPOLYLINE
  5
88
100
AcDbEntity
  8
USP-GEO
100
AcDbPolyline
 90
        2
 70
   129
 43
0.0
 10
5.960145043495712
 20
1.643096916384491
 10
6.052350257658703
 20
1.643096916384491
  0
LWPOLYLINE
  5
89
100
AcDbEntity
  8
USP-GEO
100
AcDbPolyline
 90
        5
 70
   128
 43
0.0
 10
6.015468171993505
 20
0.7754458511107494
 10
6.033909214826104
 20
0.7938868939433484
 10
6.015468171993505
 20
0.7754458511107494
 10
5.978586086328311
 20
0.7385637654455551
 10
5.960145043495712
 20
0.7016816797803572
  0
LWPOLYLINE
  5
8A
100
AcDbEntity
  8
USP-GEO
100
AcDbPolyline
 90
        7
 70
   128
 43
0.0
 10
5.960145043495712
 20
0.7754458511107494
 10
6.033909214826104
 20
0.7938868939433484
 10
6.16299651465429
 20
0.9414152366041328
 10
6.219241695293716
 20
1.107384622097516
 10
6.16299651465429
 20
1.291795050423496
 10
6.033909214826104
 20
1.420882350251684
 10
5.960145043495712
 20
1.439323393084281
  0
LWPOLYLINE
  5
8B
100
AcDbEntity
  8
USP-GEO
100
AcDbPolyline
 90
       12
 70
   129
 43
0.0
 10
6.052350257658703
 20
1.144266707762712
 10
6.052350257658703
 20
1.107384622097516
 10
6.052350257658703
 20
1.07050253643232
 10
6.070791300491302
 20
1.033620450767124
 10
6.107673386156497
 20
1.033620450767124
 10
6.126114428989096
 20
1.033620450767124
 10
6.144555471821695
 20
1.07050253643232
 10
6.16299651465429
 20
1.107384622097516
 10
6.144555471821695
 20
1.144266707762712
 10
6.126114428989096
 20
1.181148793427908
 10
6.107673386156497
 20
1.181148793427908
 10
6.070791300491302
 20
1.181148793427908
  0
LWPOLYLINE
  5
8C
100
AcDbEntity
  8
USP-GEO
100
AcDbPolyline
 90
        5
 70
   128
 43
0.0
 10
6.070791300491302
 20
1.162707750595311
 10
6.070791300491302
 20
1.144266707762712
 10
6.070791300491302
 20
1.107384622097516
 10
6.070791300491302
 20
1.07050253643232
 10
6.070791300491302
 20
1.052061493599721
  0
LWPOLYLINE
  5
8D
100
AcDbEntity
  8
USP-GEO
100
AcDbPolyline
 90
        2
 70
   129
 43
0.0
 10
5.960145043495712
 20
7.364430455198057
 10
8.469970973012317
 20
7.364430455198057
  0
LWPOLYLINE
  5
8E
100
AcDbEntity
  8
USP-GEO
100
AcDbPolyline
 90
        4
 70
   128
 43
0.0
 10
7.565437822073379
 20
2.472943843851407
 10
7.842975516703981
 20
2.879568838310195
 10
8.02738594502996
 20
3.340594909125147
 10
8.082709073527757
 20
3.82098407491433
  0
LWPOLYLINE
  5
8F
100
AcDbEntity
  8
USP-GEO
100
AcDbPolyline
 90
        7
 70
   128
 43
0.0
 10
6.329887952289306
 20
4.484861616887862
 10
6.274564823791509
 20
4.484861616887862
 10
6.256123780958914
 20
4.522665754694687
 10
6.237682738126315
 20
4.559547840359885
 10
6.256123780958914
 20
4.614870968857678
 10
6.274564823791509
 20
4.633312011690277
 10
6.329887952289306
 20
4.651753054522874
  0
LWPOLYLINE
  5
90
100
AcDbEntity
  8
USP-GEO
100
AcDbPolyline
 90
        7
 70
   128
 43
0.0
 10
6.495857337782686
 20
4.651753054522874
 10
6.532739423447884
 20
4.633312011690277
 10
6.569621509113082
 20
4.614870968857678
 10
6.588062551945677
 20
4.559547840359885
 10
6.569621509113082
 20
4.522665754694687
 10
6.532739423447884
 20
4.484861616887862
 10
6.495857337782686
 20
4.484861616887862
  0
LWPOLYLINE
  5
91
100
AcDbEntity
  8
USP-GEO
100
AcDbPolyline
 90
       12
 70
   128
 43
0.0
 10
7.565437822073379
 20
4.577988883192482
 10
7.620760950571172
 20
4.577988883192482
 10
7.65764303623637
 20
4.541106797527286
 10
7.65764303623637
 20
4.503302659720459
 10
7.65764303623637
 20
4.447979531222665
 10
7.620760950571172
 20
4.411097445557469
 10
7.565437822073379
 20
4.411097445557469
 10
7.528555736408181
 20
4.411097445557469
 10
7.491673650742987
 20
4.447979531222665
 10
7.491673650742987
 20
4.503302659720459
 10
7.491673650742987
 20
4.541106797527286
 10
7.528555736408181
 20
4.577988883192482
  0
LWPOLYLINE
  5
92
100
AcDbEntity
  8
USP-GEO
100
AcDbPolyline
 90
       13
 70
   128
 43
0.0
 10
5.960145043495712
 20
3.82098407491433
 10
5.960145043495712
 20
4.614870968857678
 10
5.960145043495712
 20
4.780840354351061
 10
5.960145043495712
 20
4.928368697011846
 10
5.960145043495712
 20
5.039014954007434
 10
5.960145043495712
 20
5.112779125337826
 10
5.960145043495712
 20
5.204984339500818
 10
5.960145043495712
 20
5.297189553663809
 10
5.849498786500122
 20
5.297189553663809
 10
5.849498786500122
 20
5.204984339500818
 10
5.849498786500122
 20
5.112779125337826
 10
5.849498786500122
 20
5.039014954007434
 10
5.960145043495712
 20
5.039014954007434
  0
LWPOLYLINE
  5
93
100
AcDbEntity
  8
USP-GEO
100
AcDbPolyline
 90
        2
 70
   128
 43
0.0
 10
5.849498786500122
 20
4.614870968857678
 10
5.849498786500122
 20
3.82098407491433
  0
LWPOLYLINE
  5
94
100
AcDbEntity
  8
USP-GEO
100
AcDbPolyline
 90
        7
 70
   128
 43
0.0
 10
5.960145043495712
 20
4.836163482848856
 10
6.033909214826104
 20
4.799281397183658
 10
6.16299651465429
 20
4.670194097355473
 10
6.219241695293716
 20
4.484861616887862
 10
6.16299651465429
 20
4.318892231394478
 10
6.033909214826104
 20
4.171363888733694
 10
5.960145043495712
 20
4.152922845901095
  0
LWPOLYLINE
  5
95
100
AcDbEntity
  8
USP-GEO
100
AcDbPolyline
 90
        8
 70
   128
 43
0.0
 10
5.960145043495712
 20
2.472943843851407
 10
5.960145043495712
 20
2.879568838310195
 10
5.960145043495712
 20
3.340594909125147
 10
5.960145043495712
 20
3.82098407491433
 10
5.849498786500122
 20
3.82098407491433
 10
5.849498786500122
 20
3.340594909125147
 10
5.849498786500122
 20
2.879568838310195
 10
5.849498786500122
 20
2.472943843851407
  0
LWPOLYLINE
  5
96
100
AcDbEntity
  8
USP-GEO
100
AcDbPolyline
 90
        7
 70
   128
 43
0.0
 10
5.960145043495712
 20
3.710337817918741
 10
6.033909214826104
 20
3.673455732253543
 10
6.16299651465429
 20
3.544368432425358
 10
6.219241695293716
 20
3.359035951957746
 10
6.16299651465429
 20
3.193066566464363
 10
6.033909214826104
 20
3.045538223803578
 10
5.960145043495712
 20
3.027097180970979
  0
LWPOLYLINE
  5
97
100
AcDbEntity
  8
USP-GEO
100
AcDbPolyline
 90
        2
 70
   129
 43
0.0
 10
6.052350257658703
 20
1.827507344710472
 10
5.960145043495712
 20
1.827507344710472
  0
LWPOLYLINE
  5
98
100
AcDbEntity
  8
USP-GEO
100
AcDbPolyline
 90
        7
 70
   128
 43
0.0
 10
5.960145043495712
 20
2.566071110156027
 10
6.033909214826104
 20
2.546708015181799
 10
6.16299651465429
 20
2.417620715353612
 10
6.219241695293716
 20
2.233210287027631
 10
6.16299651465429
 20
2.067240901534248
 10
6.033909214826104
 20
1.919712558873463
 10
5.960145043495712
 20
1.901271516040864
  0
LWPOLYLINE
  5
99
100
AcDbEntity
  8
USP-GEO
100
AcDbPolyline
 90
        2
 70
   128
 43
0.0
 10
6.126114428989096
 20
1.772184216212679
 10
6.126114428989096
 20
1.735302130547482
  0
LWPOLYLINE
  5
9A
100
AcDbEntity
  8
USP-GEO
100
AcDbPolyline
 90
       12
 70
   129
 43
0.0
 10
6.052350257658703
 20
2.270092372692827
 10
6.070791300491302
 20
2.306974458358023
 10
6.107673386156497
 20
2.306974458358023
 10
6.126114428989096
 20
2.306974458358023
 10
6.144555471821695
 20
2.270092372692827
 10
6.16299651465429
 20
2.233210287027631
 10
6.144555471821695
 20
2.196328201362435
 10
6.126114428989096
 20
2.159446115697239
 10
6.107673386156497
 20
2.159446115697239
 10
6.070791300491302
 20
2.159446115697239
 10
6.052350257658703
 20
2.196328201362435
 10
6.052350257658703
 20
2.233210287027631
  0
LWPOLYLINE
  5
9B
100
AcDbEntity
  8
USP-GEO
100
AcDbPolyline
 90
        5
 70
   128
 43
0.0
 10
6.070791300491302
 20
2.177887158529836
 10
6.070791300491302
 20
2.196328201362435
 10
6.070791300491302
 20
2.233210287027631
 10
6.070791300491302
 20
2.270092372692827
 10
6.070791300491302
 20
2.288533415525424
  0
LWPOLYLINE
  5
9C
100
AcDbEntity
  8
USP-GEO
100
AcDbPolyline
 90
       13
 70
   128
 43
0.0
 10
6.532739423447884
 20
2.879568838310195
 10
6.569621509113082
 20
2.861127795477598
 10
6.588062551945677
 20
2.805804666979803
 10
6.569621509113082
 20
2.768922581314607
 10
6.532739423447884
 20
2.73204049564941
 10
6.495857337782686
 20
2.73204049564941
 10
6.329887952289306
 20
2.73204049564941
 10
6.274564823791509
 20
2.73204049564941
 10
6.256123780958914
 20
2.768922581314607
 10
6.237682738126315
 20
2.805804666979803
 10
6.256123780958914
 20
2.861127795477598
 10
6.274564823791509
 20
2.879568838310195
 10
6.329887952289306
 20
2.898009881142794
  0
LWPOLYLINE
  5
9D
100
AcDbEntity
  8
USP-GEO
100
AcDbPolyline
 90
        2
 70
   128
 43
0.0
 10
6.495857337782686
 20
2.73204049564941
 10
6.329887952289306
 20
2.73204049564941
  0
LWPOLYLINE
  5
9E
100
AcDbEntity
  8
USP-GEO
100
AcDbPolyline
 90
        2
 70
   129
 43
0.0
 10
6.495857337782686
 20
2.898009881142794
 10
6.329887952289306
 20
2.898009881142794
  0
LWPOLYLINE
  5
9F
100
AcDbEntity
  8
USP-GEO
100
AcDbPolyline
 90
        2
 70
   129
 43
0.0
 10
6.532739423447884
 20
2.879568838310195
 10
6.495857337782686
 20
2.898009881142794
  0
LWPOLYLINE
  5
A0
100
AcDbEntity
  8
USP-GEO
100
AcDbPolyline
 90
       12
 70
   129
 43
0.0
 10
6.052350257658703
 20
3.395918037622942
 10
6.052350257658703
 20
3.359035951957746
 10
6.052350257658703
 20
3.32215386629255
 10
6.070791300491302
 20
3.285271780627354
 10
6.107673386156497
 20
3.285271780627354
 10
6.126114428989096
 20
3.285271780627354
 10
6.144555471821695
 20
3.32215386629255
 10
6.16299651465429
 20
3.359035951957746
 10
6.144555471821695
 20
3.395918037622942
 10
6.126114428989096
 20
3.432800123288139
 10
6.107673386156497
 20
3.432800123288139
 10
6.070791300491302
 20
3.432800123288139
  0
LWPOLYLINE
  5
A1
100
AcDbEntity
  8
USP-GEO
100
AcDbPolyline
 90
        5
 70
   128
 43
0.0
 10
6.070791300491302
 20
3.41435908045554
 10
6.070791300491302
 20
3.395918037622942
 10
6.070791300491302
 20
3.359035951957746
 10
6.070791300491302
 20
3.32215386629255
 10
6.070791300491302
 20
3.303712823459951
  0
LWPOLYLINE
  5
A2
100
AcDbEntity
  8
USP-GEO
100
AcDbPolyline
 90
        4
 70
   128
 43
0.0
 10
6.070791300491302
 20
3.636573646588347
 10
6.089232343323898
 20
3.61813260375575
 10
6.126114428989096
 20
3.599691560923151
 10
6.126114428989096
 20
3.581250518090554
  0
LWPOLYLINE
  5
A3
100
AcDbEntity
  8
USP-GEO
100
AcDbPolyline
 90
       12
 70
   129
 43
0.0
 10
6.052350257658703
 20
4.522665754694687
 10
6.070791300491302
 20
4.559547840359885
 10
6.107673386156497
 20
4.559547840359885
 10
6.126114428989096
 20
4.559547840359885
 10
6.144555471821695
 20
4.522665754694687
 10
6.16299651465429
 20
4.484861616887862
 10
6.144555471821695
 20
4.447979531222665
 10
6.126114428989096
 20
4.411097445557469
 10
6.107673386156497
 20
4.411097445557469
 10
6.070791300491302
 20
4.411097445557469
 10
6.052350257658703
 20
4.447979531222665
 10
6.052350257658703
 20
4.484861616887862
  0
LWPOLYLINE
  5
A4
100
AcDbEntity
  8
USP-GEO
100
AcDbPolyline
 90
        5
 70
   128
 43
0.0
 10
6.070791300491302
 20
4.429538488390067
 10
6.070791300491302
 20
4.447979531222665
 10
6.070791300491302
 20
4.484861616887862
 10
6.070791300491302
 20
4.522665754694687
 10
6.070791300491302
 20
4.541106797527286
  0
LWPOLYLINE
  5
A5
100
AcDbEntity
  8
USP-GEO
100
AcDbPolyline
 90
        2
 70
   129
 43
0.0
 10
6.329887952289306
 20
4.484861616887862
 10
6.495857337782686
 20
4.484861616887862
  0
LWPOLYLINE
  5
A6
100
AcDbEntity
  8
USP-GEO
100
AcDbPolyline
 90
       12
 70
   129
 43
0.0
 10
7.049088622760629
 20
2.270092372692827
 10
7.067529665593228
 20
2.306974458358023
 10
7.085970708425827
 20
2.362297586855818
 10
7.067529665593228
 20
2.399179672521015
 10
7.049088622760629
 20
2.436061758186211
 10
6.993765494262836
 20
2.436061758186211
 10
6.956883408597642
 20
2.436061758186211
 10
6.920001322932444
 20
2.399179672521015
 10
6.901560280099845
 20
2.362297586855818
 10
6.920001322932444
 20
2.306974458358023
 10
6.956883408597642
 20
2.270092372692827
 10
6.993765494262836
 20
2.270092372692827
  0
LWPOLYLINE
  5
A7
100
AcDbEntity
  8
USP-GEO
100
AcDbPolyline
 90
        2
 70
   128
 43
0.0
 10
7.049088622760629
 20
2.270092372692827
 10
6.993765494262836
 20
2.270092372692827
  0
LWPOLYLINE
  5
A8
100
AcDbEntity
  8
USP-GEO
100
AcDbPolyline
 90
       12
 70
   128
 43
0.0
 10
6.993765494262836
 20
3.506564294618531
 10
6.956883408597642
 20
3.52500533745113
 10
6.920001322932444
 20
3.562809475257955
 10
6.901560280099845
 20
3.599691560923151
 10
6.920001322932444
 20
3.655014689420946
 10
6.956883408597642
 20
3.691896775086142
 10
6.993765494262836
 20
3.691896775086142
 10
7.049088622760629
 20
3.691896775086142
 10
7.067529665593228
 20
3.655014689420946
 10
7.085970708425827
 20
3.599691560923151
 10
7.067529665593228
 20
3.562809475257955
 10
7.049088622760629
 20
3.52500533745113
  0
LWPOLYLINE
  5
A9
100
AcDbEntity
  8
USP-GEO
100
AcDbPolyline
 90
        2
 70
   129
 43
0.0
 10
6.993765494262836
 20
3.506564294618531
 10
7.049088622760629
 20
3.52500533745113
  0
LWPOLYLINE
  5
AA
100
AcDbEntity
  8
USP-GEO
100
AcDbPolyline
 90
       12
 70
   129
 43
0.0
 10
7.491673650742987
 20
3.248389694962158
 10
7.491673650742987
 20
3.285271780627354
 10
7.528555736408181
 20
3.32215386629255
 10
7.565437822073379
 20
3.340594909125147
 10
7.620760950571172
 20
3.32215386629255
 10
7.65764303623637
 20
3.285271780627354
 10
7.65764303623637
 20
3.248389694962158
 10
7.65764303623637
 20
3.193066566464363
 10
7.620760950571172
 20
3.174625523631766
 10
7.565437822073379
 20
3.156184480799167
 10
7.528555736408181
 20
3.174625523631766
 10
7.491673650742987
 20
3.193066566464363
  0
LWPOLYLINE
  5
AB
100
AcDbEntity
  8
USP-GEO
100
AcDbPolyline
 90
       20
 70
   128
 43
0.0
 10
5.960145043495712
 20
6.921845427215703
 10
5.849498786500122
 20
6.921845427215703
 10
5.849498786500122
 20
6.977168555713497
 10
5.849498786500122
 20
7.069373769876488
 10
5.849498786500122
 20
7.180020026872076
 10
5.960145043495712
 20
7.180020026872076
 10
5.960145043495712
 20
7.069373769876488
 10
5.960145043495712
 20
6.977168555713497
 10
5.960145043495712
 20
6.921845427215703
 10
5.960145043495712
 20
6.811199170220113
 10
5.960145043495712
 20
6.663670827559329
 10
5.960145043495712
 20
6.497701442065945
 10
5.960145043495712
 20
6.293927918765737
 10
5.960145043495712
 20
6.127958533272353
 10
5.960145043495712
 20
5.980430190611569
 10
5.960145043495712
 20
5.86978393361598
 10
5.960145043495712
 20
5.814460805118185
 10
5.960145043495712
 20
5.722255590955196
 10
5.960145043495712
 20
5.611609333959606
 10
5.960145043495712
 20
5.297189553663809
  0
LWPOLYLINE
  5
AC
100
AcDbEntity
  8
USP-GEO
100
AcDbPolyline
 90
        5
 70
   128
 43
0.0
 10
5.849498786500122
 20
6.293927918765737
 10
5.849498786500122
 20
6.127958533272353
 10
5.849498786500122
 20
5.980430190611569
 10
5.849498786500122
 20
5.86978393361598
 10
5.960145043495712
 20
5.86978393361598
  0
LWPOLYLINE
  5
AD
100
AcDbEntity
  8
USP-GEO
100
AcDbPolyline
 90
        2
 70
   129
 43
0.0
 10
5.960145043495712
 20
5.223425382333417
 10
6.052350257658703
 20
5.223425382333417
  0
LWPOLYLINE
  5
AE
100
AcDbEntity
  8
USP-GEO
100
AcDbPolyline
 90
        2
 70
   129
 43
0.0
 10
6.052350257658703
 20
5.389394767826798
 10
5.960145043495712
 20
5.389394767826798
  0
LWPOLYLINE
  5
AF
100
AcDbEntity
  8
USP-GEO
100
AcDbPolyline
 90
        5
 70
   128
 43
0.0
 10
5.960145043495712
 20
4.614870968857678
 10
5.849498786500122
 20
4.614870968857678
 10
5.849498786500122
 20
4.780840354351061
 10
5.849498786500122
 20
4.928368697011846
 10
5.849498786500122
 20
5.039014954007434
  0
LWPOLYLINE
  5
B0
100
AcDbEntity
  8
USP-GEO
100
AcDbPolyline
 90
        4
 70
   128
 43
0.0
 10
5.849498786500122
 20
5.86978393361598
 10
5.849498786500122
 20
5.814460805118185
 10
5.849498786500122
 20
5.722255590955196
 10
5.849498786500122
 20
5.611609333959606
  0
LWPOLYLINE
  5
B1
100
AcDbEntity
  8
USP-GEO
100
AcDbPolyline
 90
        3
 70
   128
 43
0.0
 10
5.960145043495712
 20
5.611609333959606
 10
5.849498786500122
 20
5.611609333959606
 10
5.849498786500122
 20
5.297189553663809
  0
LWPOLYLINE
  5
B2
100
AcDbEntity
  8
USP-GEO
100
AcDbPolyline
 90
        7
 70
   128
 43
0.0
 10
6.052350257658703
 20
5.389394767826798
 10
6.089232343323898
 20
5.370953724994201
 10
6.126114428989096
 20
5.352512682161602
 10
6.126114428989096
 20
5.297189553663809
 10
6.126114428989096
 20
5.260307467998613
 10
6.089232343323898
 20
5.223425382333417
 10
6.052350257658703
 20
5.223425382333417
  0
LWPOLYLINE
  5
B3
100
AcDbEntity
  8
USP-GEO
100
AcDbPolyline
 90
        2
 70
   129
 43
0.0
 10
6.495857337782686
 20
4.651753054522874
 10
6.329887952289306
 20
4.651753054522874
  0
LWPOLYLINE
  5
B4
100
AcDbEntity
  8
USP-GEO
100
AcDbPolyline
 90
        2
 70
   129
 43
0.0
 10
5.960145043495712
 20
6.9587275128809
 10
6.052350257658703
 20
6.9587275128809
  0
LWPOLYLINE
  5
B5
100
AcDbEntity
  8
USP-GEO
100
AcDbPolyline
 90
        2
 70
   129
 43
0.0
 10
6.052350257658703
 20
7.14313794120688
 10
5.960145043495712
 20
7.14313794120688
  0
LWPOLYLINE
  5
B6
100
AcDbEntity
  8
USP-GEO
100
AcDbPolyline
 90
        7
 70
   128
 43
0.0
 10
5.960145043495712
 20
6.700552913224525
 10
6.033909214826104
 20
6.663670827559329
 10
6.16299651465429
 20
6.534583527731143
 10
6.219241695293716
 20
6.367692090096129
 10
6.16299651465429
 20
6.183281661770148
 10
6.033909214826104
 20
6.054194361941961
 10
5.960145043495712
 20
6.017312276276765
  0
LWPOLYLINE
  5
B7
100
AcDbEntity
  8
USP-GEO
100
AcDbPolyline
 90
        5
 70
   128
 43
0.0
 10
5.960145043495712
 20
6.497701442065945
 10
5.849498786500122
 20
6.497701442065945
 10
5.849498786500122
 20
6.663670827559329
 10
5.849498786500122
 20
6.811199170220113
 10
5.849498786500122
 20
6.921845427215703
  0
LWPOLYLINE
  5
B8
100
AcDbEntity
  8
USP-GEO
100
AcDbPolyline
 90
        3
 70
   128
 43
0.0
 10
5.960145043495712
 20
6.293927918765737
 10
5.849498786500122
 20
6.293927918765737
 10
5.849498786500122
 20
6.497701442065945
  0
LWPOLYLINE
  5
B9
100
AcDbEntity
  8
USP-GEO
100
AcDbPolyline
 90
        4
 70
   128
 43
0.0
 10
5.960145043495712
 20
7.180020026872076
 10
5.960145043495712
 20
7.364430455198057
 10
5.849498786500122
 20
7.364430455198057
 10
5.849498786500122
 20
7.180020026872076
  0
LWPOLYLINE
  5
BA
100
AcDbEntity
  8
USP-GEO
100
AcDbPolyline
 90
        7
 70
   128
 43
0.0
 10
6.329887952289306
 20
6.220163747435345
 10
6.274564823791509
 20
6.238604790267942
 10
6.256123780958914
 20
6.27548687593314
 10
6.237682738126315
 20
6.312368961598336
 10
6.256123780958914
 20
6.349251047263532
 10
6.274564823791509
 20
6.386133132928728
 10
6.329887952289306
 20
6.404574175761325
  0
LWPOLYLINE
  5
BB
100
AcDbEntity
  8
USP-GEO
100
AcDbPolyline
 90
        5
 70
   128
 43
0.0
 10
6.070791300491302
 20
6.423015218593924
 10
6.070791300491302
 20
6.404574175761325
 10
6.070791300491302
 20
6.367692090096129
 10
6.070791300491302
 20
6.330810004430933
 10
6.070791300491302
 20
6.312368961598336
  0
LWPOLYLINE
  5
BC
100
AcDbEntity
  8
USP-GEO
100
AcDbPolyline
 90
       12
 70
   129
 43
0.0
 10
6.052350257658703
 20
6.367692090096129
 10
6.052350257658703
 20
6.330810004430933
 10
6.070791300491302
 20
6.293927918765737
 10
6.107673386156497
 20
6.293927918765737
 10
6.126114428989096
 20
6.293927918765737
 10
6.144555471821695
 20
6.330810004430933
 10
6.16299651465429
 20
6.367692090096129
 10
6.144555471821695
 20
6.404574175761325
 10
6.126114428989096
 20
6.423015218593924
 10
6.107673386156497
 20
6.441456261426521
 10
6.070791300491302
 20
6.423015218593924
 10
6.052350257658703
 20
6.404574175761325
  0
LWPOLYLINE
  5
BD
100
AcDbEntity
  8
USP-GEO
100
AcDbPolyline
 90
        7
 70
   128
 43
0.0
 10
6.495857337782686
 20
6.404574175761325
 10
6.532739423447884
 20
6.386133132928728
 10
6.569621509113082
 20
6.349251047263532
 10
6.588062551945677
 20
6.312368961598336
 10
6.569621509113082
 20
6.27548687593314
 10
6.532739423447884
 20
6.238604790267942
 10
6.495857337782686
 20
6.220163747435345
  0
LWPOLYLINE
  5
BE
100
AcDbEntity
  8
USP-GEO
100
AcDbPolyline
 90
        2
 70
   129
 43
0.0
 10
6.329887952289306
 20
6.220163747435345
 10
6.495857337782686
 20
6.220163747435345
  0
LWPOLYLINE
  5
BF
100
AcDbEntity
  8
USP-GEO
100
AcDbPolyline
 90
        2
 70
   128
 43
0.0
 10
6.569621509113082
 20
6.349251047263532
 10
6.588062551945677
 20
6.312368961598336
  0
LWPOLYLINE
  5
C0
100
AcDbEntity
  8
USP-GEO
100
AcDbPolyline
 90
        2
 70
   129
 43
0.0
 10
6.495857337782686
 20
6.404574175761325
 10
6.329887952289306
 20
6.404574175761325
  0
LWPOLYLINE
  5
C1
100
AcDbEntity
  8
USP-GEO
100
AcDbPolyline
 90
        7
 70
   128
 43
0.0
 10
6.052350257658703
 20
7.14313794120688
 10
6.089232343323898
 20
7.124696898374283
 10
6.126114428989096
 20
7.087814812709085
 10
6.126114428989096
 20
7.050932727043889
 10
6.126114428989096
 20
7.014050641378693
 10
6.089232343323898
 20
6.977168555713497
 10
6.052350257658703
 20
6.9587275128809
  0
LWPOLYLINE
  5
C2
100
AcDbEntity
  8
USP-GEO
100
AcDbPolyline
 90
       12
 70
   128
 43
0.0
 10
6.993765494262836
 20
4.762399311518462
 10
6.956883408597642
 20
4.780840354351061
 10
6.920001322932444
 20
4.817722440016257
 10
6.901560280099845
 20
4.854604525681454
 10
6.920001322932444
 20
4.909927654179249
 10
6.956883408597642
 20
4.928368697011846
 10
6.993765494262836
 20
4.946809739844445
 10
7.049088622760629
 20
4.928368697011846
 10
7.067529665593228
 20
4.909927654179249
 10
7.085970708425827
 20
4.854604525681454
 10
7.067529665593228
 20
4.817722440016257
 10
7.049088622760629
 20
4.780840354351061
  0
LWPOLYLINE
  5
C3
100
AcDbEntity
  8
USP-GEO
100
AcDbPolyline
 90
        2
 70
   129
 43
0.0
 10
6.993765494262836
 20
4.762399311518462
 10
7.049088622760629
 20
4.780840354351061
  0
LWPOLYLINE
  5
C4
100
AcDbEntity
  8
USP-GEO
100
AcDbPolyline
 90
        2
 70
   129
 43
0.0
 10
7.565437822073379
 20
4.577988883192482
 10
7.528555736408181
 20
4.577988883192482
  0
LWPOLYLINE
  5
C5
100
AcDbEntity
  8
USP-GEO
100
AcDbPolyline
 90
        2
 70
   129
 43
0.0
 10
7.565437822073379
 20
5.740696633787793
 10
7.620760950571172
 20
5.759137676620392
  0
LWPOLYLINE
  5
C6
100
AcDbEntity
  8
USP-GEO
100
AcDbPolyline
 90
       12
 70
   128
 43
0.0
 10
7.565437822073379
 20
5.740696633787793
 10
7.528555736408181
 20
5.759137676620392
 10
7.491673650742987
 20
5.777578719452989
 10
7.491673650742987
 20
5.832901847950784
 10
7.491673650742987
 20
5.86978393361598
 10
7.528555736408181
 20
5.906666019281177
 10
7.565437822073379
 20
5.925107062113774
 10
7.620760950571172
 20
5.906666019281177
 10
7.65764303623637
 20
5.86978393361598
 10
7.65764303623637
 20
5.832901847950784
 10
7.65764303623637
 20
5.777578719452989
 10
7.620760950571172
 20
5.759137676620392
  0
LWPOLYLINE
  5
C7
100
AcDbEntity
  8
USP-GEO
100
AcDbPolyline
 90
       12
 70
   129
 43
0.0
 10
6.901560280099845
 20
6.109517490439756
 10
6.920001322932444
 20
6.054194361941961
 10
6.956883408597642
 20
6.035753319109364
 10
6.993765494262836
 20
6.017312276276765
 10
7.049088622760629
 20
6.035753319109364
 10
7.067529665593228
 20
6.054194361941961
 10
7.085970708425827
 20
6.109517490439756
 10
7.067529665593228
 20
6.146399576104952
 10
7.049088622760629
 20
6.183281661770148
 10
6.993765494262836
 20
6.201722704602746
 10
6.956883408597642
 20
6.183281661770148
 10
6.920001322932444
 20
6.146399576104952
  0
LWPOLYLINE
  5
C8
100
AcDbEntity
  8
USP-GEO
100
AcDbPolyline
 90
        2
 70
   129
 43
0.0
 10
6.993765494262836
 20
7.14313794120688
 10
6.956883408597642
 20
7.124696898374283
  0
LWPOLYLINE
  5
C9
100
AcDbEntity
  8
USP-GEO
100
AcDbPolyline
 90
       12
 70
   128
 43
0.0
 10
6.993765494262836
 20
7.14313794120688
 10
7.049088622760629
 20
7.124696898374283
 10
7.067529665593228
 20
7.106255855541684
 10
7.085970708425827
 20
7.050932727043889
 10
7.067529665593228
 20
7.014050641378693
 10
7.049088622760629
 20
6.977168555713497
 10
6.993765494262836
 20
6.9587275128809
 10
6.956883408597642
 20
6.977168555713497
 10
6.920001322932444
 20
7.014050641378693
 10
6.901560280099845
 20
7.050932727043889
 10
6.920001322932444
 20
7.106255855541684
 10
6.956883408597642
 20
7.124696898374283
  0
LWPOLYLINE
  5
CA
100
AcDbEntity
  8
USP-GEO
100
AcDbPolyline
 90
       12
 70
   128
 43
0.0
 10
7.565437822073379
 20
6.774317084554917
 10
7.528555736408181
 20
6.792758127387516
 10
7.491673650742987
 20
6.829640213052712
 10
7.491673650742987
 20
6.866522298717908
 10
7.491673650742987
 20
6.921845427215703
 10
7.528555736408181
 20
6.9587275128809
 10
7.565437822073379
 20
6.9587275128809
 10
7.620760950571172
 20
6.9587275128809
 10
7.65764303623637
 20
6.921845427215703
 10
7.65764303623637
 20
6.866522298717908
 10
7.65764303623637
 20
6.829640213052712
 10
7.620760950571172
 20
6.792758127387516
  0
LWPOLYLINE
  5
CB
100
AcDbEntity
  8
USP-GEO
100
AcDbPolyline
 90
        2
 70
   129
 43
0.0
 10
7.565437822073379
 20
6.774317084554917
 10
7.620760950571172
 20
6.792758127387516
  0
LWPOLYLINE
  5
CC
100
AcDbEntity
  8
USP-GEO
100
AcDbPolyline
 90
        2
 70
   129
 43
0.0
 10
8.082709073527757
 20
4.614870968857678
 10
8.082709073527757
 20
3.82098407491433
  0
LWPOLYLINE
  5
CD
100
AcDbEntity
  8
USP-GEO
100
AcDbPolyline
 90
        7
 70
   128
 43
0.0
 10
8.082709073527757
 20
6.293927918765737
 10
8.119591159192951
 20
6.127958533272353
 10
8.193355330523344
 20
5.980430190611569
 10
8.322442630351533
 20
5.86978393361598
 10
8.396206801681925
 20
5.814460805118185
 10
8.451529930179718
 20
5.722255590955196
 10
8.469970973012317
 20
5.611609333959606
  0
LWPOLYLINE
  5
CE
100
AcDbEntity
  8
USP-GEO
100
AcDbPolyline
 90
       12
 70
   128
 43
0.0
 10
8.064268030695158
 20
5.334071639329005
 10
8.101150116360352
 20
5.370953724994201
 10
8.156473244858149
 20
5.389394767826798
 10
8.193355330523344
 20
5.370953724994201
 10
8.230237416188542
 20
5.334071639329005
 10
8.248678459021137
 20
5.297189553663809
 10
8.230237416188542
 20
5.260307467998613
 10
8.193355330523344
 20
5.223425382333417
 10
8.156473244858149
 20
5.204984339500818
 10
8.101150116360352
 20
5.223425382333417
 10
8.064268030695158
 20
5.260307467998613
 10
8.064268030695158
 20
5.297189553663809
  0
LWPOLYLINE
  5
CF
100
AcDbEntity
  8
USP-GEO
100
AcDbPolyline
 90
        7
 70
   128
 43
0.0
 10
8.469970973012317
 20
5.297189553663809
 10
8.451529930179718
 20
5.204984339500818
 10
8.396206801681925
 20
5.112779125337826
 10
8.322442630351533
 20
5.039014954007434
 10
8.193355330523344
 20
4.928368697011846
 10
8.119591159192951
 20
4.780840354351061
 10
8.082709073527757
 20
4.614870968857678
  0
LWPOLYLINE
  5
D0
100
AcDbEntity
  8
USP-GEO
100
AcDbPolyline
 90
        2
 70
   129
 43
0.0
 10
8.064268030695158
 20
5.334071639329005
 10
8.064268030695158
 20
5.297189553663809
  0
LWPOLYLINE
  5
D1
100
AcDbEntity
  8
USP-GEO
100
AcDbPolyline
 90
        2
 70
   129
 43
0.0
 10
8.469970973012317
 20
5.611609333959606
 10
8.469970973012317
 20
5.297189553663809
  0
LWPOLYLINE
  5
D2
100
AcDbEntity
  8
USP-GEO
100
AcDbPolyline
 90
        3
 70
   128
 43
0.0
 10
8.082709073527757
 20
6.497701442065945
 10
8.119591159192951
 20
6.663670827559329
 10
8.193355330523344
 20
6.811199170220113
  0
LWPOLYLINE
  5
D3
100
AcDbEntity
  8
USP-GEO
100
AcDbPolyline
 90
        2
 70
   129
 43
0.0
 10
8.082709073527757
 20
6.497701442065945
 10
8.082709073527757
 20
6.293927918765737
  0
LWPOLYLINE
  5
D4
100
AcDbEntity
  8
USP-GEO
100
AcDbPolyline
 90
        2
 70
   129
 43
0.0
 10
8.322442630351533
 20
6.921845427215703
 10
8.193355330523344
 20
6.811199170220113
  0
LWPOLYLINE
  5
D5
100
AcDbEntity
  8
USP-GEO
100
AcDbPolyline
 90
       12
 70
   128
 43
0.0
 10
8.156473244858149
 20
6.9587275128809
 10
8.101150116360352
 20
6.977168555713497
 10
8.064268030695158
 20
6.995609598546096
 10
8.064268030695158
 20
7.050932727043889
 10
8.064268030695158
 20
7.087814812709085
 10
8.101150116360352
 20
7.124696898374283
 10
8.156473244858149
 20
7.14313794120688
 10
8.193355330523344
 20
7.124696898374283
 10
8.230237416188542
 20
7.087814812709085
 10
8.248678459021137
 20
7.050932727043889
 10
8.230237416188542
 20
6.995609598546096
 10
8.193355330523344
 20
6.977168555713497
  0
LWPOLYLINE
  5
D6
100
AcDbEntity
  8
USP-GEO
100
AcDbPolyline
 90
        2
 70
   129
 43
0.0
 10
8.156473244858149
 20
6.9587275128809
 10
8.193355330523344
 20
6.977168555713497
  0
LWPOLYLINE
  5
D7
100
AcDbEntity
  8
USP-GEO
100
AcDbPolyline
 90
        4
 70
   128
 43
0.0
 10
8.469970973012317
 20
7.180020026872076
 10
8.451529930179718
 20
7.069373769876488
 10
8.396206801681925
 20
6.977168555713497
 10
8.322442630351533
 20
6.921845427215703
  0
LWPOLYLINE
  5
D8
100
AcDbEntity
  8
USP-GEO
100
AcDbPolyline
 90
        2
 70
   129
 43
0.0
 10
8.469970973012317
 20
7.364430455198057
 10
8.469970973012317
 20
7.180020026872076
  0
ENDBLK
  5
DA
100
AcDbEntity
  8
0
100
AcDbBlockEnd
  0
BLOCK
  5
120
100
AcDbEntity
  8
0
100
AcDbBlockBegin
  2
THDH28-2_S
 70
     0
 10
0.0
 20
0.0
 30
0.0
  3
THDH28-2_S
  1

  0
TEXT
  5
DD
100
AcDbEntity
  8
USP-TXT
100
AcDbText
 10
-0.6962031198636294
 20
-1.788898946260932
 30
0.0
 40
0.296875
  1
THDH28-2 - SIDE VIEW
 72
     1
 11
2.223067713469703
 21
-1.788898946260932
 31
0.0
100
AcDbText
  0
LWPOLYLINE
  5
DE
100
AcDbEntity
  8
USP-GEO
100
AcDbPolyline
 90
        2
 70
   128
 43
0.0
 10
4.224842912948229
 20
0.1106462569955866
 10
0.2212925139911768
 20
0.1106462569955866
  0
LWPOLYLINE
  5
DF
100
AcDbEntity
  8
USP-GEO
100
AcDbPolyline
 90
        4
 70
   128
 43
0.0
 10
0.2212925139911768
 20
0.2766156424889701
 10
0.2212925139911768
 20
0.0
 10
4.224842912948229
 20
0.0
 10
4.224842912948229
 20
0.2766156424889701
  0
LWPOLYLINE
  5
E0
100
AcDbEntity
  8
USP-GEO
100
AcDbPolyline
 90
      131
 70
   128
 43
0.0
 10
0.0922052141629903
 20
0.8123279367759455
 10
0.0
 20
0.8123279367759455
 10
0.0
 20
0.7754458511107494
 10
0.0
 20
0.7385637654455551
 10
0.0
 20
0.7016816797803572
 10
0.0922052141629903
 20
0.7016816797803572
 10
0.0922052141629903
 20
0.7385637654455551
 10
0.0922052141629903
 20
0.7754458511107494
 10
0.0922052141629903
 20
0.8123279367759455
 10
0.0922052141629903
 20
2.472943843851407
 10
0.0922052141629903
 20
2.879568838310195
 10
0.0922052141629903
 20
3.340594909125147
 10
0.0922052141629903
 20
3.82098407491433
 10
0.0922052141629903
 20
4.614870968857678
 10
0.0922052141629903
 20
4.780840354351061
 10
0.0922052141629903
 20
4.928368697011846
 10
0.0922052141629903
 20
5.039014954007434
 10
0.0922052141629903
 20
5.112779125337826
 10
0.0922052141629903
 20
5.204984339500818
 10
0.0922052141629903
 20
5.297189553663809
 10
0.0922052141629903
 20
5.611609333959606
 10
0.0922052141629903
 20
5.722255590955196
 10
0.0922052141629903
 20
5.814460805118185
 10
0.0922052141629903
 20
5.86978393361598
 10
0.0922052141629903
 20
5.980430190611569
 10
0.0922052141629903
 20
6.127958533272353
 10
0.0922052141629903
 20
6.293927918765737
 10
0.0922052141629903
 20
6.497701442065945
 10
0.0922052141629903
 20
6.663670827559329
 10
0.0922052141629903
 20
6.811199170220113
 10
0.0922052141629903
 20
6.921845427215703
 10
0.0922052141629903
 20
6.977168555713497
 10
0.0922052141629903
 20
7.069373769876488
 10
0.0922052141629903
 20
7.180020026872076
 10
0.0922052141629903
 20
7.364430455198057
 10
0.0
 20
7.364430455198057
 10
0.0
 20
7.180020026872076
 10
0.0
 20
7.069373769876488
 10
0.0
 20
6.977168555713497
 10
0.0
 20
6.921845427215703
 10
0.0
 20
6.811199170220113
 10
0.0
 20
6.663670827559329
 10
0.0
 20
6.497701442065945
 10
0.0
 20
6.293927918765737
 10
0.0
 20
6.127958533272353
 10
0.0
 20
5.980430190611569
 10
0.0
 20
5.86978393361598
 10
0.0
 20
5.814460805118185
 10
0.0
 20
5.722255590955196
 10
0.0
 20
5.611609333959606
 10
0.0
 20
5.297189553663809
 10
0.0
 20
5.204984339500818
 10
0.0
 20
5.112779125337826
 10
0.0
 20
5.039014954007434
 10
0.0
 20
4.928368697011846
 10
0.0
 20
4.780840354351061
 10
0.0
 20
4.614870968857678
 10
0.0
 20
3.82098407491433
 10
0.0
 20
3.340594909125147
 10
0.0
 20
2.879568838310195
 10
0.0
 20
2.472943843851407
 10
0.0
 20
0.8123279367759455
 10
0.0
 20
0.7754458511107494
 10
0.0
 20
0.7385637654455551
 10
0.0
 20
0.7016816797803572
 10
0.0922052141629903
 20
0.7016816797803572
 10
0.1659693854933826
 20
0.5716723278105392
 10
0.2028514711585787
 20
0.4425850279823536
 10
0.2212925139911768
 20
0.2766156424889701
 10
0.2212925139911768
 20
0.0
 10
4.224842912948229
 20
0.0
 10
4.224842912948229
 20
0.2766156424889701
 10
4.20640187011563
 20
0.4794671136475515
 10
4.132637698785238
 20
0.6647995941151628
 10
4.02199144178965
 20
0.8123279367759455
 10
2.490462834542375
 20
2.472943843851407
 10
2.213847192053403
 20
2.879568838310195
 10
2.029436763727423
 20
3.340594909125147
 10
1.974113635229628
 20
3.82098407491433
 10
1.974113635229628
 20
4.614870968857678
 10
1.937231549564431
 20
4.780840354351061
 10
1.863467378234039
 20
4.928368697011846
 10
1.734380078405852
 20
5.039014954007434
 10
1.66061590707546
 20
5.112779125337826
 10
1.623733821410263
 20
5.204984339500818
 10
1.605292778577666
 20
5.297189553663809
 10
1.605292778577666
 20
5.611609333959606
 10
1.623733821410263
 20
5.722255590955196
 10
1.66061590707546
 20
5.814460805118185
 10
1.734380078405852
 20
5.86978393361598
 10
1.863467378234039
 20
5.980430190611569
 10
1.937231549564431
 20
6.127958533272353
 10
1.974113635229628
 20
6.293927918765737
 10
1.974113635229628
 20
6.497701442065945
 10
1.937231549564431
 20
6.663670827559329
 10
1.863467378234039
 20
6.811199170220113
 10
1.734380078405852
 20
6.921845427215703
 10
1.66061590707546
 20
6.977168555713497
 10
1.623733821410263
 20
7.069373769876488
 10
1.605292778577666
 20
7.180020026872076
 10
1.605292778577666
 20
7.364430455198057
 10
0.0922052141629903
 20
7.364430455198057
 10
0.0922052141629903
 20
7.180020026872076
 10
0.0922052141629903
 20
7.069373769876488
 10
0.0922052141629903
 20
6.977168555713497
 10
0.0922052141629903
 20
6.921845427215703
 10
0.0922052141629903
 20
6.811199170220113
 10
0.0922052141629903
 20
6.663670827559329
 10
0.0922052141629903
 20
6.497701442065945
 10
0.0922052141629903
 20
6.293927918765737
 10
0.0922052141629903
 20
6.127958533272353
 10
0.0922052141629903
 20
5.980430190611569
 10
0.0922052141629903
 20
5.86978393361598
 10
0.0922052141629903
 20
5.814460805118185
 10
0.0922052141629903
 20
5.722255590955196
 10
0.0922052141629903
 20
5.611609333959606
 10
0.0922052141629903
 20
5.297189553663809
 10
0.0922052141629903
 20
5.204984339500818
 10
0.0922052141629903
 20
5.112779125337826
 10
0.0922052141629903
 20
5.039014954007434
 10
0.0922052141629903
 20
4.928368697011846
 10
0.0922052141629903
 20
4.780840354351061
 10
0.0922052141629903
 20
4.614870968857678
 10
0.0922052141629903
 20
3.82098407491433
 10
0.0922052141629903
 20
3.340594909125147
 10
0.0922052141629903
 20
2.879568838310195
 10
0.0922052141629903
 20
2.472943843851407
 10
0.0922052141629903
 20
0.8123279367759455
 10
0.0922052141629903
 20
0.7754458511107494
 10
0.0922052141629903
 20
0.7385637654455551
 10
0.0922052141629903
 20
0.7016816797803572
  0
LWPOLYLINE
  5
E1
100
AcDbEntity
  8
USP-GEO
100
AcDbPolyline
 90
        7
 70
   128
 43
0.0
 10
0.1844104283259806
 20
1.531528607247272
 10
0.2212925139911768
 20
1.531528607247272
 10
0.2581745996563738
 20
1.568410692912468
 10
0.2766156424889719
 20
1.606214830719295
 10
0.2581745996563738
 20
1.661537959217088
 10
0.2212925139911768
 20
1.679979002049687
 10
0.1844104283259806
 20
1.698420044882285
  0
LWPOLYLINE
  5
E2
100
AcDbEntity
  8
USP-GEO
100
AcDbPolyline
 90
        2
 70
   128
 43
0.0
 10
0.0
 20
2.472943843851407
 10
0.0
 20
0.8123279367759455
  0
LWPOLYLINE
  5
E3
100
AcDbEntity
  8
USP-GEO
100
AcDbPolyline
 90
        3
 70
   128
 43
0.0
 10
0.2397335568237748
 20
1.679979002049687
 10
0.2212925139911768
 20
1.661537959217088
 10
0.1844104283259806
 20
1.643096916384491
  0
LWPOLYLINE
  5
E4
100
AcDbEntity
  8
USP-GEO
100
AcDbPolyline
 90
        2
 70
   128
 43
0.0
 10
0.1659693854933826
 20
0.5716723278105392
 10
0.2028514711585787
 20
0.4425850279823536
  0
LWPOLYLINE
  5
E5
100
AcDbEntity
  8
USP-GEO
100
AcDbPolyline
 90
        2
 70
   129
 43
0.0
 10
0.0922052141629903
 20
1.531528607247272
 10
0.1844104283259806
 20
1.531528607247272
  0
LWPOLYLINE
  5
E6
100
AcDbEntity
  8
USP-GEO
100
AcDbPolyline
 90
        2
 70
   129
 43
0.0
 10
0.0922052141629903
 20
1.643096916384491
 10
0.1844104283259806
 20
1.643096916384491
  0
LWPOLYLINE
  5
E7
100
AcDbEntity
  8
USP-GEO
100
AcDbPolyline
 90
       12
 70
   129
 43
0.0
 10
1.235549869784072
 20
0.9967383651019279
 10
1.106462569955887
 20
1.125825664930113
 10
1.069580484290691
 20
1.291795050423496
 10
1.106462569955887
 20
1.45776443591688
 10
1.235549869784072
 20
1.587773787886696
 10
1.402441307419087
 20
1.643096916384491
 10
1.56841069291247
 20
1.587773787886696
 10
1.697497992740656
 20
1.45776443591688
 10
1.734380078405852
 20
1.291795050423496
 10
1.697497992740656
 20
1.125825664930113
 10
1.56841069291247
 20
0.9967383651019279
 10
1.402441307419087
 20
0.9598562794367317
  0
LWPOLYLINE
  5
E8
100
AcDbEntity
  8
USP-GEO
100
AcDbPolyline
 90
        6
 70
   128
 43
0.0
 10
1.605292778577666
 20
1.347118178921292
 10
1.623733821410263
 20
1.328677136088693
 10
1.623733821410263
 20
1.291795050423496
 10
1.623733821410263
 20
1.2549129647583
 10
1.605292778577666
 20
1.236471921925703
 10
1.605292778577666
 20
1.2549129647583
  0
LWPOLYLINE
  5
E9
100
AcDbEntity
  8
USP-GEO
100
AcDbPolyline
 90
       12
 70
   129
 43
0.0
 10
1.586851735745067
 20
1.291795050423496
 10
1.605292778577666
 20
1.2549129647583
 10
1.623733821410263
 20
1.236471921925703
 10
1.642174864242862
 20
1.218030879093104
 10
1.679056949908058
 20
1.236471921925703
 10
1.697497992740656
 20
1.2549129647583
 10
1.697497992740656
 20
1.291795050423496
 10
1.697497992740656
 20
1.328677136088693
 10
1.679056949908058
 20
1.365559221753889
 10
1.642174864242862
 20
1.384000264586488
 10
1.623733821410263
 20
1.365559221753889
 10
1.605292778577666
 20
1.328677136088693
  0
LWPOLYLINE
  5
EA
100
AcDbEntity
  8
USP-GEO
100
AcDbPolyline
 90
        3
 70
   128
 43
0.0
 10
0.0922052141629903
 20
4.614870968857678
 10
0.0
 20
4.614870968857678
 10
0.0
 20
3.82098407491433
  0
LWPOLYLINE
  5
EB
100
AcDbEntity
  8
USP-GEO
100
AcDbPolyline
 90
        2
 70
   128
 43
0.0
 10
1.974113635229628
 20
3.82098407491433
 10
1.974113635229628
 20
4.614870968857678
  0
LWPOLYLINE
  5
EC
100
AcDbEntity
  8
USP-GEO
100
AcDbPolyline
 90
       12
 70
   129
 43
0.0
 10
1.106462569955887
 20
4.836163482848856
 10
1.235549869784072
 20
4.965250782677042
 10
1.402441307419087
 20
5.020573911174837
 10
1.56841069291247
 20
4.965250782677042
 10
1.697497992740656
 20
4.836163482848856
 10
1.734380078405852
 20
4.670194097355473
 10
1.697497992740656
 20
4.503302659720459
 10
1.56841069291247
 20
4.374215359892273
 10
1.402441307419087
 20
4.337333274227077
 10
1.235549869784072
 20
4.374215359892273
 10
1.106462569955887
 20
4.503302659720459
 10
1.069580484290691
 20
4.670194097355473
  0
LWPOLYLINE
  5
ED
100
AcDbEntity
  8
USP-GEO
100
AcDbPolyline
 90
        6
 70
   128
 43
0.0
 10
0.0922052141629903
 20
3.82098407491433
 10
0.0
 20
3.82098407491433
 10
0.0
 20
3.340594909125147
 10
0.0
 20
2.879568838310195
 10
0.0
 20
2.472943843851407
 10
0.0922052141629903
 20
2.472943843851407
  0
LWPOLYLINE
  5
EE
100
AcDbEntity
  8
USP-GEO
100
AcDbPolyline
 90
        2
 70
   129
 43
0.0
 10
0.1844104283259806
 20
1.698420044882285
 10
0.0922052141629903
 20
1.698420044882285
  0
LWPOLYLINE
  5
EF
100
AcDbEntity
  8
USP-GEO
100
AcDbPolyline
 90
        7
 70
   128
 43
0.0
 10
0.1844104283259806
 20
3.395918037622942
 10
0.2212925139911768
 20
3.41435908045554
 10
0.2581745996563738
 20
3.451241166120738
 10
0.2766156424889719
 20
3.488123251785934
 10
0.2581745996563738
 20
3.52500533745113
 10
0.2212925139911768
 20
3.562809475257955
 10
0.1844104283259806
 20
3.581250518090554
  0
LWPOLYLINE
  5
F0
100
AcDbEntity
  8
USP-GEO
100
AcDbPolyline
 90
        4
 70
   128
 43
0.0
 10
0.2581745996563738
 20
3.52500533745113
 10
0.2581745996563738
 20
3.506564294618531
 10
0.2212925139911768
 20
3.469682208953335
 10
0.1844104283259806
 20
3.469682208953335
  0
LWPOLYLINE
  5
F1
100
AcDbEntity
  8
USP-GEO
100
AcDbPolyline
 90
        2
 70
   129
 43
0.0
 10
0.0922052141629903
 20
3.395918037622942
 10
0.1844104283259806
 20
3.395918037622942
  0
LWPOLYLINE
  5
F2
100
AcDbEntity
  8
USP-GEO
100
AcDbPolyline
 90
        2
 70
   129
 43
0.0
 10
0.0922052141629903
 20
3.469682208953335
 10
0.1844104283259806
 20
3.469682208953335
  0
LWPOLYLINE
  5
F3
100
AcDbEntity
  8
USP-GEO
100
AcDbPolyline
 90
        2
 70
   129
 43
0.0
 10
0.1844104283259806
 20
3.581250518090554
 10
0.0922052141629903
 20
3.581250518090554
  0
LWPOLYLINE
  5
F4
100
AcDbEntity
  8
USP-GEO
100
AcDbPolyline
 90
       12
 70
   129
 43
0.0
 10
1.069580484290691
 20
2.417620715353612
 10
1.106462569955887
 20
2.251651329860228
 10
1.235549869784072
 20
2.122564030032043
 10
1.402441307419087
 20
2.085681944366847
 10
1.56841069291247
 20
2.122564030032043
 10
1.697497992740656
 20
2.251651329860228
 10
1.734380078405852
 20
2.417620715353612
 10
1.697497992740656
 20
2.584512152988626
 10
1.56841069291247
 20
2.713599452816811
 10
1.402441307419087
 20
2.768922581314607
 10
1.235549869784072
 20
2.713599452816811
 10
1.106462569955887
 20
2.584512152988626
  0
LWPOLYLINE
  5
F5
100
AcDbEntity
  8
USP-GEO
100
AcDbPolyline
 90
        4
 70
   129
 43
0.0
 10
1.032698398625495
 20
1.864389430375668
 10
1.143344655621083
 20
1.993476730203855
 10
1.272431955449269
 20
1.864389430375668
 10
1.143344655621083
 20
1.735302130547482
  0
LWPOLYLINE
  5
F6
100
AcDbEntity
  8
USP-GEO
100
AcDbPolyline
 90
        4
 70
   129
 43
0.0
 10
1.032698398625495
 20
1.864389430375668
 10
1.143344655621083
 20
1.993476730203855
 10
1.272431955449269
 20
1.864389430375668
 10
1.143344655621083
 20
1.735302130547482
  0
LWPOLYLINE
  5
F7
100
AcDbEntity
  8
USP-GEO
100
AcDbPolyline
 90
        2
 70
   129
 43
0.0
 10
1.143344655621083
 20
1.809066301877875
 10
1.124903612788484
 20
1.772184216212679
  0
LWPOLYLINE
  5
F8
100
AcDbEntity
  8
USP-GEO
100
AcDbPolyline
 90
        2
 70
   129
 43
0.0
 10
1.180226741286279
 20
1.772184216212679
 10
1.143344655621083
 20
1.809066301877875
  0
LWPOLYLINE
  5
F9
100
AcDbEntity
  8
USP-GEO
100
AcDbPolyline
 90
        6
 70
   128
 43
0.0
 10
1.605292778577666
 20
2.380738629688416
 10
1.605292778577666
 20
2.362297586855818
 10
1.623733821410263
 20
2.380738629688416
 10
1.623733821410263
 20
2.417620715353612
 10
1.623733821410263
 20
2.454502801018808
 10
1.605292778577666
 20
2.472943843851407
  0
LWPOLYLINE
  5
FA
100
AcDbEntity
  8
USP-GEO
100
AcDbPolyline
 90
       12
 70
   129
 43
0.0
 10
1.605292778577666
 20
2.454502801018808
 10
1.623733821410263
 20
2.491384886684004
 10
1.642174864242862
 20
2.509825929516603
 10
1.679056949908058
 20
2.491384886684004
 10
1.697497992740656
 20
2.454502801018808
 10
1.697497992740656
 20
2.417620715353612
 10
1.697497992740656
 20
2.380738629688416
 10
1.679056949908058
 20
2.362297586855818
 10
1.642174864242862
 20
2.343856544023219
 10
1.623733821410263
 20
2.362297586855818
 10
1.605292778577666
 20
2.380738629688416
 10
1.586851735745067
 20
2.417620715353612
  0
LWPOLYLINE
  5
FB
100
AcDbEntity
  8
USP-GEO
100
AcDbPolyline
 90
       12
 70
   129
 43
0.0
 10
1.069580484290691
 20
3.544368432425358
 10
1.106462569955887
 20
3.710337817918741
 10
1.235549869784072
 20
3.839425117746927
 10
1.402441307419087
 20
3.894748246244722
 10
1.56841069291247
 20
3.839425117746927
 10
1.697497992740656
 20
3.710337817918741
 10
1.734380078405852
 20
3.544368432425358
 10
1.697497992740656
 20
3.377476994790344
 10
1.56841069291247
 20
3.248389694962158
 10
1.402441307419087
 20
3.211507609296962
 10
1.235549869784072
 20
3.248389694962158
 10
1.106462569955887
 20
3.377476994790344
  0
LWPOLYLINE
  5
FC
100
AcDbEntity
  8
USP-GEO
100
AcDbPolyline
 90
       18
 70
   128
 43
0.0
 10
1.605292778577666
 20
3.599691560923151
 10
1.623733821410263
 20
3.581250518090554
 10
1.623733821410263
 20
3.544368432425358
 10
1.623733821410263
 20
3.506564294618531
 10
1.605292778577666
 20
3.488123251785934
 10
1.605292778577666
 20
3.506564294618531
 10
1.586851735745067
 20
3.544368432425358
 10
1.605292778577666
 20
3.581250518090554
 10
1.623733821410263
 20
3.61813260375575
 10
1.642174864242862
 20
3.636573646588347
 10
1.679056949908058
 20
3.61813260375575
 10
1.697497992740656
 20
3.581250518090554
 10
1.697497992740656
 20
3.544368432425358
 10
1.697497992740656
 20
3.506564294618531
 10
1.679056949908058
 20
3.488123251785934
 10
1.642174864242862
 20
3.469682208953335
 10
1.623733821410263
 20
3.488123251785934
 10
1.605292778577666
 20
3.506564294618531
  0
LWPOLYLINE
  5
FD
100
AcDbEntity
  8
USP-GEO
100
AcDbPolyline
 90
        4
 70
   129
 43
0.0
 10
0.9773752701277
 20
5.112779125337826
 10
1.106462569955887
 20
4.983691825509641
 10
0.9773752701277
 20
4.854604525681454
 10
0.8482879702995136
 20
4.983691825509641
  0
LWPOLYLINE
  5
FE
100
AcDbEntity
  8
USP-GEO
100
AcDbPolyline
 90
        4
 70
   129
 43
0.0
 10
0.8482879702995136
 20
6.866522298717908
 10
0.9773752701277
 20
6.995609598546096
 10
1.106462569955887
 20
6.866522298717908
 10
0.9773752701277
 20
6.737434998889721
  0
LWPOLYLINE
  5
FF
100
AcDbEntity
  8
USP-GEO
100
AcDbPolyline
 90
        5
 70
   128
 43
0.0
 10
1.605292778577666
 20
7.180020026872076
 10
1.605292778577666
 20
7.364430455198057
 10
0.0922052141629903
 20
7.364430455198057
 10
0.0
 20
7.364430455198057
 10
0.0
 20
7.180020026872076
  0
LWPOLYLINE
  5
100
100
AcDbEntity
  8
USP-GEO
100
AcDbPolyline
 90
        4
 70
   129
 43
0.0
 10
0.8482879702995136
 20
6.866522298717908
 10
0.9773752701277
 20
6.995609598546096
 10
1.106462569955887
 20
6.866522298717908
 10
0.9773752701277
 20
6.737434998889721
  0
LWPOLYLINE
  5
101
100
AcDbEntity
  8
USP-GEO
100
AcDbPolyline
 90
        4
 70
   129
 43
0.0
 10
1.106462569955887
 20
4.983691825509641
 10
0.9773752701277
 20
4.854604525681454
 10
0.8482879702995136
 20
4.983691825509641
 10
0.9773752701277
 20
5.112779125337826
  0
LWPOLYLINE
  5
102
100
AcDbEntity
  8
USP-GEO
100
AcDbPolyline
 90
        4
 70
   128
 43
0.0
 10
0.0
 20
6.293927918765737
 10
0.0
 20
6.127958533272353
 10
0.0
 20
5.980430190611569
 10
0.0
 20
5.86978393361598
  0
LWPOLYLINE
  5
103
100
AcDbEntity
  8
USP-GEO
100
AcDbPolyline
 90
        7
 70
   128
 43
0.0
 10
0.1844104283259806
 20
5.149661211003024
 10
0.2212925139911768
 20
5.168102253835622
 10
0.2581745996563738
 20
5.186543296668221
 10
0.2766156424889719
 20
5.241866425166014
 10
0.2581745996563738
 20
5.27874851083121
 10
0.2212925139911768
 20
5.315630596496406
 10
0.1844104283259806
 20
5.315630596496406
  0
LWPOLYLINE
  5
104
100
AcDbEntity
  8
USP-GEO
100
AcDbPolyline
 90
        4
 70
   128
 43
0.0
 10
0.1844104283259806
 20
5.223425382333417
 10
0.2212925139911768
 20
5.223425382333417
 10
0.2581745996563738
 20
5.260307467998613
 10
0.2590966517980036
 20
5.260307467998613
  0
LWPOLYLINE
  5
105
100
AcDbEntity
  8
USP-GEO
100
AcDbPolyline
 90
        6
 70
   128
 43
0.0
 10
0.0922052141629903
 20
5.297189553663809
 10
0.0
 20
5.297189553663809
 10
0.0
 20
5.204984339500818
 10
0.0
 20
5.112779125337826
 10
0.0
 20
5.039014954007434
 10
0.0922052141629903
 20
5.039014954007434
  0
LWPOLYLINE
  5
106
100
AcDbEntity
  8
USP-GEO
100
AcDbPolyline
 90
        4
 70
   128
 43
0.0
 10
0.0
 20
5.039014954007434
 10
0.0
 20
4.928368697011846
 10
0.0
 20
4.780840354351061
 10
0.0
 20
4.614870968857678
  0
LWPOLYLINE
  5
107
100
AcDbEntity
  8
USP-GEO
100
AcDbPolyline
 90
        2
 70
   129
 43
0.0
 10
0.0922052141629903
 20
5.149661211003024
 10
0.1844104283259806
 20
5.149661211003024
  0
LWPOLYLINE
  5
108
100
AcDbEntity
  8
USP-GEO
100
AcDbPolyline
 90
        2
 70
   129
 43
0.0
 10
0.0922052141629903
 20
5.223425382333417
 10
0.1844104283259806
 20
5.223425382333417
  0
LWPOLYLINE
  5
109
100
AcDbEntity
  8
USP-GEO
100
AcDbPolyline
 90
        5
 70
   128
 43
0.0
 10
0.0922052141629903
 20
5.86978393361598
 10
0.0
 20
5.86978393361598
 10
0.0
 20
5.814460805118185
 10
0.0
 20
5.722255590955196
 10
0.0
 20
5.611609333959606
  0
LWPOLYLINE
  5
10A
100
AcDbEntity
  8
USP-GEO
100
AcDbPolyline
 90
        3
 70
   128
 43
0.0
 10
0.0922052141629903
 20
5.611609333959606
 10
0.0
 20
5.611609333959606
 10
0.0
 20
5.297189553663809
  0
LWPOLYLINE
  5
10B
100
AcDbEntity
  8
USP-GEO
100
AcDbPolyline
 90
        2
 70
   129
 43
0.0
 10
0.1844104283259806
 20
5.315630596496406
 10
0.0922052141629903
 20
5.315630596496406
  0
LWPOLYLINE
  5
10C
100
AcDbEntity
  8
USP-GEO
100
AcDbPolyline
 90
        7
 70
   128
 43
0.0
 10
0.1844104283259806
 20
6.903404384383104
 10
0.2212925139911768
 20
6.921845427215703
 10
0.2581745996563738
 20
6.940286470048301
 10
0.2766156424889719
 20
6.995609598546096
 10
0.2581745996563738
 20
7.032491684211292
 10
0.2212925139911768
 20
7.069373769876488
 10
0.1844104283259806
 20
7.069373769876488
  0
LWPOLYLINE
  5
10D
100
AcDbEntity
  8
USP-GEO
100
AcDbPolyline
 90
        4
 70
   128
 43
0.0
 10
0.1844104283259806
 20
6.9587275128809
 10
0.2212925139911768
 20
6.977168555713497
 10
0.2581745996563738
 20
7.014050641378693
 10
0.2590966517980036
 20
7.014050641378693
  0
LWPOLYLINE
  5
10E
100
AcDbEntity
  8
USP-GEO
100
AcDbPolyline
 90
        6
 70
   128
 43
0.0
 10
0.0922052141629903
 20
6.921845427215703
 10
0.0
 20
6.921845427215703
 10
0.0
 20
6.811199170220113
 10
0.0
 20
6.663670827559329
 10
0.0
 20
6.497701442065945
 10
0.0922052141629903
 20
6.497701442065945
  0
LWPOLYLINE
  5
10F
100
AcDbEntity
  8
USP-GEO
100
AcDbPolyline
 90
        3
 70
   128
 43
0.0
 10
0.0922052141629903
 20
6.293927918765737
 10
0.0
 20
6.293927918765737
 10
0.0
 20
6.497701442065945
  0
LWPOLYLINE
  5
110
100
AcDbEntity
  8
USP-GEO
100
AcDbPolyline
 90
        5
 70
   128
 43
0.0
 10
0.0922052141629903
 20
7.180020026872076
 10
0.0
 20
7.180020026872076
 10
0.0
 20
7.069373769876488
 10
0.0
 20
6.977168555713497
 10
0.0
 20
6.921845427215703
  0
LWPOLYLINE
  5
111
100
AcDbEntity
  8
USP-GEO
100
AcDbPolyline
 90
        2
 70
   129
 43
0.0
 10
0.1844104283259806
 20
7.069373769876488
 10
0.0922052141629903
 20
7.069373769876488
  0
LWPOLYLINE
  5
112
100
AcDbEntity
  8
USP-GEO
100
AcDbPolyline
 90
        2
 70
   129
 43
0.0
 10
0.0922052141629903
 20
6.903404384383104
 10
0.1844104283259806
 20
6.903404384383104
  0
LWPOLYLINE
  5
113
100
AcDbEntity
  8
USP-GEO
100
AcDbPolyline
 90
        2
 70
   129
 43
0.0
 10
0.0922052141629903
 20
6.9587275128809
 10
0.1844104283259806
 20
6.9587275128809
  0
LWPOLYLINE
  5
114
100
AcDbEntity
  8
USP-GEO
100
AcDbPolyline
 90
        2
 70
   129
 43
0.0
 10
0.9773752701277
 20
4.928368697011846
 10
0.9404931844625039
 20
4.89148661134665
  0
LWPOLYLINE
  5
115
100
AcDbEntity
  8
USP-GEO
100
AcDbPolyline
 90
        2
 70
   129
 43
0.0
 10
1.014257355792896
 20
4.89148661134665
 10
0.9773752701277
 20
4.928368697011846
  0
LWPOLYLINE
  5
116
100
AcDbEntity
  8
USP-GEO
100
AcDbPolyline
 90
        5
 70
   128
 43
0.0
 10
1.605292778577666
 20
4.614870968857678
 10
1.623733821410263
 20
4.633312011690277
 10
1.623733821410263
 20
4.670194097355473
 10
1.623733821410263
 20
4.707076183020669
 10
1.605292778577666
 20
4.725517225853266
  0
LWPOLYLINE
  5
117
100
AcDbEntity
  8
USP-GEO
100
AcDbPolyline
 90
       12
 70
   129
 43
0.0
 10
1.605292778577666
 20
4.707076183020669
 10
1.623733821410263
 20
4.743958268685865
 10
1.642174864242862
 20
4.762399311518462
 10
1.679056949908058
 20
4.743958268685865
 10
1.697497992740656
 20
4.707076183020669
 10
1.697497992740656
 20
4.670194097355473
 10
1.697497992740656
 20
4.633312011690277
 10
1.679056949908058
 20
4.614870968857678
 10
1.642174864242862
 20
4.596429926025081
 10
1.623733821410263
 20
4.614870968857678
 10
1.605292778577666
 20
4.633312011690277
 10
1.586851735745067
 20
4.670194097355473
  0
LWPOLYLINE
  5
118
100
AcDbEntity
  8
USP-GEO
100
AcDbPolyline
 90
        2
 70
   128
 43
0.0
 10
1.605292778577666
 20
5.297189553663809
 10
1.605292778577666
 20
5.611609333959606
  0
LWPOLYLINE
  5
119
100
AcDbEntity
  8
USP-GEO
100
AcDbPolyline
 90
       12
 70
   129
 43
0.0
 10
1.069580484290691
 20
6.55302457056374
 10
1.106462569955887
 20
6.718993956057124
 10
1.235549869784072
 20
6.848081255885311
 10
1.402441307419087
 20
6.884963341550507
 10
1.56841069291247
 20
6.848081255885311
 10
1.697497992740656
 20
6.718993956057124
 10
1.734380078405852
 20
6.55302457056374
 10
1.697497992740656
 20
6.386133132928728
 10
1.56841069291247
 20
6.257045833100541
 10
1.402441307419087
 20
6.220163747435345
 10
1.235549869784072
 20
6.257045833100541
 10
1.106462569955887
 20
6.386133132928728
  0
LWPOLYLINE
  5
11A
100
AcDbEntity
  8
USP-GEO
100
AcDbPolyline
 90
        2
 70
   129
 43
0.0
 10
0.9773752701277
 20
6.811199170220113
 10
0.9404931844625039
 20
6.774317084554917
  0
LWPOLYLINE
  5
11B
100
AcDbEntity
  8
USP-GEO
100
AcDbPolyline
 90
        2
 70
   129
 43
0.0
 10
1.014257355792896
 20
6.774317084554917
 10
0.9773752701277
 20
6.811199170220113
  0
LWPOLYLINE
  5
11C
100
AcDbEntity
  8
USP-GEO
100
AcDbPolyline
 90
        6
 70
   128
 43
0.0
 10
1.605292778577666
 20
6.608347699061535
 10
1.623733821410263
 20
6.589906656228937
 10
1.623733821410263
 20
6.55302457056374
 10
1.623733821410263
 20
6.516142484898544
 10
1.605292778577666
 20
6.497701442065945
 10
1.606214830719295
 20
6.497701442065945
  0
LWPOLYLINE
  5
11D
100
AcDbEntity
  8
USP-GEO
100
AcDbPolyline
 90
       12
 70
   129
 43
0.0
 10
1.586851735745067
 20
6.55302457056374
 10
1.605292778577666
 20
6.516142484898544
 10
1.623733821410263
 20
6.479260399233348
 10
1.642174864242862
 20
6.479260399233348
 10
1.679056949908058
 20
6.479260399233348
 10
1.697497992740656
 20
6.516142484898544
 10
1.697497992740656
 20
6.55302457056374
 10
1.697497992740656
 20
6.589906656228937
 10
1.679056949908058
 20
6.626788741894133
 10
1.642174864242862
 20
6.626788741894133
 10
1.623733821410263
 20
6.626788741894133
 10
1.605292778577666
 20
6.589906656228937
  0
LWPOLYLINE
  5
11E
100
AcDbEntity
  8
USP-GEO
100
AcDbPolyline
 90
        2
 70
   128
 43
0.0
 10
1.974113635229628
 20
6.293927918765737
 10
1.974113635229628
 20
6.497701442065945
  0
LWPOLYLINE
  5
11F
100
AcDbEntity
  8
USP-GEO
100
AcDbPolyline
 90
        2
 70
   128
 43
0.0
 10
4.02199144178965
 20
0.8123279367759455
 10
2.490462834542375
 20
2.472943843851407
  0
ENDBLK
  5
121
100
AcDbEntity
  8
0
100
AcDbBlockEnd
  0
ENDSEC
  0
SECTION
  2
ENTITIES
  0
INSERT
  5
3
100
AcDbEntity
  8
USP
100
AcDbBlockReference
  2
THDH28-2_T
 10
8.326587146894839
 20
14.249909967246
 30
0.0
  0
INSERT
  5
27
100
AcDbEntity
  8
USP
100
AcDbBlockReference
  2
THDH28-2_F
 10
8.326587146894839
 20
1.790219377401083
 30
0.0
  0
INSERT
  5
DB
100
AcDbEntity
  8
USP
100
AcDbBlockReference
  2
THDH28-2_S
 10
0.9280407624564741
 20
1.790219377401083
 30
0.0
  0
ENDSEC
  0
SECTION
  2
OBJECTS
  0
DICTIONARY
  5
13A
102
{ACAD_XDICTIONARY
360
13B
102
}
100
AcDbDictionary
  3
ACAD_GROUP
350
138
  3
ACAD_MLINESTYLE
350
139
  0
DICTIONARY
  5
9
100
AcDbDictionary
280
     1
  3
ACAD_XREC_ROUNDTRIP
360
A
  0
DICTIONARY
  5
D
100
AcDbDictionary
280
     1
  3
ACAD_XREC_ROUNDTRIP
360
E
  0
DICTIONARY
  5
122
100
AcDbDictionary
280
     1
  3
ACAD_LAYOUTSELFREF
360
123
  0
DICTIONARY
  5
127
100
AcDbDictionary
280
     1
  3
ACAD_LAYOUTSELFREF
360
128
  0
DICTIONARY
  5
13B
100
AcDbDictionary
280
     1
  3
ACAD_XREC_ROUNDTRIP
360
13C
  0
DICTIONARY
  5
138
102
{ACAD_REACTORS
330
13A
102
}
100
AcDbDictionary
  0
DICTIONARY
  5
139
102
{ACAD_REACTORS
330
13A
102
}
100
AcDbDictionary
  3
STANDARD
350
13D
  0
XRECORD
  5
A
102
{ACAD_REACTORS
330
9
102
}
100
AcDbXrecord
102
EXTNAMES
  1
USP-GEO
  2
USP-Geo
  0
XRECORD
  5
E
102
{ACAD_REACTORS
330
D
102
}
100
AcDbXrecord
102
EXTNAMES
  1
USP-TXT
  2
USP-Txt
  0
XRECORD
  5
123
102
{ACAD_REACTORS
330
122
102
}
100
AcDbXrecord
340
18
  0
XRECORD
  5
128
102
{ACAD_REACTORS
330
127
102
}
100
AcDbXrecord
340
15
  0
XRECORD
  5
13C
102
{ACAD_REACTORS
330
13B
102
}
100
AcDbXrecord
102
EXTNAMES
  1
ACDBVARIABLEDICTIONARY
  2
AcDbVariableDictionary
  0
MLINESTYLE
  5
13D
102
{ACAD_REACTORS
330
139
102
}
100
AcDbMlineStyle
  2
STANDARD
 70
     0
  3

 62
     0
 51
90.0
 52
90.0
 71
     2
 49
0.5
 62
   256
  6
BYLAYER
 49
-0.5
 62
   256
  6
BYLAYER
  0
ENDSEC
  0
EOF
