  0
SECTION
  2
HEADER
  9
$ACADVER
  1
AC1014
  9
$ACADMAINTVER
 70
     9
  9
$DWGCODEPAGE
  3
ANSI_1252
  9
$INSBASE
 10
0.0
 20
0.0
 30
0.0
  9
$EXTMIN
 10
0.2194941292053825
 20
0.0008189800845955
 30
0.0
  9
$EXTMAX
 10
16.51806217919908
 20
18.2767519298411
 30
0.0
  9
$LIMMIN
 10
0.0
 20
0.0
  9
$LIMMAX
 10
12.0
 20
9.0
  9
$ORTHOMODE
 70
     1
  9
$REGENMODE
 70
     1
  9
$FILLMODE
 70
     1
  9
$QTEXTMODE
 70
     0
  9
$MIRRTEXT
 70
     0
  9
$DRAGMODE
 70
     2
  9
$LTSCALE
 40
1.5
  9
$OSMODE
 70
     0
  9
$ATTMODE
 70
     1
  9
$TEXTSIZE
 40
0.75
  9
$TRACEWID
 40
0.05
  9
$TEXTSTYLE
  7
STANDARD
  9
$CLAYER
  8
USP
  9
$CELTYPE
  6
BYLAYER
  9
$CECOLOR
 62
   256
  9
$CELTSCALE
 40
1.0
  9
$DELOBJ
 70
     1
  9
$DISPSILH
 70
     1
  9
$DIMSCALE
 40
7.0
  9
$DIMASZ
 40
0.125
  9
$DIMEXO
 40
0.0625
  9
$DIMDLI
 40
0.37890625
  9
$DIMRND
 40
0.0
  9
$DIMDLE
 40
0.0
  9
$DIMEXE
 40
0.09375
  9
$DIMTP
 40
0.0
  9
$DIMTM
 40
0.0
  9
$DIMTXT
 40
0.109375
  9
$DIMCEN
 40
0.0
  9
$DIMTSZ
 40
0.0
  9
$DIMTOL
 70
     0
  9
$DIMLIM
 70
     0
  9
$DIMTIH
 70
     1
  9
$DIMTOH
 70
     1
  9
$DIMSE1
 70
     0
  9
$DIMSE2
 70
     0
  9
$DIMTAD
 70
     0
  9
$DIMZIN
 70
     8
  9
$DIMBLK
  1

  9
$DIMASO
 70
     1
  9
$DIMSHO
 70
     1
  9
$DIMPOST
  1

  9
$DIMAPOST
  1

  9
$DIMALT
 70
     0
  9
$DIMALTD
 70
     2
  9
$DIMALTF
 40
25.4
  9
$DIMLFAC
 40
1.0
  9
$DIMTOFL
 70
     0
  9
$DIMTVP
 40
0.0
  9
$DIMTIX
 70
     0
  9
$DIMSOXD
 70
     0
  9
$DIMSAH
 70
     0
  9
$DIMBLK1
  1

  9
$DIMBLK2
  1

  9
$DIMSTYLE
  2
STANDARD
  9
$DIMCLRD
 70
     0
  9
$DIMCLRE
 70
     0
  9
$DIMCLRT
 70
   256
  9
$DIMTFAC
 40
1.0
  9
$DIMGAP
 40
0.08984375
  9
$DIMJUST
 70
     0
  9
$DIMSD1
 70
     0
  9
$DIMSD2
 70
     0
  9
$DIMTOLJ
 70
     1
  9
$DIMTZIN
 70
     0
  9
$DIMALTZ
 70
     0
  9
$DIMALTTZ
 70
     0
  9
$DIMFIT
 70
     3
  9
$DIMUPT
 70
     1
  9
$DIMUNIT
 70
     7
  9
$DIMDEC
 70
     4
  9
$DIMTDEC
 70
     4
  9
$DIMALTU
 70
     2
  9
$DIMALTTD
 70
     2
  9
$DIMTXSTY
  7
STANDARD
  9
$DIMAUNIT
 70
     0
  9
$LUNITS
 70
     5
  9
$LUPREC
 70
     6
  9
$SKETCHINC
 40
0.1
  9
$FILLETRAD
 40
0.0
  9
$AUNITS
 70
     0
  9
$AUPREC
 70
     1
  9
$MENU
  1
CUSTOM
  9
$ELEVATION
 40
0.0
  9
$PELEVATION
 40
0.0
  9
$THICKNESS
 40
0.0
  9
$LIMCHECK
 70
     0
  9
$BLIPMODE
 70
     0
  9
$CHAMFERA
 40
0.0
  9
$CHAMFERB
 40
0.0
  9
$CHAMFERC
 40
0.0
  9
$CHAMFERD
 40
0.0
  9
$SKPOLY
 70
     0
  9
$TDCREATE
 40
2451263.663231366
  9
$TDUPDATE
 40
2452768.686602280
  9
$TDINDWG
 40
0.4366881366
  9
$TDUSRTIMER
 40
0.4366881366
  9
$USRTIMER
 70
     1
  9
$ANGBASE
 50
0.0
  9
$ANGDIR
 70
     0
  9
$PDMODE
 70
     0
  9
$PDSIZE
 40
0.0
  9
$PLINEWID
 40
0.0
  9
$COORDS
 70
     2
  9
$SPLFRAME
 70
     0
  9
$SPLINETYPE
 70
     6
  9
$SPLINESEGS
 70
     8
  9
$ATTDIA
 70
     0
  9
$ATTREQ
 70
     0
  9
$HANDLING
 70
     1
  9
$HANDSEED
  5
10D
  9
$SURFTAB1
 70
     6
  9
$SURFTAB2
 70
     6
  9
$SURFTYPE
 70
     6
  9
$SURFU
 70
     6
  9
$SURFV
 70
     6
  9
$UCSNAME
  2

  9
$UCSORG
 10
0.0
 20
0.0
 30
0.0
  9
$UCSXDIR
 10
1.0
 20
0.0
 30
0.0
  9
$UCSYDIR
 10
0.0
 20
1.0
 30
0.0
  9
$PUCSNAME
  2

  9
$PUCSORG
 10
0.0
 20
0.0
 30
0.0
  9
$PUCSXDIR
 10
1.0
 20
0.0
 30
0.0
  9
$PUCSYDIR
 10
0.0
 20
1.0
 30
0.0
  9
$USERI1
 70
     0
  9
$USERI2
 70
     0
  9
$USERI3
 70
     0
  9
$USERI4
 70
     0
  9
$USERI5
 70
     0
  9
$USERR1
 40
0.0
  9
$USERR2
 40
0.0
  9
$USERR3
 40
0.0
  9
$USERR4
 40
0.0
  9
$USERR5
 40
0.0
  9
$WORLDVIEW
 70
     1
  9
$SHADEDGE
 70
     3
  9
$SHADEDIF
 70
    70
  9
$TILEMODE
 70
     1
  9
$MAXACTVP
 70
    16
  9
$PINSBASE
 10
0.0
 20
0.0
 30
0.0
  9
$PLIMCHECK
 70
     0
  9
$PEXTMIN
 10
1.000000000000000E+20
 20
1.000000000000000E+20
 30
1.000000000000000E+20
  9
$PEXTMAX
 10
-1.000000000000000E+20
 20
-1.000000000000000E+20
 30
-1.000000000000000E+20
  9
$PLIMMIN
 10
0.0
 20
0.0
  9
$PLIMMAX
 10
12.0
 20
9.0
  9
$UNITMODE
 70
     0
  9
$VISRETAIN
 70
     0
  9
$PLINEGEN
 70
     0
  9
$PSLTSCALE
 70
     0
  9
$TREEDEPTH
 70
  3020
  9
$PICKSTYLE
 70
     0
  9
$CMLSTYLE
  2
STANDARD
  9
$CMLJUST
 70
     0
  9
$CMLSCALE
 40
1.0
  9
$PROXYGRAPHICS
 70
     1
  9
$MEASUREMENT
 70
     0
  0
ENDSEC
  0
SECTION
  2
CLASSES
  0
CLASS
  1
ACDBDICTIONARYWDFLT
  2
AcDbDictionaryWithDefault
  3
AutoCAD 2000
 90
        0
280
     0
281
     0
  0
CLASS
  1
ACDBPLACEHOLDER
  2
AcDbPlaceHolder
  3
AutoCAD 2000
 90
        0
280
     0
281
     0
  0
CLASS
  1
LAYOUT
  2
AcDbLayout
  3
AutoCAD 2000
 90
        0
280
     0
281
     0
  0
CLASS
  1
DICTIONARYVAR
  2
AcDbDictionaryVar
  3
"AutoCAD"
 90
        0
280
     0
281
     0
  0
CLASS
  1
LONG_TRANSACTION
  2
AcDbLongTransaction
  3
AutoCAD 2000
 90
        0
280
     0
281
     0
  0
CLASS
  1
LWPOLYLINE
  2
AcDbPolyline
  3
"AutoCAD"
 90
        0
280
     0
281
     1
  0
CLASS
  1
HATCH
  2
AcDbHatch
  3
"ACAD_SEDONA"
 90
        0
280
     0
281
     1
  0
CLASS
  1
XRECORD
  2
AcDbXrecord
  3
"<Built In>"
 90
        0
280
     0
281
     0
  0
CLASS
  1
LONG_TRANSACTION
  2
AcDbLongTransaction
  3
AutoCAD 2000
 90
        0
280
     0
281
     0
  0
CLASS
  1
LWPOLYLINE
  2
AcDbPolyline
  3
"AutoCAD"
 90
        0
280
     0
281
     1
  0
CLASS
  1
HATCH
  2
AcDbHatch
  3
"ACAD_SEDONA"
 90
        0
280
     0
281
     1
  0
CLASS
  1
XRECORD
  2
AcDbXrecord
  3
"<Built In>"
 90
        0
280
     0
281
     0
  0
ENDSEC
  0
SECTION
  2
TABLES
  0
TABLE
  2
VPORT
  5
FD
100
AcDbSymbolTable
 70
     1
  0
VPORT
  5
FE
100
AcDbSymbolTableRecord
100
AcDbViewportTableRecord
  2
*ACTIVE
 70
     0
 10
0.0
 20
0.0
 11
1.0
 21
1.0
 12
-14.08469146208212
 22
20.05342440914716
 13
0.0
 23
0.0
 14
1.0
 24
1.0
 15
0.0
 25
0.0
 16
0.0
 26
0.0
 36
1.0
 17
23.09603071721725
 27
-10.27010416511325
 37
-10.44050274849355
 40
27.67649332648958
 41
1.457627118644067
 42
50.0
 43
10.55307667737539
 44
10.55307667737539
 50
0.0
 51
0.0
 71
     0
 72
   100
 73
     1
 74
     1
 75
     0
 76
     0
 77
     0
 78
     0
  0
ENDTAB
  0
TABLE
  2
LTYPE
  5
F8
100
AcDbSymbolTable
 70
     1
  0
LTYPE
  5
F9
100
AcDbSymbolTableRecord
100
AcDbLinetypeTableRecord
  2
BYBLOCK
 70
     0
  3

 72
    65
 73
     0
 40
0.0
  0
LTYPE
  5
FA
100
AcDbSymbolTableRecord
100
AcDbLinetypeTableRecord
  2
BYLAYER
 70
     0
  3

 72
    65
 73
     0
 40
0.0
  0
LTYPE
  5
5
100
AcDbSymbolTableRecord
100
AcDbLinetypeTableRecord
  2
CONTINUOUS
 70
     0
  3
Solid line
 72
    65
 73
     0
 40
0.0
  0
ENDTAB
  0
TABLE
  2
LAYER
  5
F6
100
AcDbSymbolTable
 70
     4
  0
LAYER
  5
33
100
AcDbSymbolTableRecord
100
AcDbLayerTableRecord
  2
0
 70
     0
 62
     7
  6
CONTINUOUS
  0
LAYER
  5
8
102
{ACAD_XDICTIONARY
360
9
102
}
100
AcDbSymbolTableRecord
100
AcDbLayerTableRecord
  2
USP-GEO
 70
     0
 62
     7
  6
CONTINUOUS
  0
LAYER
  5
F
102
{ACAD_XDICTIONARY
360
10
102
}
100
AcDbSymbolTableRecord
100
AcDbLayerTableRecord
  2
USP-TXT
 70
     0
 62
     7
  6
CONTINUOUS
  0
LAYER
  5
4
100
AcDbSymbolTableRecord
100
AcDbLayerTableRecord
  2
USP
 70
     0
 62
     7
  6
CONTINUOUS
  0
ENDTAB
  0
TABLE
  2
STYLE
  5
F7
100
AcDbSymbolTable
 70
     1
  0
STYLE
  5
12
100
AcDbSymbolTableRecord
100
AcDbTextStyleTableRecord
  2
STANDARD
 70
     0
 40
0.0
 41
1.0
 50
0.0
 71
     0
 42
0.75
  3
txt
  4

  0
ENDTAB
  0
TABLE
  2
VIEW
  5
FB
100
AcDbSymbolTable
 70
     0
  0
ENDTAB
  0
TABLE
  2
UCS
  5
FC
100
AcDbSymbolTable
 70
     0
  0
ENDTAB
  0
TABLE
  2
APPID
  5
FF
100
AcDbSymbolTable
 70
     1
  0
APPID
  5
100
100
AcDbSymbolTableRecord
100
AcDbRegAppTableRecord
  2
ACAD
 70
     0
  0
ENDTAB
  0
TABLE
  2
DIMSTYLE
  5
101
100
AcDbSymbolTable
 70
     1
  0
DIMSTYLE
105
109
100
AcDbSymbolTableRecord
100
AcDbDimStyleTableRecord
  2
STANDARD
 70
     0
  3

  4

  5

  6

  7

 40
1.0
 41
0.18
 42
0.0625
 43
0.38
 44
0.18
 45
0.0
 46
0.0
 47
0.0
 48
0.0
140
0.18
141
0.09
142
0.0
143
25.4
144
1.0
145
0.0
146
1.0
147
0.09
 71
     0
 72
     0
 73
     1
 74
     1
 75
     0
 76
     0
 77
     0
 78
     0
170
     0
171
     2
172
     0
173
     0
174
     0
175
     0
176
     0
177
     0
178
     0
270
     2
271
     4
272
     4
273
     2
274
     2
340
12
275
     0
280
     0
281
     0
282
     0
283
     1
284
     0
285
     0
286
     0
287
     3
288
     0
  0
ENDTAB
  0
TABLE
  2
BLOCK_RECORD
  5
1
100
AcDbSymbolTable
 70
     3
  0
BLOCK_RECORD
  5
2
102
{ACAD_XDICTIONARY
360
ED
102
}
100
AcDbSymbolTableRecord
100
AcDbBlockTableRecord
  2
*MODEL_SPACE
  0
BLOCK_RECORD
  5
F1
102
{ACAD_XDICTIONARY
360
F2
102
}
100
AcDbSymbolTableRecord
100
AcDbBlockTableRecord
  2
*PAPER_SPACE
  0
BLOCK_RECORD
  5
6
100
AcDbSymbolTableRecord
100
AcDbBlockTableRecord
  2
THDH26-2_T
  0
BLOCK_RECORD
  5
36
100
AcDbSymbolTableRecord
100
AcDbBlockTableRecord
  2
THDH26-2_F
  0
BLOCK_RECORD
  5
B1
100
AcDbSymbolTableRecord
100
AcDbBlockTableRecord
  2
THDH26-2_S
  0
ENDTAB
  0
ENDSEC
  0
SECTION
  2
BLOCKS
  0
BLOCK
  5
EF
100
AcDbEntity
  8
0
100
AcDbBlockBegin
  2
*MODEL_SPACE
 70
     0
 10
0.0
 20
0.0
 30
0.0
  3
*MODEL_SPACE
  1

  0
ENDBLK
  5
F0
100
AcDbEntity
  8
0
100
AcDbBlockEnd
  0
BLOCK
  5
F4
100
AcDbEntity
 67
     1
  8
0
100
AcDbBlockBegin
  2
*PAPER_SPACE
 70
     0
 10
0.0
 20
0.0
 30
0.0
  3
*PAPER_SPACE
  1

  0
ENDBLK
  5
F5
100
AcDbEntity
 67
     1
  8
0
100
AcDbBlockEnd
  0
BLOCK
  5
32
100
AcDbEntity
  8
0
100
AcDbBlockBegin
  2
THDH26-2_T
 70
     0
 10
0.0
 20
0.0
 30
0.0
  3
THDH26-2_T
  1

  0
LWPOLYLINE
  5
7
100
AcDbEntity
  8
USP-GEO
100
AcDbPolyline
 90
        2
 70
   128
 43
0.0
 10
2.592130526262785
 20
4.217456563490188
 10
0.0
 20
4.217456563490188
  0
LWPOLYLINE
  5
B
100
AcDbEntity
  8
USP-GEO
100
AcDbPolyline
 90
        2
 70
   128
 43
0.0
 10
2.592130526262785
 20
4.217456563490188
 10
0.0
 20
4.217456563490188
  0
LWPOLYLINE
  5
C
100
AcDbEntity
  8
USP-GEO
100
AcDbPolyline
 90
        6
 70
   128
 43
0.0
 10
2.500922555599068
 20
2.610372120395528
 10
2.500922555599068
 20
4.12624859282647
 10
0.0
 20
4.12624859282647
 10
2.500922555599068
 20
4.12624859282647
 10
2.500922555599068
 20
2.610372120395528
 10
2.592130526262785
 20
2.610372120395528
  0
LWPOLYLINE
  5
D
100
AcDbEntity
  8
USP-GEO
100
AcDbPolyline
 90
        2
 70
   129
 43
0.0
 10
0.0
 20
4.12624859282647
 10
0.0
 20
4.217456563490188
  0
TEXT
  5
E
100
AcDbEntity
  8
USP-TXT
100
AcDbText
 10
1.405352780849924
 20
-1.997689212138904
 30
0.0
 40
0.296875
  1
THDH26-2 - TOP VIEW
 72
     1
 11
4.225665280849923
 21
-1.997689212138904
 31
0.0
100
AcDbText
  0
LWPOLYLINE
  5
13
100
AcDbEntity
  8
USP-GEO
100
AcDbPolyline
 90
       18
 70
   128
 43
0.0
 10
5.038328299463625
 20
0.0547247823982282
 10
5.07481148772911
 20
0.0547247823982282
 10
5.093053081861853
 20
0.0182415941327427
 10
5.093053081861853
 20
0.0
 10
5.840958441304319
 20
0.0
 10
5.950408006100776
 20
0.0
 10
5.950408006100776
 20
0.0182415941327427
 10
5.950408006100776
 20
0.0912079706637137
 10
5.950408006100776
 20
0.2006575354601736
 10
5.950408006100776
 20
1.71562192818448
 10
5.950408006100776
 20
2.008399514015007
 10
5.950408006100776
 20
2.190815455342438
 10
5.950408006100776
 20
2.245540237740666
 10
5.840958441304319
 20
2.245540237740666
 10
5.840958441304319
 20
2.190815455342438
 10
5.840958441304319
 20
2.008399514015007
 10
5.840958441304319
 20
1.71562192818448
 10
5.950408006100776
 20
1.71562192818448
  0
LWPOLYLINE
  5
14
100
AcDbEntity
  8
USP-GEO
100
AcDbPolyline
 90
       22
 70
   128
 43
0.0
 10
5.093053081861853
 20
0.0182415941327427
 10
5.093053081861853
 20
0.0
 10
5.840958441304319
 20
0.0
 10
5.950408006100776
 20
0.0
 10
5.950408006100776
 20
0.0182415941327427
 10
5.950408006100776
 20
0.0912079706637137
 10
5.950408006100776
 20
0.2006575354601736
 10
5.950408006100776
 20
1.71562192818448
 10
5.950408006100776
 20
2.008399514015007
 10
5.950408006100776
 20
2.190815455342438
 10
5.950408006100776
 20
2.245540237740666
 10
5.950408006100776
 20
2.263781831873409
 10
5.950408006100776
 20
2.354989802537122
 10
5.950408006100776
 20
2.482680961466325
 10
5.950408006100776
 20
2.555647337997296
 10
5.950408006100776
 20
2.610372120395528
 10
5.950408006100776
 20
4.12624859282647
 10
8.451330561699844
 20
4.12624859282647
 10
8.451330561699844
 20
4.217456563490188
 10
5.840958441304319
 20
4.217456563490188
 10
5.840958441304319
 20
2.610372120395528
 10
5.841870521010957
 20
2.610372120395528
  0
LWPOLYLINE
  5
15
100
AcDbEntity
  8
USP-GEO
100
AcDbPolyline
 90
        2
 70
   129
 43
0.0
 10
5.093053081861853
 20
3.998557433897271
 10
5.840958441304319
 20
3.998557433897271
  0
LWPOLYLINE
  5
16
100
AcDbEntity
  8
USP-GEO
100
AcDbPolyline
 90
       10
 70
   129
 43
0.0
 10
2.592130526262785
 20
0.0
 10
2.592130526262785
 20
0.0182415941327427
 10
2.592130526262785
 20
0.0912079706637137
 10
2.592130526262785
 20
0.2006575354601736
 10
2.592130526262785
 20
1.71562192818448
 10
2.500922555599068
 20
1.71562192818448
 10
2.500922555599068
 20
0.2006575354601736
 10
2.500922555599068
 20
0.0912079706637137
 10
2.500922555599068
 20
0.0182415941327427
 10
2.500922555599068
 20
0.0
  0
LWPOLYLINE
  5
17
100
AcDbEntity
  8
USP-GEO
100
AcDbPolyline
 90
        2
 70
   128
 43
0.0
 10
2.592130526262785
 20
0.2006575354601736
 10
2.592130526262785
 20
1.71562192818448
  0
LWPOLYLINE
  5
18
100
AcDbEntity
  8
USP-GEO
100
AcDbPolyline
 90
       10
 70
   128
 43
0.0
 10
2.500922555599068
 20
1.71562192818448
 10
2.500922555599068
 20
0.2006575354601736
 10
2.500922555599068
 20
0.0912079706637137
 10
2.500922555599068
 20
0.0182415941327427
 10
2.500922555599068
 20
0.0
 10
2.592130526262785
 20
0.0
 10
2.592130526262785
 20
0.0182415941327427
 10
2.592130526262785
 20
0.0912079706637137
 10
2.592130526262785
 20
0.2006575354601736
 10
2.500922555599068
 20
0.2006575354601736
  0
LWPOLYLINE
  5
19
100
AcDbEntity
  8
USP-GEO
100
AcDbPolyline
 90
        2
 70
   129
 43
0.0
 10
3.340947965411885
 20
0.0
 10
2.592130526262785
 20
0.0
  0
LWPOLYLINE
  5
1A
100
AcDbEntity
  8
USP-GEO
100
AcDbPolyline
 90
        2
 70
   129
 43
0.0
 10
4.727309119500358
 20
0.0
 10
3.724021442199489
 20
0.0
  0
LWPOLYLINE
  5
1B
100
AcDbEntity
  8
USP-GEO
100
AcDbPolyline
 90
        2
 70
   129
 43
0.0
 10
3.669296659801261
 20
0.0547247823982282
 10
3.413914341942859
 20
0.0547247823982282
  0
LWPOLYLINE
  5
1C
100
AcDbEntity
  8
USP-GEO
100
AcDbPolyline
 90
        4
 70
   128
 43
0.0
 10
3.340947965411885
 20
0.0
 10
3.359189559544628
 20
0.0182415941327427
 10
3.37743115367737
 20
0.0547247823982282
 10
3.413914341942859
 20
0.0547247823982282
  0
LWPOLYLINE
  5
1D
100
AcDbEntity
  8
USP-GEO
100
AcDbPolyline
 90
        4
 70
   128
 43
0.0
 10
3.669296659801261
 20
0.0547247823982282
 10
3.687538253934004
 20
0.0547247823982282
 10
3.724021442199489
 20
0.0182415941327427
 10
3.724021442199489
 20
0.0
  0
LWPOLYLINE
  5
1E
100
AcDbEntity
  8
USP-GEO
100
AcDbPolyline
 90
        2
 70
   128
 43
0.0
 10
3.724021442199489
 20
0.0182415941327427
 10
3.724021442199489
 20
0.0
  0
LWPOLYLINE
  5
1F
100
AcDbEntity
  8
USP-GEO
100
AcDbPolyline
 90
        2
 70
   129
 43
0.0
 10
5.038328299463625
 20
0.0547247823982282
 10
4.782945981605223
 20
0.0547247823982282
  0
LWPOLYLINE
  5
20
100
AcDbEntity
  8
USP-GEO
100
AcDbPolyline
 90
        4
 70
   128
 43
0.0
 10
4.727309119500358
 20
0.0
 10
4.727309119500358
 20
0.0182415941327427
 10
4.76470438747248
 20
0.0547247823982282
 10
4.782945981605223
 20
0.0547247823982282
  0
LWPOLYLINE
  5
21
100
AcDbEntity
  8
USP-GEO
100
AcDbPolyline
 90
        2
 70
   129
 43
0.0
 10
2.592130526262785
 20
3.998557433897271
 10
3.340947965411885
 20
3.998557433897271
  0
LWPOLYLINE
  5
22
100
AcDbEntity
  8
USP-GEO
100
AcDbPolyline
 90
        2
 70
   129
 43
0.0
 10
2.592130526262785
 20
4.217456563490188
 10
2.592130526262785
 20
2.610372120395528
  0
LWPOLYLINE
  5
23
100
AcDbEntity
  8
USP-GEO
100
AcDbPolyline
 90
       43
 70
   128
 43
0.0
 10
2.500922555599068
 20
3.158532024084454
 10
2.427956179068097
 20
3.122048835818969
 10
2.300265020138898
 20
2.994357676889766
 10
2.245540237740666
 20
2.811029655855698
 10
2.300265020138898
 20
2.62861371452827
 10
2.300265020138898
 20
2.610372120395528
 10
2.31850661427164
 20
2.592130526262781
 10
2.354989802537126
 20
2.573888932130039
 10
2.373231396669869
 20
2.537405743864553
 10
2.409714584935354
 20
2.51916414973181
 10
2.427956179068097
 20
2.500922555599068
 10
2.500922555599068
 20
2.482680961466325
 10
2.592130526262785
 20
2.482680961466325
 10
2.592130526262785
 20
2.354989802537122
 10
2.592130526262785
 20
2.263781831873409
 10
2.592130526262785
 20
2.245540237740666
 10
2.500922555599068
 20
2.245540237740666
 10
2.500922555599068
 20
2.263781831873409
 10
2.500922555599068
 20
2.354989802537122
 10
2.500922555599068
 20
2.482680961466325
 10
2.500922555599068
 20
2.555647337997296
 10
2.500922555599068
 20
2.482680961466325
 10
2.500922555599068
 20
2.354989802537122
 10
2.500922555599068
 20
2.263781831873409
 10
2.500922555599068
 20
2.245540237740666
 10
2.500922555599068
 20
2.190815455342438
 10
2.500922555599068
 20
2.245540237740666
 10
2.592130526262785
 20
2.245540237740666
 10
2.592130526262785
 20
2.190815455342438
 10
2.592130526262785
 20
2.008399514015007
 10
2.592130526262785
 20
1.71562192818448
 10
2.592130526262785
 20
2.008399514015007
 10
2.592130526262785
 20
2.190815455342438
 10
2.592130526262785
 20
2.245540237740666
 10
2.592130526262785
 20
2.263781831873409
 10
2.592130526262785
 20
2.354989802537122
 10
2.592130526262785
 20
2.482680961466325
 10
2.592130526262785
 20
2.555647337997296
 10
2.592130526262785
 20
2.610372120395528
 10
2.500922555599068
 20
2.610372120395528
 10
2.500922555599068
 20
2.555647337997296
 10
2.500922555599068
 20
2.610372120395528
 10
2.501834635305705
 20
2.610372120395528
  0
LWPOLYLINE
  5
24
100
AcDbEntity
  8
USP-GEO
100
AcDbPolyline
 90
        4
 70
   129
 43
0.0
 10
2.500922555599068
 20
1.71562192818448
 10
2.500922555599068
 20
2.008399514015007
 10
2.500922555599068
 20
2.190815455342438
 10
2.500922555599068
 20
2.008399514015007
  0
LWPOLYLINE
  5
25
100
AcDbEntity
  8
USP-GEO
100
AcDbPolyline
 90
        2
 70
   128
 43
0.0
 10
2.409714584935354
 20
2.51916414973181
 10
2.410626664641991
 20
2.51916414973181
  0
LWPOLYLINE
  5
26
100
AcDbEntity
  8
USP-GEO
100
AcDbPolyline
 90
        2
 70
   128
 43
0.0
 10
2.300265020138898
 20
2.62861371452827
 10
2.301177099845535
 20
2.62861371452827
  0
LWPOLYLINE
  5
27
100
AcDbEntity
  8
USP-GEO
100
AcDbPolyline
 90
        4
 70
   128
 43
0.0
 10
2.592130526262785
 20
2.482680961466325
 10
2.592130526262785
 20
2.555647337997296
 10
2.592130526262785
 20
2.610372120395528
 10
2.593042605969422
 20
2.610372120395528
  0
LWPOLYLINE
  5
28
100
AcDbEntity
  8
USP-GEO
100
AcDbPolyline
 90
        8
 70
   128
 43
0.0
 10
4.782945981605223
 20
3.925591057366297
 10
4.76470438747248
 20
3.94383265149904
 10
4.727309119500358
 20
3.962074245631786
 10
4.727309119500358
 20
3.998557433897271
 10
3.724021442199489
 20
3.998557433897271
 10
3.724021442199489
 20
3.962074245631786
 10
3.687538253934004
 20
3.94383265149904
 10
3.669296659801261
 20
3.925591057366297
  0
LWPOLYLINE
  5
29
100
AcDbEntity
  8
USP-GEO
100
AcDbPolyline
 90
        2
 70
   128
 43
0.0
 10
4.727309119500358
 20
3.998557433897271
 10
3.724021442199489
 20
3.998557433897271
  0
LWPOLYLINE
  5
2A
100
AcDbEntity
  8
USP-GEO
100
AcDbPolyline
 90
        2
 70
   129
 43
0.0
 10
3.413914341942859
 20
3.925591057366297
 10
3.669296659801261
 20
3.925591057366297
  0
LWPOLYLINE
  5
2B
100
AcDbEntity
  8
USP-GEO
100
AcDbPolyline
 90
        4
 70
   128
 43
0.0
 10
3.413914341942859
 20
3.925591057366297
 10
3.37743115367737
 20
3.94383265149904
 10
3.359189559544628
 20
3.962074245631786
 10
3.340947965411885
 20
3.998557433897271
  0
LWPOLYLINE
  5
2C
100
AcDbEntity
  8
USP-GEO
100
AcDbPolyline
 90
        2
 70
   129
 43
0.0
 10
4.782945981605223
 20
3.925591057366297
 10
5.038328299463625
 20
3.925591057366297
  0
LWPOLYLINE
  5
2D
100
AcDbEntity
  8
USP-GEO
100
AcDbPolyline
 90
        4
 70
   128
 43
0.0
 10
5.093053081861853
 20
3.998557433897271
 10
5.093053081861853
 20
3.962074245631786
 10
5.07481148772911
 20
3.94383265149904
 10
5.038328299463625
 20
3.925591057366297
  0
LWPOLYLINE
  5
2E
100
AcDbEntity
  8
USP-GEO
100
AcDbPolyline
 90
        2
 70
   128
 43
0.0
 10
5.840958441304319
 20
1.71562192818448
 10
5.840958441304319
 20
0.2006575354601736
  0
LWPOLYLINE
  5
2F
100
AcDbEntity
  8
USP-GEO
100
AcDbPolyline
 90
       23
 70
   128
 43
0.0
 10
5.950408006100776
 20
0.2006575354601736
 10
5.840958441304319
 20
0.2006575354601736
 10
5.840958441304319
 20
0.0912079706637137
 10
5.840958441304319
 20
0.0182415941327427
 10
5.840958441304319
 20
0.0
 10
5.840958441304319
 20
0.0182415941327427
 10
5.840958441304319
 20
0.0912079706637137
 10
5.840958441304319
 20
0.2006575354601736
 10
5.840958441304319
 20
1.71562192818448
 10
5.840958441304319
 20
2.008399514015007
 10
5.840958441304319
 20
2.190815455342438
 10
5.840958441304319
 20
2.245540237740666
 10
5.840958441304319
 20
2.263781831873409
 10
5.840958441304319
 20
2.354989802537122
 10
5.840958441304319
 20
2.482680961466325
 10
5.840958441304319
 20
2.555647337997296
 10
5.840958441304319
 20
2.610372120395528
 10
5.840958441304319
 20
4.217456563490188
 10
8.451330561699844
 20
4.217456563490188
 10
8.451330561699844
 20
4.12624859282647
 10
5.950408006100776
 20
4.12624859282647
 10
5.950408006100776
 20
2.610372120395528
 10
5.840958441304319
 20
2.610372120395528
  0
LWPOLYLINE
  5
30
100
AcDbEntity
  8
USP-GEO
100
AcDbPolyline
 90
       25
 70
   128
 43
0.0
 10
5.950408006100776
 20
3.158532024084454
 10
6.023374382631747
 20
3.122048835818969
 10
6.151065541560949
 20
2.994357676889766
 10
6.205790323959178
 20
2.811029655855698
 10
6.151065541560949
 20
2.62861371452827
 10
6.151065541560949
 20
2.610372120395528
 10
6.114582353295464
 20
2.592130526262781
 10
6.096340759162721
 20
2.573888932130039
 10
6.059857570897236
 20
2.537405743864553
 10
6.041615976764489
 20
2.51916414973181
 10
6.023374382631747
 20
2.500922555599068
 10
5.950408006100776
 20
2.482680961466325
 10
5.840958441304319
 20
2.482680961466325
 10
5.840958441304319
 20
2.354989802537122
 10
5.840958441304319
 20
2.263781831873409
 10
5.840958441304319
 20
2.245540237740666
 10
5.950408006100776
 20
2.245540237740666
 10
5.950408006100776
 20
2.263781831873409
 10
5.950408006100776
 20
2.354989802537122
 10
5.950408006100776
 20
2.482680961466325
 10
5.950408006100776
 20
2.555647337997296
 10
5.950408006100776
 20
2.610372120395528
 10
5.840958441304319
 20
2.610372120395528
 10
5.840958441304319
 20
2.555647337997296
 10
5.840958441304319
 20
2.482680961466325
  0
LWPOLYLINE
  5
31
100
AcDbEntity
  8
USP-GEO
100
AcDbPolyline
 90
        2
 70
   129
 43
0.0
 10
5.951320085807413
 20
2.610372120395528
 10
5.950408006100776
 20
2.610372120395528
  0
ENDBLK
  5
34
100
AcDbEntity
  8
0
100
AcDbBlockEnd
  0
BLOCK
  5
AE
100
AcDbEntity
  8
0
100
AcDbBlockBegin
  2
THDH26-2_F
 70
     0
 10
0.0
 20
0.0
 30
0.0
  3
THDH26-2_F
  1

  0
LWPOLYLINE
  5
37
100
AcDbEntity
  8
USP-GEO
100
AcDbPolyline
 90
       18
 70
   128
 43
0.0
 10
2.592130526262785
 20
0.2736239119911481
 10
2.592130526262785
 20
0.4742814474513182
 10
2.592130526262785
 20
0.6384557946460064
 10
2.592130526262785
 20
0.8026301418406944
 10
2.592130526262785
 20
2.464439367333584
 10
2.592130526262785
 20
2.866666517960567
 10
2.592130526262785
 20
3.322706371279144
 10
2.592130526262785
 20
3.816141492569842
 10
2.592130526262785
 20
4.600530040277792
 10
2.592130526262785
 20
4.765616467179116
 10
2.592130526262785
 20
4.911549220241061
 10
2.592130526262785
 20
5.020998785037519
 10
2.592130526262785
 20
5.09396516156849
 10
2.592130526262785
 20
5.185173132232206
 10
2.592130526262785
 20
5.294622697028664
 10
2.592130526262785
 20
5.604729797285296
 10
2.500922555599068
 20
5.604729797285296
 10
0.0
 20
5.604729797285296
  0
LWPOLYLINE
  5
38
100
AcDbEntity
  8
USP-GEO
100
AcDbPolyline
 90
       11
 70
   128
 43
0.0
 10
0.0
 20
5.294622697028664
 10
0.0182415941327445
 20
5.185173132232206
 10
0.05472478239823
 20
5.09396516156849
 10
0.1459327530619454
 20
5.020998785037519
 10
0.2562943975650409
 20
4.911549220241061
 10
0.3475023682287546
 20
4.765616467179116
 10
0.3657439623614991
 20
4.600530040277792
 10
0.3657439623614991
 20
3.816141492569842
 10
0.4387103388924701
 20
3.322706371279144
 10
0.6028846860871582
 20
2.866666517960567
 10
0.8947501922110454
 20
2.464439367333584
  0
LWPOLYLINE
  5
39
100
AcDbEntity
  8
USP-GEO
100
AcDbPolyline
 90
        9
 70
   128
 43
0.0
 10
0.0
 20
5.604729797285296
 10
2.500922555599068
 20
5.604729797285296
 10
2.500922555599068
 20
5.294622697028664
 10
2.500922555599068
 20
5.185173132232206
 10
2.500922555599068
 20
5.09396516156849
 10
2.500922555599068
 20
5.020998785037519
 10
2.500922555599068
 20
4.911549220241061
 10
2.500922555599068
 20
4.765616467179116
 10
2.500922555599068
 20
4.600530040277792
  0
LWPOLYLINE
  5
3A
100
AcDbEntity
  8
USP-GEO
100
AcDbPolyline
 90
        2
 70
   129
 43
0.0
 10
0.0
 20
5.294622697028664
 10
0.0
 20
5.604729797285296
  0
TEXT
  5
3B
100
AcDbEntity
  8
USP-TXT
100
AcDbText
 10
1.108477780849924
 20
-1.514644180885571
 30
0.0
 40
0.296875
  1
THDH26-2 - FRONT VIEW
 72
     1
 11
4.225665280849923
 21
-1.514644180885571
 31
0.0
100
AcDbText
  0
LWPOLYLINE
  5
3C
100
AcDbEntity
  8
USP-GEO
100
AcDbPolyline
 90
       43
 70
   128
 43
0.0
 10
2.500922555599068
 20
5.294622697028664
 10
2.592130526262785
 20
5.294622697028664
 10
2.592130526262785
 20
5.604729797285296
 10
2.500922555599068
 20
5.604729797285296
 10
2.500922555599068
 20
5.294622697028664
 10
2.500922555599068
 20
5.185173132232206
 10
2.500922555599068
 20
5.09396516156849
 10
2.500922555599068
 20
5.020998785037519
 10
2.500922555599068
 20
4.911549220241061
 10
2.500922555599068
 20
4.765616467179116
 10
2.500922555599068
 20
4.600530040277792
 10
2.500922555599068
 20
3.816141492569842
 10
2.500922555599068
 20
3.322706371279144
 10
2.500922555599068
 20
2.866666517960567
 10
2.500922555599068
 20
2.464439367333584
 10
2.500922555599068
 20
0.8026301418406944
 10
2.500922555599068
 20
0.6384557946460064
 10
2.500922555599068
 20
0.4742814474513182
 10
2.500922555599068
 20
0.2736239119911481
 10
2.500922555599068
 20
0.0
 10
3.340947965411885
 20
0.0
 10
3.340947965411885
 20
0.0912079706637172
 10
2.592130526262785
 20
0.0912079706637172
 10
3.340947965411885
 20
0.0912079706637172
 10
3.359189559544628
 20
0.0912079706637172
 10
3.37743115367737
 20
0.0912079706637172
 10
3.413914341942859
 20
0.0912079706637172
 10
3.669296659801261
 20
0.0912079706637172
 10
3.687538253934004
 20
0.0912079706637172
 10
3.724021442199489
 20
0.0912079706637172
 10
4.727309119500358
 20
0.0912079706637172
 10
4.76470438747248
 20
0.0912079706637172
 10
4.782945981605223
 20
0.0912079706637172
 10
5.038328299463625
 20
0.0912079706637172
 10
5.07481148772911
 20
0.0912079706637172
 10
5.093053081861853
 20
0.0912079706637172
 10
5.840958441304319
 20
0.0912079706637172
 10
5.840958441304319
 20
0.2736239119911481
 10
5.950408006100776
 20
0.2736239119911481
 10
5.950408006100776
 20
0.0
 10
5.093053081861853
 20
0.0
 10
5.07481148772911
 20
0.0
 10
5.038328299463625
 20
0.0
  0
LWPOLYLINE
  5
3D
100
AcDbEntity
  8
USP-GEO
100
AcDbPolyline
 90
       33
 70
   128
 43
0.0
 10
2.500922555599068
 20
0.2736239119911481
 10
2.500922555599068
 20
0.0
 10
3.340947965411885
 20
0.0
 10
3.359189559544628
 20
0.0
 10
3.37743115367737
 20
0.0
 10
3.413914341942859
 20
0.0
 10
3.669296659801261
 20
0.0
 10
3.687538253934004
 20
0.0
 10
3.724021442199489
 20
0.0
 10
4.727309119500358
 20
0.0
 10
4.76470438747248
 20
0.0
 10
4.782945981605223
 20
0.0
 10
5.038328299463625
 20
0.0
 10
5.07481148772911
 20
0.0
 10
5.093053081861853
 20
0.0
 10
5.950408006100776
 20
0.0
 10
5.950408006100776
 20
0.2736239119911481
 10
5.950408006100776
 20
0.4742814474513182
 10
5.950408006100776
 20
0.6384557946460064
 10
5.950408006100776
 20
0.8026301418406944
 10
5.950408006100776
 20
2.464439367333584
 10
5.950408006100776
 20
2.866666517960567
 10
5.950408006100776
 20
3.322706371279144
 10
5.950408006100776
 20
3.816141492569842
 10
5.950408006100776
 20
4.600530040277792
 10
5.950408006100776
 20
4.765616467179116
 10
5.950408006100776
 20
4.911549220241061
 10
5.950408006100776
 20
5.020998785037519
 10
5.950408006100776
 20
5.09396516156849
 10
5.950408006100776
 20
5.185173132232206
 10
5.950408006100776
 20
5.294622697028664
 10
5.950408006100776
 20
5.604729797285296
 10
8.451330561699844
 20
5.604729797285296
  0
LWPOLYLINE
  5
3E
100
AcDbEntity
  8
USP-GEO
100
AcDbPolyline
 90
       24
 70
   128
 43
0.0
 10
4.782945981605223
 20
0.0
 10
5.038328299463625
 20
0.0
 10
5.038328299463625
 20
0.0912079706637172
 10
5.07481148772911
 20
0.0912079706637172
 10
5.093053081861853
 20
0.0912079706637172
 10
5.840958441304319
 20
0.0912079706637172
 10
5.840958441304319
 20
0.2736239119911481
 10
5.840958441304319
 20
0.4742814474513182
 10
5.840958441304319
 20
0.6384557946460064
 10
5.840958441304319
 20
0.8026301418406944
 10
5.840958441304319
 20
2.464439367333584
 10
5.840958441304319
 20
2.866666517960567
 10
5.840958441304319
 20
3.322706371279144
 10
5.840958441304319
 20
3.816141492569842
 10
5.840958441304319
 20
4.600530040277792
 10
5.840958441304319
 20
4.765616467179116
 10
5.840958441304319
 20
4.911549220241061
 10
5.840958441304319
 20
5.020998785037519
 10
5.840958441304319
 20
5.09396516156849
 10
5.840958441304319
 20
5.185173132232206
 10
5.840958441304319
 20
5.294622697028664
 10
5.840958441304319
 20
5.604729797285296
 10
5.950408006100776
 20
5.604729797285296
 10
8.451330561699844
 20
5.604729797285296
  0
LWPOLYLINE
  5
3F
100
AcDbEntity
  8
USP-GEO
100
AcDbPolyline
 90
        2
 70
   129
 43
0.0
 10
2.409714584935354
 20
0.8026301418406944
 10
0.8947501922110454
 20
2.464439367333584
  0
LWPOLYLINE
  5
40
100
AcDbEntity
  8
USP-GEO
100
AcDbPolyline
 90
        3
 70
   128
 43
0.0
 10
2.592130526262785
 20
2.464439367333584
 10
2.500922555599068
 20
2.464439367333584
 10
2.500922555599068
 20
0.8026301418406944
  0
LWPOLYLINE
  5
41
100
AcDbEntity
  8
USP-GEO
100
AcDbPolyline
 90
        9
 70
   128
 43
0.0
 10
2.592130526262785
 20
0.8026301418406944
 10
2.592130526262785
 20
2.464439367333584
 10
2.592130526262785
 20
2.866666517960567
 10
2.592130526262785
 20
3.322706371279144
 10
2.592130526262785
 20
3.816141492569842
 10
2.500922555599068
 20
3.816141492569842
 10
2.500922555599068
 20
3.322706371279144
 10
2.500922555599068
 20
2.866666517960567
 10
2.500922555599068
 20
2.464439367333584
  0
LWPOLYLINE
  5
42
100
AcDbEntity
  8
USP-GEO
100
AcDbPolyline
 90
        8
 70
   129
 43
0.0
 10
2.592130526262785
 20
0.2736239119911481
 10
2.592130526262785
 20
0.4742814474513182
 10
2.592130526262785
 20
0.6384557946460064
 10
2.592130526262785
 20
0.8026301418406944
 10
2.500922555599068
 20
0.8026301418406944
 10
2.500922555599068
 20
0.6384557946460064
 10
2.500922555599068
 20
0.4742814474513182
 10
2.500922555599068
 20
0.2736239119911481
  0
LWPOLYLINE
  5
43
100
AcDbEntity
  8
USP-GEO
100
AcDbPolyline
 90
        2
 70
   129
 43
0.0
 10
2.592130526262785
 20
0.2736239119911481
 10
2.592130526262785
 20
0.0912079706637172
  0
LWPOLYLINE
  5
44
100
AcDbEntity
  8
USP-GEO
100
AcDbPolyline
 90
        7
 70
   128
 43
0.0
 10
2.500922555599068
 20
1.624413957520767
 10
2.427956179068097
 20
1.587930769255281
 10
2.300265020138898
 20
1.46023961032608
 10
2.245540237740666
 20
1.296065263131392
 10
2.300265020138898
 20
1.113649321803963
 10
2.427956179068097
 20
0.9859581628747609
 10
2.500922555599068
 20
0.9494749746092754
  0
LWPOLYLINE
  5
45
100
AcDbEntity
  8
USP-GEO
100
AcDbPolyline
 90
        4
 70
   128
 43
0.0
 10
2.500922555599068
 20
0.6931805770442346
 10
2.464439367333582
 20
0.7296637653097236
 10
2.446197773200839
 20
0.766146953575209
 10
2.409714584935354
 20
0.8026301418406944
  0
LWPOLYLINE
  5
46
100
AcDbEntity
  8
USP-GEO
100
AcDbPolyline
 90
        2
 70
   129
 43
0.0
 10
2.500922555599068
 20
1.679138739918997
 10
2.409714584935354
 20
1.679138739918997
  0
LWPOLYLINE
  5
47
100
AcDbEntity
  8
USP-GEO
100
AcDbPolyline
 90
        6
 70
   128
 43
0.0
 10
2.354989802537126
 20
1.533205986857051
 10
2.336748208404383
 20
1.551447580989796
 10
2.31850661427164
 20
1.606172363388024
 10
2.336748208404383
 20
1.642655551653509
 10
2.373231396669869
 20
1.679138739918997
 10
2.409714584935354
 20
1.679138739918997
  0
LWPOLYLINE
  5
48
100
AcDbEntity
  8
USP-GEO
100
AcDbPolyline
 90
        4
 70
   128
 43
0.0
 10
2.391472990802611
 20
1.332548451396879
 10
2.373231396669869
 20
1.296065263131392
 10
2.391472990802611
 20
1.241340480733164
 10
2.392385070509249
 20
1.241340480733164
  0
LWPOLYLINE
  5
49
100
AcDbEntity
  8
USP-GEO
100
AcDbPolyline
 90
       12
 70
   129
 43
0.0
 10
2.300265020138898
 20
1.241340480733164
 10
2.31850661427164
 20
1.223098886600421
 10
2.354989802537126
 20
1.204857292467677
 10
2.373231396669869
 20
1.223098886600421
 10
2.409714584935354
 20
1.241340480733164
 10
2.409714584935354
 20
1.296065263131392
 10
2.409714584935354
 20
1.332548451396879
 10
2.373231396669869
 20
1.350790045529622
 10
2.354989802537126
 20
1.369031639662365
 10
2.31850661427164
 20
1.350790045529622
 10
2.300265020138898
 20
1.332548451396879
 10
2.300265020138898
 20
1.296065263131392
  0
LWPOLYLINE
  5
4A
100
AcDbEntity
  8
USP-GEO
100
AcDbPolyline
 90
        9
 70
   128
 43
0.0
 10
3.413914341942859
 20
0.0
 10
3.669296659801261
 20
0.0
 10
3.687538253934004
 20
0.0
 10
3.724021442199489
 20
0.0
 10
4.727309119500358
 20
0.0
 10
4.76470438747248
 20
0.0
 10
4.782945981605223
 20
0.0
 10
4.782945981605223
 20
0.0912079706637172
 10
5.038328299463625
 20
0.0912079706637172
  0
LWPOLYLINE
  5
4B
100
AcDbEntity
  8
USP-GEO
100
AcDbPolyline
 90
        6
 70
   128
 43
0.0
 10
4.727309119500358
 20
0.0
 10
4.727309119500358
 20
0.0912079706637172
 10
3.724021442199489
 20
0.0912079706637172
 10
3.687538253934004
 20
0.0912079706637172
 10
3.669296659801261
 20
0.0912079706637172
 10
3.669296659801261
 20
0.0
  0
LWPOLYLINE
  5
4C
100
AcDbEntity
  8
USP-GEO
100
AcDbPolyline
 90
        6
 70
   128
 43
0.0
 10
3.340947965411885
 20
0.0
 10
3.359189559544628
 20
0.0
 10
3.37743115367737
 20
0.0
 10
3.413914341942859
 20
0.0
 10
3.413914341942859
 20
0.0912079706637172
 10
3.669296659801261
 20
0.0912079706637172
  0
LWPOLYLINE
  5
4D
100
AcDbEntity
  8
USP-GEO
100
AcDbPolyline
 90
        4
 70
   128
 43
0.0
 10
3.413914341942859
 20
0.0912079706637172
 10
3.37743115367737
 20
0.0912079706637172
 10
3.359189559544628
 20
0.0912079706637172
 10
3.340947965411885
 20
0.0912079706637172
  0
LWPOLYLINE
  5
4E
100
AcDbEntity
  8
USP-GEO
100
AcDbPolyline
 90
        4
 70
   128
 43
0.0
 10
3.724933521906127
 20
0.0912079706637172
 10
3.724021442199489
 20
0.0912079706637172
 10
3.724021442199489
 20
0.0
 10
3.724933521906127
 20
0.0
  0
LWPOLYLINE
  5
4F
100
AcDbEntity
  8
USP-GEO
100
AcDbPolyline
 90
        4
 70
   128
 43
0.0
 10
4.782945981605223
 20
0.0912079706637172
 10
4.76470438747248
 20
0.0912079706637172
 10
4.727309119500358
 20
0.0912079706637172
 10
4.728221199206995
 20
0.0912079706637172
  0
LWPOLYLINE
  5
50
100
AcDbEntity
  8
USP-GEO
100
AcDbPolyline
 90
        4
 70
   128
 43
0.0
 10
5.09396516156849
 20
0.0
 10
5.093053081861853
 20
0.0
 10
5.093053081861853
 20
0.0912079706637172
 10
5.09396516156849
 20
0.0912079706637172
  0
LWPOLYLINE
  5
51
100
AcDbEntity
  8
USP-GEO
100
AcDbPolyline
 90
       12
 70
   129
 43
0.0
 10
1.387273233795108
 20
4.838582843710089
 10
1.40551482792785
 20
4.856824437842831
 10
1.46023961032608
 20
4.875066031975574
 10
1.496722798591566
 20
4.856824437842831
 10
1.533205986857051
 20
4.838582843710089
 10
1.551447580989794
 20
4.78385806131186
 10
1.533205986857051
 20
4.747374873046373
 10
1.496722798591566
 20
4.70997960507425
 10
1.46023961032608
 20
4.691738010941508
 10
1.40551482792785
 20
4.70997960507425
 10
1.387273233795108
 20
4.747374873046373
 10
1.369031639662365
 20
4.78385806131186
  0
LWPOLYLINE
  5
52
100
AcDbEntity
  8
USP-GEO
100
AcDbPolyline
 90
        5
 70
   128
 43
0.0
 10
2.500922555599068
 20
5.020998785037519
 10
2.592130526262785
 20
5.020998785037519
 10
2.592130526262785
 20
4.911549220241061
 10
2.592130526262785
 20
4.765616467179116
 10
2.592130526262785
 20
4.600530040277792
  0
LWPOLYLINE
  5
53
100
AcDbEntity
  8
USP-GEO
100
AcDbPolyline
 90
        7
 70
   128
 43
0.0
 10
2.500922555599068
 20
5.002757190904777
 10
2.427956179068097
 20
4.966274002639289
 10
2.300265020138898
 20
4.838582843710089
 10
2.245540237740666
 20
4.673496416808765
 10
2.300265020138898
 20
4.491080475481334
 10
2.427956179068097
 20
4.363389316552133
 10
2.500922555599068
 20
4.326906128286648
  0
LWPOLYLINE
  5
54
100
AcDbEntity
  8
USP-GEO
100
AcDbPolyline
 90
       12
 70
   128
 43
0.0
 10
1.46023961032608
 20
3.614571877403031
 10
1.496722798591566
 20
3.614571877403031
 10
1.533205986857051
 20
3.578088689137546
 10
1.551447580989794
 20
3.54160550087206
 10
1.533205986857051
 20
3.48688071847383
 10
1.496722798591566
 20
3.450397530208345
 10
1.46023961032608
 20
3.450397530208345
 10
1.40551482792785
 20
3.450397530208345
 10
1.387273233795108
 20
3.48688071847383
 10
1.369031639662365
 20
3.54160550087206
 10
1.387273233795108
 20
3.578088689137546
 10
1.40551482792785
 20
3.614571877403031
  0
LWPOLYLINE
  5
55
100
AcDbEntity
  8
USP-GEO
100
AcDbPolyline
 90
        2
 70
   129
 43
0.0
 10
1.46023961032608
 20
2.190815455342438
 10
1.496722798591566
 20
2.209057049475182
  0
LWPOLYLINE
  5
56
100
AcDbEntity
  8
USP-GEO
100
AcDbPolyline
 90
       12
 70
   128
 43
0.0
 10
1.46023961032608
 20
2.190815455342438
 10
1.40551482792785
 20
2.209057049475182
 10
1.387273233795108
 20
2.245540237740668
 10
1.369031639662365
 20
2.282023426006153
 10
1.387273233795108
 20
2.31850661427164
 10
1.40551482792785
 20
2.354989802537126
 10
1.46023961032608
 20
2.373231396669869
 10
1.496722798591566
 20
2.354989802537126
 10
1.533205986857051
 20
2.31850661427164
 10
1.551447580989794
 20
2.282023426006153
 10
1.533205986857051
 20
2.245540237740668
 10
1.496722798591566
 20
2.209057049475182
  0
LWPOLYLINE
  5
57
100
AcDbEntity
  8
USP-GEO
100
AcDbPolyline
 90
       12
 70
   129
 43
0.0
 10
0.8035422215473317
 20
3.213256806482686
 10
0.8400254098128172
 20
3.249739994748171
 10
0.8765085980783027
 20
3.267981588880914
 10
0.9312333804765327
 20
3.249739994748171
 10
0.9677165687420181
 20
3.213256806482686
 10
0.9677165687420181
 20
3.176773618217199
 10
0.9677165687420181
 20
3.12204883581897
 10
0.9312333804765327
 20
3.103807241686228
 10
0.8765085980783027
 20
3.085565647553483
 10
0.8400254098128172
 20
3.103807241686228
 10
0.8035422215473317
 20
3.12204883581897
 10
0.7853006274145873
 20
3.176773618217199
  0
LWPOLYLINE
  5
58
100
AcDbEntity
  8
USP-GEO
100
AcDbPolyline
 90
       12
 70
   128
 43
0.0
 10
0.8765085980783027
 20
4.326906128286648
 10
0.8400254098128172
 20
4.34514772241939
 10
0.8035422215473317
 20
4.381630910684876
 10
0.7853006274145873
 20
4.418114098950361
 10
0.8035422215473317
 20
4.472838881348591
 10
0.8400254098128172
 20
4.509322069614077
 10
0.8765085980783027
 20
4.509322069614077
 10
0.9312333804765327
 20
4.509322069614077
 10
0.9677165687420181
 20
4.472838881348591
 10
0.9677165687420181
 20
4.418114098950361
 10
0.9677165687420181
 20
4.381630910684876
 10
0.9312333804765327
 20
4.34514772241939
  0
LWPOLYLINE
  5
59
100
AcDbEntity
  8
USP-GEO
100
AcDbPolyline
 90
        3
 70
   128
 43
0.0
 10
0.3475023682287546
 20
4.765616467179116
 10
0.3657439623614991
 20
4.600530040277792
 10
0.3657439623614991
 20
3.816141492569842
  0
LWPOLYLINE
  5
5A
100
AcDbEntity
  8
USP-GEO
100
AcDbPolyline
 90
        2
 70
   129
 43
0.0
 10
1.46023961032608
 20
3.614571877403031
 10
1.40551482792785
 20
3.614571877403031
  0
LWPOLYLINE
  5
5B
100
AcDbEntity
  8
USP-GEO
100
AcDbPolyline
 90
        2
 70
   129
 43
0.0
 10
0.8765085980783027
 20
4.326906128286648
 10
0.9312333804765327
 20
4.34514772241939
  0
LWPOLYLINE
  5
5C
100
AcDbEntity
  8
USP-GEO
100
AcDbPolyline
 90
        7
 70
   128
 43
0.0
 10
2.500922555599068
 20
3.87086627496807
 10
2.427956179068097
 20
3.852624680835328
 10
2.300265020138898
 20
3.724021442199489
 10
2.245540237740666
 20
3.54160550087206
 10
2.300265020138898
 20
3.359189559544629
 10
2.427956179068097
 20
3.231498400615429
 10
2.500922555599068
 20
3.195015212349941
  0
LWPOLYLINE
  5
5D
100
AcDbEntity
  8
USP-GEO
100
AcDbPolyline
 90
        8
 70
   128
 43
0.0
 10
2.136090672944209
 20
2.830183329695081
 10
1.953674731616779
 20
2.830183329695081
 10
1.917191543351293
 20
2.811941735562339
 10
1.880708355085808
 20
2.774546467590216
 10
1.880708355085808
 20
2.738063279324729
 10
1.880708355085808
 20
2.701580091059243
 10
1.917191543351293
 20
2.665096902793758
 10
1.953674731616779
 20
2.646855308661015
  0
LWPOLYLINE
  5
5E
100
AcDbEntity
  8
USP-GEO
100
AcDbPolyline
 90
        2
 70
   129
 43
0.0
 10
1.953674731616779
 20
2.646855308661015
 10
2.136090672944209
 20
2.646855308661015
  0
LWPOLYLINE
  5
5F
100
AcDbEntity
  8
USP-GEO
100
AcDbPolyline
 90
        2
 70
   128
 43
0.0
 10
1.953674731616779
 20
2.830183329695081
 10
2.136090672944209
 20
2.830183329695081
  0
LWPOLYLINE
  5
60
100
AcDbEntity
  8
USP-GEO
100
AcDbPolyline
 90
        7
 70
   128
 43
0.0
 10
2.500922555599068
 20
2.756304873457473
 10
2.427956179068097
 20
2.719821685191986
 10
2.300265020138898
 20
2.592130526262785
 10
2.245540237740666
 20
2.409714584935354
 10
2.300265020138898
 20
2.245540237740668
 10
2.427956179068097
 20
2.099607484678724
 10
2.500922555599068
 20
2.081365890545979
  0
LWPOLYLINE
  5
61
100
AcDbEntity
  8
USP-GEO
100
AcDbPolyline
 90
        5
 70
   128
 43
0.0
 10
2.391472990802611
 20
2.464439367333584
 10
2.391472990802611
 20
2.446197773200841
 10
2.373231396669869
 20
2.409714584935354
 10
2.391472990802611
 20
2.373231396669869
 10
2.391472990802611
 20
2.354989802537126
  0
LWPOLYLINE
  5
62
100
AcDbEntity
  8
USP-GEO
100
AcDbPolyline
 90
       12
 70
   129
 43
0.0
 10
2.300265020138898
 20
2.373231396669869
 10
2.31850661427164
 20
2.354989802537126
 10
2.354989802537126
 20
2.336748208404383
 10
2.373231396669869
 20
2.354989802537126
 10
2.409714584935354
 20
2.373231396669869
 10
2.409714584935354
 20
2.409714584935354
 10
2.409714584935354
 20
2.446197773200841
 10
2.373231396669869
 20
2.482680961466327
 10
2.354989802537126
 20
2.500922555599069
 10
2.31850661427164
 20
2.482680961466327
 10
2.300265020138898
 20
2.446197773200841
 10
2.300265020138898
 20
2.409714584935354
  0
LWPOLYLINE
  5
63
100
AcDbEntity
  8
USP-GEO
100
AcDbPolyline
 90
        2
 70
   129
 43
0.0
 10
2.172573861209695
 20
2.811941735562339
 10
2.136090672944209
 20
2.830183329695081
  0
LWPOLYLINE
  5
64
100
AcDbEntity
  8
USP-GEO
100
AcDbPolyline
 90
        6
 70
   128
 43
0.0
 10
2.172573861209695
 20
2.811941735562339
 10
2.20905704947518
 20
2.774546467590216
 10
2.20905704947518
 20
2.738063279324729
 10
2.20905704947518
 20
2.701580091059243
 10
2.172573861209695
 20
2.665096902793758
 10
2.136090672944209
 20
2.646855308661015
  0
LWPOLYLINE
  5
65
100
AcDbEntity
  8
USP-GEO
100
AcDbPolyline
 90
        8
 70
   128
 43
0.0
 10
1.953674731616779
 20
4.399872504817619
 10
1.917191543351293
 20
4.418114098950361
 10
1.880708355085808
 20
4.454597287215849
 10
1.880708355085808
 20
4.491080475481334
 10
1.880708355085808
 20
4.527563663746819
 10
1.917191543351293
 20
4.564046852012307
 10
1.953674731616779
 20
4.582288446145049
 10
2.136090672944209
 20
4.582288446145049
  0
LWPOLYLINE
  5
66
100
AcDbEntity
  8
USP-GEO
100
AcDbPolyline
 90
        2
 70
   129
 43
0.0
 10
1.953674731616779
 20
4.399872504817619
 10
2.136090672944209
 20
4.399872504817619
  0
LWPOLYLINE
  5
67
100
AcDbEntity
  8
USP-GEO
100
AcDbPolyline
 90
        2
 70
   128
 43
0.0
 10
1.953674731616779
 20
4.582288446145049
 10
2.136090672944209
 20
4.582288446145049
  0
LWPOLYLINE
  5
68
100
AcDbEntity
  8
USP-GEO
100
AcDbPolyline
 90
        2
 70
   128
 43
0.0
 10
1.953674731616779
 20
4.399872504817619
 10
1.917191543351293
 20
4.418114098950361
  0
LWPOLYLINE
  5
69
100
AcDbEntity
  8
USP-GEO
100
AcDbPolyline
 90
        4
 70
   128
 43
0.0
 10
2.592130526262785
 20
3.816141492569842
 10
2.592130526262785
 20
4.600530040277792
 10
2.500922555599068
 20
4.600530040277792
 10
2.500922555599068
 20
3.816141492569842
  0
LWPOLYLINE
  5
6A
100
AcDbEntity
  8
USP-GEO
100
AcDbPolyline
 90
        5
 70
   128
 43
0.0
 10
2.391472990802611
 20
3.48688071847383
 10
2.391472990802611
 20
3.505122312606573
 10
2.373231396669869
 20
3.54160550087206
 10
2.391472990802611
 20
3.578088689137546
 10
2.391472990802611
 20
3.596330283270289
  0
LWPOLYLINE
  5
6B
100
AcDbEntity
  8
USP-GEO
100
AcDbPolyline
 90
       12
 70
   129
 43
0.0
 10
2.300265020138898
 20
3.505122312606573
 10
2.31850661427164
 20
3.468639124341088
 10
2.354989802537126
 20
3.468639124341088
 10
2.373231396669869
 20
3.468639124341088
 10
2.409714584935354
 20
3.505122312606573
 10
2.409714584935354
 20
3.54160550087206
 10
2.409714584935354
 20
3.578088689137546
 10
2.373231396669869
 20
3.614571877403031
 10
2.354989802537126
 20
3.614571877403031
 10
2.31850661427164
 20
3.614571877403031
 10
2.300265020138898
 20
3.578088689137546
 10
2.300265020138898
 20
3.54160550087206
  0
LWPOLYLINE
  5
6C
100
AcDbEntity
  8
USP-GEO
100
AcDbPolyline
 90
        6
 70
   128
 43
0.0
 10
2.172573861209695
 20
4.564046852012307
 10
2.20905704947518
 20
4.527563663746819
 10
2.20905704947518
 20
4.491080475481334
 10
2.20905704947518
 20
4.454597287215849
 10
2.172573861209695
 20
4.418114098950361
 10
2.136090672944209
 20
4.399872504817619
  0
LWPOLYLINE
  5
6D
100
AcDbEntity
  8
USP-GEO
100
AcDbPolyline
 90
        2
 70
   129
 43
0.0
 10
2.172573861209695
 20
4.564046852012307
 10
2.136090672944209
 20
4.582288446145049
  0
LWPOLYLINE
  5
6E
100
AcDbEntity
  8
USP-GEO
100
AcDbPolyline
 90
        5
 70
   128
 43
0.0
 10
2.392385070509249
 20
4.70997960507425
 10
2.391472990802611
 20
4.70997960507425
 10
2.373231396669869
 20
4.673496416808765
 10
2.391472990802611
 20
4.618771634410535
 10
2.392385070509249
 20
4.618771634410535
  0
LWPOLYLINE
  5
6F
100
AcDbEntity
  8
USP-GEO
100
AcDbPolyline
 90
       12
 70
   129
 43
0.0
 10
2.300265020138898
 20
4.618771634410535
 10
2.31850661427164
 20
4.600530040277792
 10
2.354989802537126
 20
4.582288446145049
 10
2.373231396669869
 20
4.600530040277792
 10
2.409714584935354
 20
4.618771634410535
 10
2.409714584935354
 20
4.673496416808765
 10
2.409714584935354
 20
4.70997960507425
 10
2.373231396669869
 20
4.72913327891363
 10
2.354989802537126
 20
4.747374873046373
 10
2.31850661427164
 20
4.72913327891363
 10
2.300265020138898
 20
4.70997960507425
 10
2.300265020138898
 20
4.673496416808765
  0
LWPOLYLINE
  5
70
100
AcDbEntity
  8
USP-GEO
100
AcDbPolyline
 90
       12
 70
   129
 43
0.0
 10
0.2380528034322964
 20
5.331105885294151
 10
0.2198112092995537
 20
5.294622697028664
 10
0.2380528034322964
 20
5.239897914630436
 10
0.2562943975650409
 20
5.203414726364949
 10
0.3110191799632691
 20
5.203414726364949
 10
0.3475023682287546
 20
5.203414726364949
 10
0.3839855564942418
 20
5.239897914630436
 10
0.4022271506269846
 20
5.294622697028664
 10
0.3839855564942418
 20
5.331105885294151
 10
0.3475023682287546
 20
5.367589073559637
 10
0.3110191799632691
 20
5.385830667692379
 10
0.2562943975650409
 20
5.367589073559637
  0
LWPOLYLINE
  5
71
100
AcDbEntity
  8
USP-GEO
100
AcDbPolyline
 90
        2
 70
   129
 43
0.0
 10
2.500922555599068
 20
5.312864291161407
 10
2.409714584935354
 20
5.312864291161407
  0
LWPOLYLINE
  5
72
100
AcDbEntity
  8
USP-GEO
100
AcDbPolyline
 90
        2
 70
   129
 43
0.0
 10
2.409714584935354
 20
5.14868994396672
 10
2.500922555599068
 20
5.14868994396672
  0
LWPOLYLINE
  5
73
100
AcDbEntity
  8
USP-GEO
100
AcDbPolyline
 90
        7
 70
   128
 43
0.0
 10
2.409714584935354
 20
5.14868994396672
 10
2.373231396669869
 20
5.14868994396672
 10
2.336748208404383
 20
5.185173132232206
 10
2.31850661427164
 20
5.221656320497693
 10
2.336748208404383
 20
5.276381102895921
 10
2.373231396669869
 20
5.312864291161407
 10
2.409714584935354
 20
5.312864291161407
  0
LWPOLYLINE
  5
74
100
AcDbEntity
  8
USP-GEO
100
AcDbPolyline
 90
        4
 70
   128
 43
0.0
 10
2.592130526262785
 20
5.020998785037519
 10
2.592130526262785
 20
5.09396516156849
 10
2.592130526262785
 20
5.185173132232206
 10
2.592130526262785
 20
5.294622697028664
  0
LWPOLYLINE
  5
75
100
AcDbEntity
  8
USP-GEO
100
AcDbPolyline
 90
        2
 70
   129
 43
0.0
 10
7.556580369488798
 20
2.464439367333584
 10
6.169307135693692
 20
0.9494749746092754
  0
LWPOLYLINE
  5
76
100
AcDbEntity
  8
USP-GEO
100
AcDbPolyline
 90
        3
 70
   128
 43
0.0
 10
5.950408006100776
 20
2.464439367333584
 10
5.840958441304319
 20
2.464439367333584
 10
5.840958441304319
 20
0.8026301418406944
  0
LWPOLYLINE
  5
77
100
AcDbEntity
  8
USP-GEO
100
AcDbPolyline
 90
       15
 70
   128
 43
0.0
 10
5.950408006100776
 20
0.2736239119911481
 10
5.950408006100776
 20
0.4742814474513182
 10
5.950408006100776
 20
0.6384557946460064
 10
5.950408006100776
 20
0.8026301418406944
 10
5.950408006100776
 20
2.464439367333584
 10
5.950408006100776
 20
2.866666517960567
 10
5.950408006100776
 20
3.322706371279144
 10
5.950408006100776
 20
3.816141492569842
 10
5.950408006100776
 20
4.600530040277792
 10
5.950408006100776
 20
4.765616467179116
 10
5.950408006100776
 20
4.911549220241061
 10
5.950408006100776
 20
5.020998785037519
 10
5.950408006100776
 20
5.09396516156849
 10
5.950408006100776
 20
5.185173132232206
 10
5.950408006100776
 20
5.294622697028664
  0
LWPOLYLINE
  5
78
100
AcDbEntity
  8
USP-GEO
100
AcDbPolyline
 90
        7
 70
   128
 43
0.0
 10
5.950408006100776
 20
2.573888932130042
 10
6.023374382631747
 20
2.537405743864557
 10
6.151065541560949
 20
2.409714584935354
 10
6.205790323959178
 20
2.227298643607925
 10
6.151065541560949
 20
2.044882702280494
 10
6.023374382631747
 20
1.917191543351293
 10
5.950408006100776
 20
1.880708355085808
  0
LWPOLYLINE
  5
79
100
AcDbEntity
  8
USP-GEO
100
AcDbPolyline
 90
        5
 70
   128
 43
0.0
 10
5.950408006100776
 20
0.8026301418406944
 10
5.840958441304319
 20
0.8026301418406944
 10
5.840958441304319
 20
0.6384557946460064
 10
5.840958441304319
 20
0.4742814474513182
 10
5.840958441304319
 20
0.2736239119911481
  0
LWPOLYLINE
  5
7A
100
AcDbEntity
  8
USP-GEO
100
AcDbPolyline
 90
        2
 70
   129
 43
0.0
 10
5.950408006100776
 20
1.642655551653509
 10
6.041615976764489
 20
1.642655551653509
  0
LWPOLYLINE
  5
7B
100
AcDbEntity
  8
USP-GEO
100
AcDbPolyline
 90
        2
 70
   129
 43
0.0
 10
6.041615976764489
 20
1.806829898848198
 10
5.950408006100776
 20
1.806829898848198
  0
LWPOLYLINE
  5
7C
100
AcDbEntity
  8
USP-GEO
100
AcDbPolyline
 90
        5
 70
   128
 43
0.0
 10
5.950408006100776
 20
0.766146953575209
 10
6.023374382631747
 20
0.7843885477079518
 10
6.005132788499004
 20
0.766146953575209
 10
5.986891194366261
 20
0.7296637653097236
 10
5.950408006100776
 20
0.6931805770442346
  0
LWPOLYLINE
  5
7D
100
AcDbEntity
  8
USP-GEO
100
AcDbPolyline
 90
        6
 70
   128
 43
0.0
 10
5.950408006100776
 20
1.441998016193338
 10
6.023374382631747
 20
1.40551482792785
 10
6.151065541560949
 20
1.277823668998649
 10
6.205790323959178
 20
1.095407727671219
 10
6.151065541560949
 20
0.9312333804765327
 10
6.023374382631747
 20
0.7843885477079518
  0
LWPOLYLINE
  5
7E
100
AcDbEntity
  8
USP-GEO
100
AcDbPolyline
 90
        5
 70
   128
 43
0.0
 10
6.059857570897236
 20
1.150132510069449
 10
6.059857570897236
 20
1.131890915936706
 10
6.078099165029978
 20
1.095407727671219
 10
6.059857570897236
 20
1.058924539405733
 10
6.059857570897236
 20
1.04068294527299
  0
LWPOLYLINE
  5
7F
100
AcDbEntity
  8
USP-GEO
100
AcDbPolyline
 90
       12
 70
   129
 43
0.0
 10
6.041615976764489
 20
1.058924539405733
 10
6.059857570897236
 20
1.04068294527299
 10
6.096340759162721
 20
1.022441351140248
 10
6.114582353295464
 20
1.04068294527299
 10
6.151065541560949
 20
1.058924539405733
 10
6.151065541560949
 20
1.095407727671219
 10
6.151065541560949
 20
1.131890915936706
 10
6.114582353295464
 20
1.168374104202191
 10
6.096340759162721
 20
1.186615698334934
 10
6.059857570897236
 20
1.168374104202191
 10
6.041615976764489
 20
1.131890915936706
 10
6.041615976764489
 20
1.095407727671219
  0
LWPOLYLINE
  5
80
100
AcDbEntity
  8
USP-GEO
100
AcDbPolyline
 90
        2
 70
   129
 43
0.0
 10
6.078099165029978
 20
1.806829898848198
 10
6.041615976764489
 20
1.806829898848198
  0
LWPOLYLINE
  5
81
100
AcDbEntity
  8
USP-GEO
100
AcDbPolyline
 90
        6
 70
   128
 43
0.0
 10
6.078099165029978
 20
1.806829898848198
 10
6.114582353295464
 20
1.770346710582712
 10
6.132823947428207
 20
1.733863522317225
 10
6.114582353295464
 20
1.679138739918997
 10
6.078099165029978
 20
1.642655551653509
 10
6.041615976764489
 20
1.642655551653509
  0
LWPOLYLINE
  5
82
100
AcDbEntity
  8
USP-GEO
100
AcDbPolyline
 90
        4
 70
   128
 43
0.0
 10
7.556580369488798
 20
2.464439367333584
 10
7.849357955319327
 20
2.866666517960567
 10
8.013532302514011
 20
3.322706371279144
 10
8.086498679044986
 20
3.816141492569842
  0
LWPOLYLINE
  5
83
100
AcDbEntity
  8
USP-GEO
100
AcDbPolyline
 90
       12
 70
   128
 43
0.0
 10
6.936366168975538
 20
4.929790814373804
 10
6.918124574842792
 20
4.893307626108319
 10
6.899882980710049
 20
4.838582843710089
 10
6.918124574842792
 20
4.802099655444603
 10
6.936366168975538
 20
4.765616467179116
 10
6.991090951373767
 20
4.765616467179116
 10
7.027574139639252
 20
4.765616467179116
 10
7.064057327904738
 20
4.802099655444603
 10
7.08229892203748
 20
4.838582843710089
 10
7.064057327904738
 20
4.893307626108319
 10
7.027574139639252
 20
4.929790814373804
 10
6.991090951373767
 20
4.929790814373804
  0
LWPOLYLINE
  5
84
100
AcDbEntity
  8
USP-GEO
100
AcDbPolyline
 90
        5
 70
   128
 43
0.0
 10
5.950408006100776
 20
5.020998785037519
 10
5.840958441304319
 20
5.020998785037519
 10
5.840958441304319
 20
4.911549220241061
 10
5.840958441304319
 20
4.765616467179116
 10
5.840958441304319
 20
4.600530040277792
  0
LWPOLYLINE
  5
85
100
AcDbEntity
  8
USP-GEO
100
AcDbPolyline
 90
        7
 70
   128
 43
0.0
 10
5.950408006100776
 20
4.820341249577346
 10
6.023374382631747
 20
4.78385806131186
 10
6.151065541560949
 20
4.655254822676022
 10
6.205790323959178
 20
4.472838881348591
 10
6.151065541560949
 20
4.308664534153903
 10
6.023374382631747
 20
4.162731781091959
 10
5.950408006100776
 20
4.144490186959217
  0
LWPOLYLINE
  5
86
100
AcDbEntity
  8
USP-GEO
100
AcDbPolyline
 90
        5
 70
   128
 43
0.0
 10
5.950408006100776
 20
3.816141492569842
 10
5.840958441304319
 20
3.816141492569842
 10
5.840958441304319
 20
3.322706371279144
 10
5.840958441304319
 20
2.866666517960567
 10
5.840958441304319
 20
2.464439367333584
  0
LWPOLYLINE
  5
87
100
AcDbEntity
  8
USP-GEO
100
AcDbPolyline
 90
       12
 70
   129
 43
0.0
 10
6.041615976764489
 20
3.359189559544629
 10
6.041615976764489
 20
3.395672747810115
 10
6.059857570897236
 20
3.413914341942858
 10
6.096340759162721
 20
3.432155936075602
 10
6.114582353295464
 20
3.413914341942858
 10
6.151065541560949
 20
3.395672747810115
 10
6.151065541560949
 20
3.359189559544629
 10
6.151065541560949
 20
3.304464777146399
 10
6.114582353295464
 20
3.286223183013657
 10
6.096340759162721
 20
3.267981588880914
 10
6.059857570897236
 20
3.286223183013657
 10
6.041615976764489
 20
3.304464777146399
  0
LWPOLYLINE
  5
88
100
AcDbEntity
  8
USP-GEO
100
AcDbPolyline
 90
        5
 70
   128
 43
0.0
 10
6.060769650603873
 20
3.304464777146399
 10
6.059857570897236
 20
3.304464777146399
 10
6.078099165029978
 20
3.359189559544629
 10
6.059857570897236
 20
3.395672747810115
 10
6.059857570897236
 20
3.413914341942858
  0
LWPOLYLINE
  5
89
100
AcDbEntity
  8
USP-GEO
100
AcDbPolyline
 90
        7
 70
   128
 43
0.0
 10
5.950408006100776
 20
3.687538253934004
 10
6.023374382631747
 20
3.651055065668519
 10
6.151065541560949
 20
3.523363906739316
 10
6.205790323959178
 20
3.359189559544629
 10
6.151065541560949
 20
3.176773618217199
 10
6.023374382631747
 20
3.049082459287998
 10
5.950408006100776
 20
3.012599271022512
  0
LWPOLYLINE
  5
8A
100
AcDbEntity
  8
USP-GEO
100
AcDbPolyline
 90
        5
 70
   128
 43
0.0
 10
6.059857570897236
 20
2.282023426006153
 10
6.059857570897236
 20
2.26378183187341
 10
6.078099165029978
 20
2.227298643607925
 10
6.059857570897236
 20
2.190815455342438
 10
6.059857570897236
 20
2.172573861209695
  0
LWPOLYLINE
  5
8B
100
AcDbEntity
  8
USP-GEO
100
AcDbPolyline
 90
       12
 70
   129
 43
0.0
 10
6.096340759162721
 20
2.300265020138896
 10
6.059857570897236
 20
2.300265020138896
 10
6.041615976764489
 20
2.26378183187341
 10
6.041615976764489
 20
2.227298643607925
 10
6.041615976764489
 20
2.190815455342438
 10
6.059857570897236
 20
2.154332267076952
 10
6.096340759162721
 20
2.154332267076952
 10
6.114582353295464
 20
2.154332267076952
 10
6.151065541560949
 20
2.190815455342438
 10
6.151065541560949
 20
2.227298643607925
 10
6.151065541560949
 20
2.26378183187341
 10
6.114582353295464
 20
2.300265020138896
  0
LWPOLYLINE
  5
8C
100
AcDbEntity
  8
USP-GEO
100
AcDbPolyline
 90
        2
 70
   129
 43
0.0
 10
6.316151968462275
 20
2.719821685191986
 10
6.498567909789706
 20
2.719821685191986
  0
LWPOLYLINE
  5
8D
100
AcDbEntity
  8
USP-GEO
100
AcDbPolyline
 90
        2
 70
   129
 43
0.0
 10
6.498567909789706
 20
2.884908112093311
 10
6.316151968462275
 20
2.884908112093311
  0
LWPOLYLINE
  5
8E
100
AcDbEntity
  8
USP-GEO
100
AcDbPolyline
 90
        5
 70
   128
 43
0.0
 10
6.316151968462275
 20
2.719821685191986
 10
6.279668780196789
 20
2.719821685191986
 10
6.242273512224663
 20
2.756304873457473
 10
6.22403191809192
 20
2.793700141429596
 10
6.242273512224663
 20
2.848424923827824
  0
LWPOLYLINE
  5
8F
100
AcDbEntity
  8
USP-GEO
100
AcDbPolyline
 90
        2
 70
   129
 43
0.0
 10
6.279668780196789
 20
2.884908112093311
 10
6.242273512224663
 20
2.848424923827824
  0
LWPOLYLINE
  5
90
100
AcDbEntity
  8
USP-GEO
100
AcDbPolyline
 90
        2
 70
   128
 43
0.0
 10
6.279668780196789
 20
2.884908112093311
 10
6.316151968462275
 20
2.884908112093311
  0
LWPOLYLINE
  5
91
100
AcDbEntity
  8
USP-GEO
100
AcDbPolyline
 90
        7
 70
   128
 43
0.0
 10
6.498567909789706
 20
2.884908112093311
 10
6.535051098055191
 20
2.884908112093311
 10
6.571534286320677
 20
2.848424923827824
 10
6.571534286320677
 20
2.793700141429596
 10
6.571534286320677
 20
2.756304873457473
 10
6.535051098055191
 20
2.719821685191986
 10
6.498567909789706
 20
2.719821685191986
  0
LWPOLYLINE
  5
92
100
AcDbEntity
  8
USP-GEO
100
AcDbPolyline
 90
        3
 70
   128
 43
0.0
 10
5.950408006100776
 20
4.600530040277792
 10
5.840958441304319
 20
4.600530040277792
 10
5.840958441304319
 20
3.816141492569842
  0
LWPOLYLINE
  5
93
100
AcDbEntity
  8
USP-GEO
100
AcDbPolyline
 90
        2
 70
   129
 43
0.0
 10
6.079011244736616
 20
3.614571877403031
 10
6.078099165029978
 20
3.614571877403031
  0
LWPOLYLINE
  5
94
100
AcDbEntity
  8
USP-GEO
100
AcDbPolyline
 90
        3
 70
   128
 43
0.0
 10
6.078099165029978
 20
3.614571877403031
 10
6.114582353295464
 20
3.578088689137546
 10
6.114582353295464
 20
3.559847095004803
  0
LWPOLYLINE
  5
95
100
AcDbEntity
  8
USP-GEO
100
AcDbPolyline
 90
        2
 70
   129
 43
0.0
 10
6.316151968462275
 20
4.472838881348591
 10
6.498567909789706
 20
4.472838881348591
  0
LWPOLYLINE
  5
96
100
AcDbEntity
  8
USP-GEO
100
AcDbPolyline
 90
        3
 70
   128
 43
0.0
 10
6.279668780196789
 20
4.618771634410535
 10
6.316151968462275
 20
4.637013228543278
 10
6.498567909789706
 20
4.637013228543278
  0
LWPOLYLINE
  5
97
100
AcDbEntity
  8
USP-GEO
100
AcDbPolyline
 90
        2
 70
   128
 43
0.0
 10
6.316151968462275
 20
4.637013228543278
 10
6.498567909789706
 20
4.637013228543278
  0
LWPOLYLINE
  5
98
100
AcDbEntity
  8
USP-GEO
100
AcDbPolyline
 90
       17
 70
   128
 43
0.0
 10
6.059857570897236
 20
4.527563663746819
 10
6.059857570897236
 20
4.509322069614077
 10
6.078099165029978
 20
4.472838881348591
 10
6.059857570897236
 20
4.436355693083106
 10
6.059857570897236
 20
4.418114098950361
 10
6.041615976764489
 20
4.436355693083106
 10
6.041615976764489
 20
4.472838881348591
 10
6.041615976764489
 20
4.509322069614077
 10
6.059857570897236
 20
4.545805257879564
 10
6.096340759162721
 20
4.564046852012307
 10
6.114582353295464
 20
4.545805257879564
 10
6.151065541560949
 20
4.509322069614077
 10
6.151065541560949
 20
4.472838881348591
 10
6.151065541560949
 20
4.436355693083106
 10
6.114582353295464
 20
4.418114098950361
 10
6.096340759162721
 20
4.399872504817619
 10
6.059857570897236
 20
4.418114098950361
  0
LWPOLYLINE
  5
99
100
AcDbEntity
  8
USP-GEO
100
AcDbPolyline
 90
        5
 70
   128
 43
0.0
 10
6.316151968462275
 20
4.472838881348591
 10
6.279668780196789
 20
4.472838881348591
 10
6.242273512224663
 20
4.509322069614077
 10
6.22403191809192
 20
4.545805257879564
 10
6.242273512224663
 20
4.600530040277792
  0
LWPOLYLINE
  5
9A
100
AcDbEntity
  8
USP-GEO
100
AcDbPolyline
 90
        2
 70
   129
 43
0.0
 10
6.279668780196789
 20
4.618771634410535
 10
6.242273512224663
 20
4.600530040277792
  0
LWPOLYLINE
  5
9B
100
AcDbEntity
  8
USP-GEO
100
AcDbPolyline
 90
        2
 70
   129
 43
0.0
 10
6.535051098055191
 20
4.618771634410535
 10
6.498567909789706
 20
4.637013228543278
  0
LWPOLYLINE
  5
9C
100
AcDbEntity
  8
USP-GEO
100
AcDbPolyline
 90
        6
 70
   128
 43
0.0
 10
6.498567909789706
 20
4.472838881348591
 10
6.535051098055191
 20
4.472838881348591
 10
6.571534286320677
 20
4.509322069614077
 10
6.571534286320677
 20
4.545805257879564
 10
6.571534286320677
 20
4.600530040277792
 10
6.535051098055191
 20
4.618771634410535
  0
LWPOLYLINE
  5
9D
100
AcDbEntity
  8
USP-GEO
100
AcDbPolyline
 90
       12
 70
   129
 43
0.0
 10
7.027574139639252
 20
2.26378183187341
 10
7.064057327904738
 20
2.300265020138896
 10
7.08229892203748
 20
2.336748208404383
 10
7.064057327904738
 20
2.391472990802611
 10
7.027574139639252
 20
2.427956179068099
 10
6.991090951373767
 20
2.427956179068099
 10
6.936366168975538
 20
2.427956179068099
 10
6.918124574842792
 20
2.391472990802611
 10
6.899882980710049
 20
2.336748208404383
 10
6.918124574842792
 20
2.300265020138896
 10
6.936366168975538
 20
2.26378183187341
 10
6.991090951373767
 20
2.245540237740668
  0
LWPOLYLINE
  5
9E
100
AcDbEntity
  8
USP-GEO
100
AcDbPolyline
 90
        2
 70
   128
 43
0.0
 10
7.027574139639252
 20
2.26378183187341
 10
6.991090951373767
 20
2.245540237740668
  0
LWPOLYLINE
  5
9F
100
AcDbEntity
  8
USP-GEO
100
AcDbPolyline
 90
       12
 70
   128
 43
0.0
 10
7.520097181223313
 20
3.304464777146399
 10
7.483613992957828
 20
3.286223183013657
 10
7.483613992957828
 20
3.231498400615429
 10
7.483613992957828
 20
3.195015212349941
 10
7.520097181223313
 20
3.158532024084456
 10
7.574821963621541
 20
3.140290429951713
 10
7.61130515188703
 20
3.158532024084456
 10
7.647788340152516
 20
3.195015212349941
 10
7.647788340152516
 20
3.231498400615429
 10
7.647788340152516
 20
3.286223183013657
 10
7.61130515188703
 20
3.304464777146399
 10
7.574821963621541
 20
3.322706371279144
  0
LWPOLYLINE
  5
A0
100
AcDbEntity
  8
USP-GEO
100
AcDbPolyline
 90
        2
 70
   129
 43
0.0
 10
7.574821963621541
 20
3.322706371279144
 10
7.520097181223313
 20
3.304464777146399
  0
LWPOLYLINE
  5
A1
100
AcDbEntity
  8
USP-GEO
100
AcDbPolyline
 90
       12
 70
   129
 43
0.0
 10
6.899882980710049
 20
3.596330283270289
 10
6.918124574842792
 20
3.54160550087206
 10
6.936366168975538
 20
3.523363906739316
 10
6.991090951373767
 20
3.505122312606573
 10
7.027574139639252
 20
3.523363906739316
 10
7.064057327904738
 20
3.54160550087206
 10
7.08229892203748
 20
3.596330283270289
 10
7.064057327904738
 20
3.632813471535774
 10
7.027574139639252
 20
3.669296659801261
 10
6.991090951373767
 20
3.687538253934004
 10
6.936366168975538
 20
3.669296659801261
 10
6.918124574842792
 20
3.632813471535774
  0
LWPOLYLINE
  5
A2
100
AcDbEntity
  8
USP-GEO
100
AcDbPolyline
 90
       12
 70
   129
 43
0.0
 10
7.483613992957828
 20
4.491080475481334
 10
7.483613992957828
 20
4.436355693083106
 10
7.520097181223313
 20
4.399872504817619
 10
7.574821963621541
 20
4.399872504817619
 10
7.61130515188703
 20
4.399872504817619
 10
7.647788340152516
 20
4.436355693083106
 10
7.647788340152516
 20
4.491080475481334
 10
7.647788340152516
 20
4.527563663746819
 10
7.61130515188703
 20
4.564046852012307
 10
7.574821963621541
 20
4.582288446145049
 10
7.520097181223313
 20
4.564046852012307
 10
7.483613992957828
 20
4.527563663746819
  0
LWPOLYLINE
  5
A3
100
AcDbEntity
  8
USP-GEO
100
AcDbPolyline
 90
        2
 70
   129
 43
0.0
 10
5.950408006100776
 20
5.203414726364949
 10
6.041615976764489
 20
5.203414726364949
  0
LWPOLYLINE
  5
A4
100
AcDbEntity
  8
USP-GEO
100
AcDbPolyline
 90
        2
 70
   129
 43
0.0
 10
6.041615976764489
 20
5.385830667692379
 10
5.950408006100776
 20
5.385830667692379
  0
LWPOLYLINE
  5
A5
100
AcDbEntity
  8
USP-GEO
100
AcDbPolyline
 90
        4
 70
   129
 43
0.0
 10
5.950408006100776
 20
5.604729797285296
 10
5.840958441304319
 20
5.604729797285296
 10
5.840958441304319
 20
5.294622697028664
 10
5.950408006100776
 20
5.294622697028664
  0
LWPOLYLINE
  5
A6
100
AcDbEntity
  8
USP-GEO
100
AcDbPolyline
 90
        4
 70
   128
 43
0.0
 10
5.840958441304319
 20
5.294622697028664
 10
5.840958441304319
 20
5.185173132232206
 10
5.840958441304319
 20
5.09396516156849
 10
5.840958441304319
 20
5.020998785037519
  0
LWPOLYLINE
  5
A7
100
AcDbEntity
  8
USP-GEO
100
AcDbPolyline
 90
        2
 70
   128
 43
0.0
 10
6.041615976764489
 20
5.385830667692379
 10
6.078099165029978
 20
5.367589073559637
  0
LWPOLYLINE
  5
A8
100
AcDbEntity
  8
USP-GEO
100
AcDbPolyline
 90
        7
 70
   128
 43
0.0
 10
6.041615976764489
 20
5.385830667692379
 10
6.078099165029978
 20
5.367589073559637
 10
6.114582353295464
 20
5.331105885294151
 10
6.132823947428207
 20
5.294622697028664
 10
6.114582353295464
 20
5.239897914630436
 10
6.078099165029978
 20
5.221656320497693
 10
6.041615976764489
 20
5.203414726364949
  0
LWPOLYLINE
  5
A9
100
AcDbEntity
  8
USP-GEO
100
AcDbPolyline
 90
        2
 70
   129
 43
0.0
 10
6.991090951373767
 20
4.929790814373804
 10
6.936366168975538
 20
4.929790814373804
  0
LWPOLYLINE
  5
AA
100
AcDbEntity
  8
USP-GEO
100
AcDbPolyline
 90
        7
 70
   128
 43
0.0
 10
8.451330561699844
 20
5.294622697028664
 10
8.433088967567101
 20
5.185173132232206
 10
8.396605779301616
 20
5.09396516156849
 10
8.305397808637902
 20
5.020998785037519
 10
8.195948243841442
 20
4.911549220241061
 10
8.104740273177728
 20
4.765616467179116
 10
8.086498679044986
 20
4.600530040277792
  0
LWPOLYLINE
  5
AB
100
AcDbEntity
  8
USP-GEO
100
AcDbPolyline
 90
        2
 70
   129
 43
0.0
 10
8.086498679044986
 20
4.600530040277792
 10
8.086498679044986
 20
3.816141492569842
  0
LWPOLYLINE
  5
AC
100
AcDbEntity
  8
USP-GEO
100
AcDbPolyline
 90
        2
 70
   129
 43
0.0
 10
8.451330561699844
 20
5.604729797285296
 10
8.451330561699844
 20
5.294622697028664
  0
LWPOLYLINE
  5
AD
100
AcDbEntity
  8
USP-GEO
100
AcDbPolyline
 90
       12
 70
   129
 43
0.0
 10
8.068257084912243
 20
5.331105885294151
 10
8.0500154907795
 20
5.294622697028664
 10
8.068257084912243
 20
5.239897914630436
 10
8.104740273177728
 20
5.203414726364949
 10
8.141223461443214
 20
5.203414726364949
 10
8.195948243841442
 20
5.203414726364949
 10
8.214189837974185
 20
5.239897914630436
 10
8.232431432106928
 20
5.294622697028664
 10
8.214189837974185
 20
5.331105885294151
 10
8.195948243841442
 20
5.367589073559637
 10
8.141223461443214
 20
5.385830667692379
 10
8.104740273177728
 20
5.367589073559637
  0
ENDBLK
  5
AF
100
AcDbEntity
  8
0
100
AcDbBlockEnd
  0
BLOCK
  5
EB
100
AcDbEntity
  8
0
100
AcDbBlockBegin
  2
THDH26-2_S
 70
     0
 10
0.0
 20
0.0
 30
0.0
  3
THDH26-2_S
  1

  0
TEXT
  5
B2
100
AcDbEntity
  8
USP-TXT
100
AcDbText
 10
-0.6928842694320459
 20
-1.514644180885571
 30
0.0
 40
0.296875
  1
THDH26-2 - SIDE VIEW
 72
     1
 11
2.226386563901286
 21
-1.514644180885571
 31
0.0
100
AcDbText
  0
LWPOLYLINE
  5
B3
100
AcDbEntity
  8
USP-GEO
100
AcDbPolyline
 90
       23
 70
   128
 43
0.0
 10
4.233873998209657
 20
0.0
 10
0.23714072372566
 20
0.0
 10
0.23714072372566
 20
0.2736239119911481
 10
0.2188991295929163
 20
0.41955666505309
 10
0.1824159413274309
 20
0.5654894181150354
 10
0.1094495647964582
 20
0.6931805770442346
 10
0.1094495647964582
 20
0.7296637653097236
 10
0.1094495647964582
 20
0.766146953575209
 10
0.1094495647964582
 20
0.8026301418406944
 10
0.1094495647964582
 20
2.464439367333584
 10
0.1094495647964582
 20
2.866666517960567
 10
0.1094495647964582
 20
3.322706371279144
 10
0.1094495647964582
 20
3.816141492569842
 10
0.1094495647964582
 20
4.600530040277792
 10
0.1094495647964582
 20
4.765616467179116
 10
0.1094495647964582
 20
4.911549220241061
 10
0.1094495647964582
 20
5.020998785037519
 10
0.1094495647964582
 20
5.09396516156849
 10
0.1094495647964582
 20
5.185173132232206
 10
0.1094495647964582
 20
5.294622697028664
 10
0.1094495647964582
 20
5.604729797285296
 10
1.606172363388023
 20
5.604729797285296
 10
1.606172363388023
 20
5.294622697028664
  0
LWPOLYLINE
  5
B4
100
AcDbEntity
  8
USP-GEO
100
AcDbPolyline
 90
        3
 70
   128
 43
0.0
 10
0.23714072372566
 20
0.2736239119911481
 10
0.23714072372566
 20
0.0
 10
4.233873998209657
 20
0.0
  0
LWPOLYLINE
  5
B5
100
AcDbEntity
  8
USP-GEO
100
AcDbPolyline
 90
        4
 70
   128
 43
0.0
 10
2.500010475892431
 20
2.464439367333584
 10
2.226386563901287
 20
2.866666517960567
 10
2.043970622573856
 20
3.322706371279144
 10
1.989245840175628
 20
3.816141492569842
  0
LWPOLYLINE
  5
B6
100
AcDbEntity
  8
USP-GEO
100
AcDbPolyline
 90
        2
 70
   128
 43
0.0
 10
4.160907621678684
 20
0.0912079706637172
 10
0.291865506123889
 20
0.0912079706637172
  0
LWPOLYLINE
  5
B7
100
AcDbEntity
  8
USP-GEO
100
AcDbPolyline
 90
       32
 70
   129
 43
0.0
 10
0.0
 20
3.816141492569842
 10
0.0
 20
3.322706371279144
 10
0.0
 20
2.866666517960567
 10
0.0
 20
2.464439367333584
 10
0.0
 20
0.8026301418406944
 10
0.0
 20
0.766146953575209
 10
0.0
 20
0.7296637653097236
 10
0.0
 20
0.6931805770442346
 10
0.1094495647964582
 20
0.6931805770442346
 10
0.1094495647964582
 20
0.7296637653097236
 10
0.1094495647964582
 20
0.766146953575209
 10
0.1094495647964582
 20
0.8026301418406944
 10
0.1094495647964582
 20
2.464439367333584
 10
0.1094495647964582
 20
2.866666517960567
 10
0.1094495647964582
 20
3.322706371279144
 10
0.1094495647964582
 20
3.816141492569842
 10
0.1094495647964582
 20
4.600530040277792
 10
0.1094495647964582
 20
4.765616467179116
 10
0.1094495647964582
 20
4.911549220241061
 10
0.1094495647964582
 20
5.020998785037519
 10
0.1094495647964582
 20
5.09396516156849
 10
0.1094495647964582
 20
5.185173132232206
 10
0.1094495647964582
 20
5.294622697028664
 10
0.1094495647964582
 20
5.604729797285296
 10
0.0
 20
5.604729797285296
 10
0.0
 20
5.294622697028664
 10
0.0
 20
5.185173132232206
 10
0.0
 20
5.09396516156849
 10
0.0
 20
5.020998785037519
 10
0.0
 20
4.911549220241061
 10
0.0
 20
4.765616467179116
 10
0.0
 20
4.600530040277792
  0
LWPOLYLINE
  5
B8
100
AcDbEntity
  8
USP-GEO
100
AcDbPolyline
 90
        2
 70
   128
 43
0.0
 10
0.0
 20
2.464439367333584
 10
0.0
 20
0.8026301418406944
  0
LWPOLYLINE
  5
B9
100
AcDbEntity
  8
USP-GEO
100
AcDbPolyline
 90
        4
 70
   129
 43
0.0
 10
1.167462024495553
 20
1.715621928184482
 10
1.039770865566352
 20
1.84422516682032
 10
1.167462024495553
 20
1.971916325749521
 10
1.295153183424754
 20
1.84422516682032
  0
LWPOLYLINE
  5
BA
100
AcDbEntity
  8
USP-GEO
100
AcDbPolyline
 90
        4
 70
   129
 43
0.0
 10
1.295153183424754
 20
1.84422516682032
 10
1.167462024495553
 20
1.715621928184482
 10
1.039770865566352
 20
1.84422516682032
 10
1.167462024495553
 20
1.971916325749521
  0
LWPOLYLINE
  5
BB
100
AcDbEntity
  8
USP-GEO
100
AcDbPolyline
 90
        4
 70
   128
 43
0.0
 10
0.2006575354601736
 20
1.679138739918997
 10
0.23714072372566
 20
1.679138739918997
 10
0.2736239119911454
 20
1.642655551653509
 10
0.2736239119911454
 20
1.606172363388024
  0
LWPOLYLINE
  5
BC
100
AcDbEntity
  8
USP-GEO
100
AcDbPolyline
 90
        5
 70
   128
 43
0.0
 10
0.2736239119911454
 20
1.642655551653509
 10
0.2736239119911454
 20
1.606172363388024
 10
0.2736239119911454
 20
1.551447580989796
 10
0.23714072372566
 20
1.533205986857051
 10
0.2006575354601736
 20
1.514964392724309
  0
LWPOLYLINE
  5
BD
100
AcDbEntity
  8
USP-GEO
100
AcDbPolyline
 90
        6
 70
   128
 43
0.0
 10
0.1094495647964582
 20
0.8026301418406944
 10
0.0
 20
0.8026301418406944
 10
0.0
 20
0.766146953575209
 10
0.0
 20
0.7296637653097236
 10
0.0
 20
0.6931805770442346
 10
0.1094495647964582
 20
0.6931805770442346
  0
LWPOLYLINE
  5
BE
100
AcDbEntity
  8
USP-GEO
100
AcDbPolyline
 90
        2
 70
   129
 43
0.0
 10
0.1094495647964582
 20
1.514964392724309
 10
0.2006575354601736
 20
1.514964392724309
  0
LWPOLYLINE
  5
BF
100
AcDbEntity
  8
USP-GEO
100
AcDbPolyline
 90
        2
 70
   129
 43
0.0
 10
0.2006575354601736
 20
1.679138739918997
 10
0.1094495647964582
 20
1.679138739918997
  0
LWPOLYLINE
  5
C0
100
AcDbEntity
  8
USP-GEO
100
AcDbPolyline
 90
        3
 70
   128
 43
0.0
 10
0.23714072372566
 20
1.660897145786254
 10
0.23714072372566
 20
1.642655551653509
 10
0.2006575354601736
 20
1.642655551653509
  0
LWPOLYLINE
  5
C1
100
AcDbEntity
  8
USP-GEO
100
AcDbPolyline
 90
        2
 70
   129
 43
0.0
 10
0.1094495647964582
 20
1.642655551653509
 10
0.2006575354601736
 20
1.642655551653509
  0
LWPOLYLINE
  5
C2
100
AcDbEntity
  8
USP-GEO
100
AcDbPolyline
 90
       12
 70
   129
 43
0.0
 10
1.240428401026526
 20
0.9859581628747609
 10
1.112737242097325
 20
1.113649321803963
 10
1.076254053831838
 20
1.296065263131392
 10
1.112737242097325
 20
1.46023961032608
 10
1.240428401026526
 20
1.587930769255281
 10
1.405514827927849
 20
1.624413957520767
 10
1.58793076925528
 20
1.587930769255281
 10
1.697380334051739
 20
1.46023961032608
 10
1.752105116449967
 20
1.296065263131392
 10
1.697380334051739
 20
1.113649321803963
 10
1.58793076925528
 20
0.9859581628747609
 10
1.405514827927849
 20
0.9494749746092754
  0
LWPOLYLINE
  5
C3
100
AcDbEntity
  8
USP-GEO
100
AcDbPolyline
 90
        2
 70
   129
 43
0.0
 10
1.167462024495553
 20
1.788588304715455
 10
1.130978836230068
 20
1.752105116449968
  0
LWPOLYLINE
  5
C4
100
AcDbEntity
  8
USP-GEO
100
AcDbPolyline
 90
        2
 70
   129
 43
0.0
 10
1.185703618628296
 20
1.752105116449968
 10
1.167462024495553
 20
1.788588304715455
  0
LWPOLYLINE
  5
C5
100
AcDbEntity
  8
USP-GEO
100
AcDbPolyline
 90
       12
 70
   129
 43
0.0
 10
1.606172363388023
 20
1.296065263131392
 10
1.606172363388023
 20
1.241340480733164
 10
1.624413957520766
 20
1.223098886600421
 10
1.660897145786253
 20
1.204857292467677
 10
1.679138739918996
 20
1.223098886600421
 10
1.697380334051739
 20
1.241340480733164
 10
1.715621928184481
 20
1.296065263131392
 10
1.697380334051739
 20
1.332548451396879
 10
1.679138739918996
 20
1.350790045529622
 10
1.660897145786253
 20
1.369031639662365
 10
1.624413957520766
 20
1.350790045529622
 10
1.606172363388023
 20
1.332548451396879
  0
LWPOLYLINE
  5
C6
100
AcDbEntity
  8
USP-GEO
100
AcDbPolyline
 90
        4
 70
   128
 43
0.0
 10
1.624413957520766
 20
1.332548451396879
 10
1.642655551653509
 20
1.296065263131392
 10
1.624413957520766
 20
1.241340480733164
 10
1.625326037227403
 20
1.241340480733164
  0
LWPOLYLINE
  5
C7
100
AcDbEntity
  8
USP-GEO
100
AcDbPolyline
 90
        2
 70
   128
 43
0.0
 10
1.624413957520766
 20
1.241340480733164
 10
1.606172363388023
 20
1.241340480733164
  0
LWPOLYLINE
  5
C8
100
AcDbEntity
  8
USP-GEO
100
AcDbPolyline
 90
        4
 70
   128
 43
0.0
 10
0.0
 20
5.020998785037519
 10
0.0
 20
4.911549220241061
 10
0.0
 20
4.765616467179116
 10
0.0
 20
4.600530040277792
  0
LWPOLYLINE
  5
C9
100
AcDbEntity
  8
USP-GEO
100
AcDbPolyline
 90
       11
 70
   128
 43
0.0
 10
0.0
 20
5.294622697028664
 10
0.0
 20
5.604729797285296
 10
0.1094495647964582
 20
5.604729797285296
 10
1.606172363388023
 20
5.604729797285296
 10
1.606172363388023
 20
5.294622697028664
 10
1.624413957520766
 20
5.185173132232206
 10
1.679138739918996
 20
5.09396516156849
 10
1.752105116449967
 20
5.020998785037519
 10
1.879796275379169
 20
4.911549220241061
 10
1.95276265191014
 20
4.765616467179116
 10
1.989245840175628
 20
4.600530040277792
  0
LWPOLYLINE
  5
CA
100
AcDbEntity
  8
USP-GEO
100
AcDbPolyline
 90
       12
 70
   129
 43
0.0
 10
1.112737242097325
 20
4.838582843710089
 10
1.240428401026526
 20
4.966274002639289
 10
1.405514827927849
 20
5.002757190904777
 10
1.58793076925528
 20
4.966274002639289
 10
1.697380334051739
 20
4.838582843710089
 10
1.752105116449967
 20
4.673496416808765
 10
1.697380334051739
 20
4.491080475481334
 10
1.58793076925528
 20
4.363389316552133
 10
1.405514827927849
 20
4.326906128286648
 10
1.240428401026526
 20
4.363389316552133
 10
1.112737242097325
 20
4.491080475481334
 10
1.076254053831838
 20
4.673496416808765
  0
LWPOLYLINE
  5
CB
100
AcDbEntity
  8
USP-GEO
100
AcDbPolyline
 90
        6
 70
   128
 43
0.0
 10
0.1094495647964582
 20
3.816141492569842
 10
0.0
 20
3.816141492569842
 10
0.0
 20
3.322706371279144
 10
0.0
 20
2.866666517960567
 10
0.0
 20
2.464439367333584
 10
0.1094495647964582
 20
2.464439367333584
  0
LWPOLYLINE
  5
CC
100
AcDbEntity
  8
USP-GEO
100
AcDbPolyline
 90
        6
 70
   128
 43
0.0
 10
0.2006575354601736
 20
3.395672747810115
 10
0.23714072372566
 20
3.395672747810115
 10
0.2736239119911454
 20
3.432155936075602
 10
0.2736239119911454
 20
3.468639124341088
 10
0.2736239119911454
 20
3.523363906739316
 10
0.23714072372566
 20
3.559847095004803
  0
LWPOLYLINE
  5
CD
100
AcDbEntity
  8
USP-GEO
100
AcDbPolyline
 90
        4
 70
   128
 43
0.0
 10
0.2006575354601736
 20
3.450397530208345
 10
0.23714072372566
 20
3.468639124341088
 10
0.2736239119911454
 20
3.505122312606573
 10
0.2745359916977827
 20
3.505122312606573
  0
LWPOLYLINE
  5
CE
100
AcDbEntity
  8
USP-GEO
100
AcDbPolyline
 90
        3
 70
   128
 43
0.0
 10
0.1094495647964582
 20
4.600530040277792
 10
0.0
 20
4.600530040277792
 10
0.0
 20
3.816141492569842
  0
LWPOLYLINE
  5
CF
100
AcDbEntity
  8
USP-GEO
100
AcDbPolyline
 90
        2
 70
   129
 43
0.0
 10
0.1094495647964582
 20
3.395672747810115
 10
0.2006575354601736
 20
3.395672747810115
  0
LWPOLYLINE
  5
D0
100
AcDbEntity
  8
USP-GEO
100
AcDbPolyline
 90
        2
 70
   129
 43
0.0
 10
0.2006575354601736
 20
3.559847095004803
 10
0.1094495647964582
 20
3.559847095004803
  0
LWPOLYLINE
  5
D1
100
AcDbEntity
  8
USP-GEO
100
AcDbPolyline
 90
        2
 70
   129
 43
0.0
 10
0.23714072372566
 20
3.559847095004803
 10
0.2006575354601736
 20
3.559847095004803
  0
LWPOLYLINE
  5
D2
100
AcDbEntity
  8
USP-GEO
100
AcDbPolyline
 90
        2
 70
   129
 43
0.0
 10
0.1094495647964582
 20
3.450397530208345
 10
0.2006575354601736
 20
3.450397530208345
  0
LWPOLYLINE
  5
D3
100
AcDbEntity
  8
USP-GEO
100
AcDbPolyline
 90
        2
 70
   128
 43
0.0
 10
2.043970622573856
 20
3.322706371279144
 10
1.989245840175628
 20
3.816141492569842
  0
LWPOLYLINE
  5
D4
100
AcDbEntity
  8
USP-GEO
100
AcDbPolyline
 90
       12
 70
   129
 43
0.0
 10
1.076254053831838
 20
3.54160550087206
 10
1.112737242097325
 20
3.705779848066747
 10
1.240428401026526
 20
3.834383086702585
 10
1.405514827927849
 20
3.87086627496807
 10
1.58793076925528
 20
3.834383086702585
 10
1.697380334051739
 20
3.705779848066747
 10
1.752105116449967
 20
3.54160550087206
 10
1.697380334051739
 20
3.377431153677372
 10
1.58793076925528
 20
3.249739994748171
 10
1.405514827927849
 20
3.195015212349941
 10
1.240428401026526
 20
3.249739994748171
 10
1.112737242097325
 20
3.377431153677372
  0
LWPOLYLINE
  5
D5
100
AcDbEntity
  8
USP-GEO
100
AcDbPolyline
 90
       12
 70
   129
 43
0.0
 10
1.405514827927849
 20
2.081365890545979
 10
1.240428401026526
 20
2.117849078811467
 10
1.112737242097325
 20
2.245540237740668
 10
1.076254053831838
 20
2.409714584935354
 10
1.112737242097325
 20
2.592130526262785
 10
1.240428401026526
 20
2.701580091059243
 10
1.405514827927849
 20
2.756304873457473
 10
1.58793076925528
 20
2.701580091059243
 10
1.697380334051739
 20
2.592130526262785
 10
1.752105116449967
 20
2.409714584935354
 10
1.697380334051739
 20
2.245540237740668
 10
1.58793076925528
 20
2.117849078811467
  0
LWPOLYLINE
  5
D6
100
AcDbEntity
  8
USP-GEO
100
AcDbPolyline
 90
       12
 70
   129
 43
0.0
 10
1.606172363388023
 20
2.446197773200841
 10
1.606172363388023
 20
2.409714584935354
 10
1.606172363388023
 20
2.373231396669869
 10
1.624413957520766
 20
2.354989802537126
 10
1.660897145786253
 20
2.336748208404383
 10
1.679138739918996
 20
2.354989802537126
 10
1.697380334051739
 20
2.373231396669869
 10
1.715621928184481
 20
2.409714584935354
 10
1.697380334051739
 20
2.446197773200841
 10
1.679138739918996
 20
2.482680961466327
 10
1.660897145786253
 20
2.500922555599069
 10
1.624413957520766
 20
2.482680961466327
  0
LWPOLYLINE
  5
D7
100
AcDbEntity
  8
USP-GEO
100
AcDbPolyline
 90
        6
 70
   128
 43
0.0
 10
1.624413957520766
 20
2.464439367333584
 10
1.624413957520766
 20
2.446197773200841
 10
1.642655551653509
 20
2.409714584935354
 10
1.624413957520766
 20
2.373231396669869
 10
1.624413957520766
 20
2.354989802537126
 10
1.606172363388023
 20
2.354989802537126
  0
LWPOLYLINE
  5
D8
100
AcDbEntity
  8
USP-GEO
100
AcDbPolyline
 90
        2
 70
   129
 43
0.0
 10
1.989245840175628
 20
4.600530040277792
 10
1.989245840175628
 20
3.816141492569842
  0
LWPOLYLINE
  5
D9
100
AcDbEntity
  8
USP-GEO
100
AcDbPolyline
 90
       12
 70
   129
 43
0.0
 10
1.606172363388023
 20
3.54160550087206
 10
1.606172363388023
 20
3.505122312606573
 10
1.624413957520766
 20
3.468639124341088
 10
1.660897145786253
 20
3.468639124341088
 10
1.679138739918996
 20
3.468639124341088
 10
1.697380334051739
 20
3.505122312606573
 10
1.715621928184481
 20
3.54160550087206
 10
1.697380334051739
 20
3.578088689137546
 10
1.679138739918996
 20
3.614571877403031
 10
1.660897145786253
 20
3.614571877403031
 10
1.624413957520766
 20
3.614571877403031
 10
1.606172363388023
 20
3.578088689137546
  0
LWPOLYLINE
  5
DA
100
AcDbEntity
  8
USP-GEO
100
AcDbPolyline
 90
        6
 70
   128
 43
0.0
 10
1.624413957520766
 20
3.596330283270289
 10
1.624413957520766
 20
3.578088689137546
 10
1.642655551653509
 20
3.54160550087206
 10
1.624413957520766
 20
3.505122312606573
 10
1.624413957520766
 20
3.48688071847383
 10
1.625326037227403
 20
3.48688071847383
  0
LWPOLYLINE
  5
DB
100
AcDbEntity
  8
USP-GEO
100
AcDbPolyline
 90
       12
 70
   129
 43
0.0
 10
1.606172363388023
 20
4.618771634410535
 10
1.606172363388023
 20
4.673496416808765
 10
1.606172363388023
 20
4.70997960507425
 10
1.624413957520766
 20
4.72913327891363
 10
1.660897145786253
 20
4.747374873046373
 10
1.679138739918996
 20
4.72913327891363
 10
1.697380334051739
 20
4.70997960507425
 10
1.715621928184481
 20
4.673496416808765
 10
1.697380334051739
 20
4.618771634410535
 10
1.679138739918996
 20
4.600530040277792
 10
1.660897145786253
 20
4.582288446145049
 10
1.624413957520766
 20
4.600530040277792
  0
LWPOLYLINE
  5
DC
100
AcDbEntity
  8
USP-GEO
100
AcDbPolyline
 90
        2
 70
   129
 43
0.0
 10
1.625326037227403
 20
4.618771634410535
 10
1.624413957520766
 20
4.618771634410535
  0
LWPOLYLINE
  5
DD
100
AcDbEntity
  8
USP-GEO
100
AcDbPolyline
 90
        3
 70
   128
 43
0.0
 10
1.624413957520766
 20
4.618771634410535
 10
1.642655551653509
 20
4.673496416808765
 10
1.624413957520766
 20
4.70997960507425
  0
LWPOLYLINE
  5
DE
100
AcDbEntity
  8
USP-GEO
100
AcDbPolyline
 90
        4
 70
   129
 43
0.0
 10
1.112737242097325
 20
4.984515596772032
 10
0.9850460831681244
 20
4.856824437842831
 10
0.8573549242389226
 20
4.984515596772032
 10
0.9850460831681244
 20
5.112206755701235
  0
LWPOLYLINE
  5
DF
100
AcDbEntity
  8
USP-GEO
100
AcDbPolyline
 90
        4
 70
   129
 43
0.0
 10
0.9850460831681244
 20
4.856824437842831
 10
0.8573549242389226
 20
4.984515596772032
 10
0.9850460831681244
 20
5.112206755701235
 10
1.112737242097325
 20
4.984515596772032
  0
LWPOLYLINE
  5
E0
100
AcDbEntity
  8
USP-GEO
100
AcDbPolyline
 90
        7
 70
   128
 43
0.0
 10
0.2006575354601736
 20
5.14868994396672
 10
0.23714072372566
 20
5.14868994396672
 10
0.2736239119911454
 20
5.185173132232206
 10
0.2736239119911454
 20
5.221656320497693
 10
0.2736239119911454
 20
5.276381102895921
 10
0.23714072372566
 20
5.312864291161407
 10
0.2006575354601736
 20
5.312864291161407
  0
LWPOLYLINE
  5
E1
100
AcDbEntity
  8
USP-GEO
100
AcDbPolyline
 90
        4
 70
   128
 43
0.0
 10
0.2736239119911454
 20
5.258139508763179
 10
0.2736239119911454
 20
5.239897914630436
 10
0.23714072372566
 20
5.221656320497693
 10
0.2006575354601736
 20
5.203414726364949
  0
LWPOLYLINE
  5
E2
100
AcDbEntity
  8
USP-GEO
100
AcDbPolyline
 90
        6
 70
   128
 43
0.0
 10
0.1094495647964582
 20
5.294622697028664
 10
0.0
 20
5.294622697028664
 10
0.0
 20
5.185173132232206
 10
0.0
 20
5.09396516156849
 10
0.0
 20
5.020998785037519
 10
0.1094495647964582
 20
5.020998785037519
  0
LWPOLYLINE
  5
E3
100
AcDbEntity
  8
USP-GEO
100
AcDbPolyline
 90
        2
 70
   129
 43
0.0
 10
0.1094495647964582
 20
5.14868994396672
 10
0.2006575354601736
 20
5.14868994396672
  0
LWPOLYLINE
  5
E4
100
AcDbEntity
  8
USP-GEO
100
AcDbPolyline
 90
        2
 70
   129
 43
0.0
 10
0.2006575354601736
 20
5.312864291161407
 10
0.1094495647964582
 20
5.312864291161407
  0
LWPOLYLINE
  5
E5
100
AcDbEntity
  8
USP-GEO
100
AcDbPolyline
 90
        2
 70
   129
 43
0.0
 10
0.1094495647964582
 20
5.203414726364949
 10
0.2006575354601736
 20
5.203414726364949
  0
LWPOLYLINE
  5
E6
100
AcDbEntity
  8
USP-GEO
100
AcDbPolyline
 90
        2
 70
   129
 43
0.0
 10
1.021529271433609
 20
4.893307626108319
 10
0.9850460831681244
 20
4.911549220241061
  0
LWPOLYLINE
  5
E7
100
AcDbEntity
  8
USP-GEO
100
AcDbPolyline
 90
        2
 70
   129
 43
0.0
 10
0.9850460831681244
 20
4.911549220241061
 10
0.9485628949026381
 20
4.893307626108319
  0
LWPOLYLINE
  5
E8
100
AcDbEntity
  8
USP-GEO
100
AcDbPolyline
 90
        2
 70
   129
 43
0.0
 10
2.500010475892431
 20
2.464439367333584
 10
4.033216462749483
 20
0.8026301418406944
  0
LWPOLYLINE
  5
E9
100
AcDbEntity
  8
USP-GEO
100
AcDbPolyline
 90
        4
 70
   128
 43
0.0
 10
4.033216462749483
 20
0.8026301418406944
 10
4.142666027545941
 20
0.6384557946460064
 10
4.215632404076914
 20
0.4742814474513182
 10
4.233873998209657
 20
0.2736239119911481
  0
LWPOLYLINE
  5
EA
100
AcDbEntity
  8
USP-GEO
100
AcDbPolyline
 90
        2
 70
   129
 43
0.0
 10
4.233873998209657
 20
0.2736239119911481
 10
4.233873998209657
 20
0.0
  0
ENDBLK
  5
EC
100
AcDbEntity
  8
0
100
AcDbBlockEnd
  0
ENDSEC
  0
SECTION
  2
ENTITIES
  0
INSERT
  5
3
100
AcDbEntity
  8
USP
100
AcDbBlockReference
  2
THDH26-2_T
 10
8.066731617499243
 20
14.05929536635091
 30
0.0
  0
INSERT
  5
35
100
AcDbEntity
  8
USP
100
AcDbBlockReference
  2
THDH26-2_F
 10
8.066731617499243
 20
1.515463160970167
 30
0.0
  0
INSERT
  5
B0
100
AcDbEntity
  8
USP
100
AcDbBlockReference
  2
THDH26-2_S
 10
0.9123783986374283
 20
1.515463160970167
 30
0.0
  0
ENDSEC
  0
SECTION
  2
OBJECTS
  0
DICTIONARY
  5
105
102
{ACAD_XDICTIONARY
360
106
102
}
100
AcDbDictionary
  3
ACAD_GROUP
350
103
  3
ACAD_MLINESTYLE
350
104
  0
DICTIONARY
  5
9
100
AcDbDictionary
280
     1
  3
ACAD_XREC_ROUNDTRIP
360
A
  0
DICTIONARY
  5
10
100
AcDbDictionary
280
     1
  3
ACAD_XREC_ROUNDTRIP
360
11
  0
DICTIONARY
  5
ED
100
AcDbDictionary
280
     1
  3
ACAD_LAYOUTSELFREF
360
EE
  0
DICTIONARY
  5
F2
100
AcDbDictionary
280
     1
  3
ACAD_LAYOUTSELFREF
360
F3
  0
DICTIONARY
  5
106
100
AcDbDictionary
280
     1
  3
ACAD_XREC_ROUNDTRIP
360
107
  0
DICTIONARY
  5
103
102
{ACAD_REACTORS
330
105
102
}
100
AcDbDictionary
  0
DICTIONARY
  5
104
102
{ACAD_REACTORS
330
105
102
}
100
AcDbDictionary
  3
STANDARD
350
108
  0
XRECORD
  5
A
102
{ACAD_REACTORS
330
9
102
}
100
AcDbXrecord
102
EXTNAMES
  1
USP-GEO
  2
USP-Geo
  0
XRECORD
  5
11
102
{ACAD_REACTORS
330
10
102
}
100
AcDbXrecord
102
EXTNAMES
  1
USP-TXT
  2
USP-Txt
  0
XRECORD
  5
EE
102
{ACAD_REACTORS
330
ED
102
}
100
AcDbXrecord
340
18
  0
XRECORD
  5
F3
102
{ACAD_REACTORS
330
F2
102
}
100
AcDbXrecord
340
15
  0
XRECORD
  5
107
102
{ACAD_REACTORS
330
106
102
}
100
AcDbXrecord
102
EXTNAMES
  1
ACDBVARIABLEDICTIONARY
  2
AcDbVariableDictionary
  0
MLINESTYLE
  5
108
102
{ACAD_REACTORS
330
104
102
}
100
AcDbMlineStyle
  2
STANDARD
 70
     0
  3

 62
     0
 51
90.0
 52
90.0
 71
     2
 49
0.5
 62
   256
  6
BYLAYER
 49
-0.5
 62
   256
  6
BYLAYER
  0
ENDSEC
  0
EOF
