  0
SECTION
  2
HEADER
  9
$ACADVER
  1
AC1014
  9
$ACADMAINTVER
 70
     9
  9
$DWGCODEPAGE
  3
ANSI_1252
  9
$INSBASE
 10
0.0
 20
0.0
 30
0.0
  9
$EXTMIN
 10
0.002690052372202
 20
0.0007122059627207
 30
0.0
  9
$EXTMAX
 10
23.78451938208604
 20
22.11035676705904
 30
0.0
  9
$LIMMIN
 10
0.0
 20
0.0
  9
$LIMMAX
 10
12.0
 20
9.0
  9
$ORTHOMODE
 70
     0
  9
$REGENMODE
 70
     1
  9
$FILLMODE
 70
     1
  9
$QTEXTMODE
 70
     0
  9
$MIRRTEXT
 70
     0
  9
$DRAGMODE
 70
     2
  9
$LTSCALE
 40
1.5
  9
$OSMODE
 70
    37
  9
$ATTMODE
 70
     1
  9
$TEXTSIZE
 40
0.5
  9
$TRACEWID
 40
0.05
  9
$TEXTSTYLE
  7
STANDARD
  9
$CLAYER
  8
0
  9
$CELTYPE
  6
BYLAYER
  9
$CECOLOR
 62
   256
  9
$CELTSCALE
 40
1.0
  9
$DELOBJ
 70
     1
  9
$DISPSILH
 70
     1
  9
$DIMSCALE
 40
6.0
  9
$DIMASZ
 40
0.125
  9
$DIMEXO
 40
0.0625
  9
$DIMDLI
 40
0.37890625
  9
$DIMRND
 40
0.0
  9
$DIMDLE
 40
0.0
  9
$DIMEXE
 40
0.09375
  9
$DIMTP
 40
0.0
  9
$DIMTM
 40
0.0
  9
$DIMTXT
 40
0.109375
  9
$DIMCEN
 40
0.0
  9
$DIMTSZ
 40
0.0
  9
$DIMTOL
 70
     0
  9
$DIMLIM
 70
     0
  9
$DIMTIH
 70
     1
  9
$DIMTOH
 70
     1
  9
$DIMSE1
 70
     0
  9
$DIMSE2
 70
     0
  9
$DIMTAD
 70
     0
  9
$DIMZIN
 70
     8
  9
$DIMBLK
  1

  9
$DIMASO
 70
     1
  9
$DIMSHO
 70
     1
  9
$DIMPOST
  1

  9
$DIMAPOST
  1

  9
$DIMALT
 70
     0
  9
$DIMALTD
 70
     2
  9
$DIMALTF
 40
25.4
  9
$DIMLFAC
 40
1.0
  9
$DIMTOFL
 70
     0
  9
$DIMTVP
 40
0.0
  9
$DIMTIX
 70
     0
  9
$DIMSOXD
 70
     0
  9
$DIMSAH
 70
     0
  9
$DIMBLK1
  1

  9
$DIMBLK2
  1

  9
$DIMSTYLE
  2
STANDARD
  9
$DIMCLRD
 70
     0
  9
$DIMCLRE
 70
     0
  9
$DIMCLRT
 70
   256
  9
$DIMTFAC
 40
1.0
  9
$DIMGAP
 40
0.08984375
  9
$DIMJUST
 70
     0
  9
$DIMSD1
 70
     0
  9
$DIMSD2
 70
     0
  9
$DIMTOLJ
 70
     1
  9
$DIMTZIN
 70
     0
  9
$DIMALTZ
 70
     0
  9
$DIMALTTZ
 70
     0
  9
$DIMFIT
 70
     3
  9
$DIMUPT
 70
     1
  9
$DIMUNIT
 70
     7
  9
$DIMDEC
 70
     4
  9
$DIMTDEC
 70
     4
  9
$DIMALTU
 70
     2
  9
$DIMALTTD
 70
     2
  9
$DIMTXSTY
  7
STANDARD
  9
$DIMAUNIT
 70
     0
  9
$LUNITS
 70
     5
  9
$LUPREC
 70
     6
  9
$SKETCHINC
 40
0.1
  9
$FILLETRAD
 40
0.0
  9
$AUNITS
 70
     0
  9
$AUPREC
 70
     1
  9
$MENU
  1
CUSTOM
  9
$ELEVATION
 40
0.0
  9
$PELEVATION
 40
0.0
  9
$THICKNESS
 40
0.0
  9
$LIMCHECK
 70
     0
  9
$BLIPMODE
 70
     0
  9
$CHAMFERA
 40
0.0
  9
$CHAMFERB
 40
0.0
  9
$CHAMFERC
 40
0.0
  9
$CHAMFERD
 40
0.0
  9
$SKPOLY
 70
     0
  9
$TDCREATE
 40
2451263.663231366
  9
$TDUPDATE
 40
2452759.747288946
  9
$TDINDWG
 40
0.1211184259
  9
$TDUSRTIMER
 40
0.1211184259
  9
$USRTIMER
 70
     1
  9
$ANGBASE
 50
0.0
  9
$ANGDIR
 70
     0
  9
$PDMODE
 70
     0
  9
$PDSIZE
 40
0.0
  9
$PLINEWID
 40
0.0
  9
$COORDS
 70
     1
  9
$SPLFRAME
 70
     0
  9
$SPLINETYPE
 70
     6
  9
$SPLINESEGS
 70
     8
  9
$ATTDIA
 70
     0
  9
$ATTREQ
 70
     1
  9
$HANDLING
 70
     1
  9
$HANDSEED
  5
ED
  9
$SURFTAB1
 70
     6
  9
$SURFTAB2
 70
     6
  9
$SURFTYPE
 70
     6
  9
$SURFU
 70
     6
  9
$SURFV
 70
     6
  9
$UCSNAME
  2

  9
$UCSORG
 10
0.0
 20
0.0
 30
0.0
  9
$UCSXDIR
 10
1.0
 20
0.0
 30
0.0
  9
$UCSYDIR
 10
0.0
 20
1.0
 30
0.0
  9
$PUCSNAME
  2

  9
$PUCSORG
 10
0.0
 20
0.0
 30
0.0
  9
$PUCSXDIR
 10
1.0
 20
0.0
 30
0.0
  9
$PUCSYDIR
 10
0.0
 20
1.0
 30
0.0
  9
$USERI1
 70
     0
  9
$USERI2
 70
     0
  9
$USERI3
 70
     0
  9
$USERI4
 70
     0
  9
$USERI5
 70
     0
  9
$USERR1
 40
0.0
  9
$USERR2
 40
0.0
  9
$USERR3
 40
0.0
  9
$USERR4
 40
0.0
  9
$USERR5
 40
0.0
  9
$WORLDVIEW
 70
     1
  9
$SHADEDGE
 70
     3
  9
$SHADEDIF
 70
    70
  9
$TILEMODE
 70
     1
  9
$MAXACTVP
 70
    16
  9
$PINSBASE
 10
0.0
 20
0.0
 30
0.0
  9
$PLIMCHECK
 70
     0
  9
$PEXTMIN
 10
1.052083323321005
 20
0.7937500251559762
 30
0.0
  9
$PEXTMAX
 10
9.468749909889039
 20
7.143750226403783
 30
0.0
  9
$PLIMMIN
 10
-0.2145830289585384
 20
-0.2812499887361301
  9
$PLIMMAX
 10
10.78541673074557
 20
8.218749770967978
  9
$UNITMODE
 70
     0
  9
$VISRETAIN
 70
     0
  9
$PLINEGEN
 70
     0
  9
$PSLTSCALE
 70
     0
  9
$TREEDEPTH
 70
  3020
  9
$PICKSTYLE
 70
     1
  9
$CMLSTYLE
  2
STANDARD
  9
$CMLJUST
 70
     0
  9
$CMLSCALE
 40
1.0
  9
$PROXYGRAPHICS
 70
     1
  9
$MEASUREMENT
 70
     0
  0
ENDSEC
  0
SECTION
  2
CLASSES
  0
CLASS
  1
ACDBDICTIONARYWDFLT
  2
AcDbDictionaryWithDefault
  3
AutoCAD 2000
 90
        0
280
     0
281
     0
  0
CLASS
  1
ACDBPLACEHOLDER
  2
AcDbPlaceHolder
  3
AutoCAD 2000
 90
        0
280
     0
281
     0
  0
CLASS
  1
LAYOUT
  2
AcDbLayout
  3
AutoCAD 2000
 90
        0
280
     0
281
     0
  0
CLASS
  1
DICTIONARYVAR
  2
AcDbDictionaryVar
  3
"AutoCAD"
 90
        0
280
     0
281
     0
  0
CLASS
  1
LONG_TRANSACTION
  2
AcDbLongTransaction
  3
AutoCAD 2000
 90
        0
280
     0
281
     0
  0
CLASS
  1
LWPOLYLINE
  2
AcDbPolyline
  3
"AutoCAD"
 90
        0
280
     0
281
     1
  0
CLASS
  1
HATCH
  2
AcDbHatch
  3
"ACAD_SEDONA"
 90
        0
280
     0
281
     1
  0
CLASS
  1
XRECORD
  2
AcDbXrecord
  3
"<Built In>"
 90
        0
280
     0
281
     0
  0
CLASS
  1
LONG_TRANSACTION
  2
AcDbLongTransaction
  3
AutoCAD 2000
 90
        0
280
     0
281
     0
  0
CLASS
  1
LWPOLYLINE
  2
AcDbPolyline
  3
"AutoCAD"
 90
        0
280
     0
281
     1
  0
CLASS
  1
HATCH
  2
AcDbHatch
  3
"ACAD_SEDONA"
 90
        0
280
     0
281
     1
  0
CLASS
  1
XRECORD
  2
AcDbXrecord
  3
"<Built In>"
 90
        0
280
     0
281
     0
  0
ENDSEC
  0
SECTION
  2
TABLES
  0
TABLE
  2
VPORT
  5
CF
100
AcDbSymbolTable
 70
     1
  0
VPORT
  5
E9
100
AcDbSymbolTableRecord
100
AcDbViewportTableRecord
  2
*ACTIVE
 70
     0
 10
0.0
 20
0.0
 11
1.0
 21
1.0
 12
-11.20250068503894
 22
21.59843527080885
 13
0.0
 23
0.0
 14
1.0
 24
1.0
 15
0.0
 25
0.0
 16
0.0
 26
0.0
 36
1.0
 17
23.09603071721725
 27
-10.27010416511325
 37
-10.44050274849355
 40
22.81817320716587
 41
1.457627118644067
 42
50.0
 43
10.55307667737539
 44
10.55307667737539
 50
0.0
 51
0.0
 71
     0
 72
   100
 73
     1
 74
     1
 75
     0
 76
     0
 77
     0
 78
     0
  0
ENDTAB
  0
TABLE
  2
LTYPE
  5
CA
100
AcDbSymbolTable
 70
     2
  0
LTYPE
  5
CB
100
AcDbSymbolTableRecord
100
AcDbLinetypeTableRecord
  2
BYBLOCK
 70
     0
  3

 72
    65
 73
     0
 40
0.0
  0
LTYPE
  5
CC
100
AcDbSymbolTableRecord
100
AcDbLinetypeTableRecord
  2
BYLAYER
 70
     0
  3

 72
    65
 73
     0
 40
0.0
  0
LTYPE
  5
5
100
AcDbSymbolTableRecord
100
AcDbLinetypeTableRecord
  2
CONTINUOUS
 70
     0
  3
Solid line
 72
    65
 73
     0
 40
0.0
  0
LTYPE
  5
9B
100
AcDbSymbolTableRecord
100
AcDbLinetypeTableRecord
  2
HIDDEN
 70
     0
  3
Hidden __ __ __ __ __ __ __ __ __ __ __ __ __ _
 72
    65
 73
     2
 40
0.375
 49
0.25
 74
     0
 49
-0.125
 74
     0
  0
ENDTAB
  0
TABLE
  2
LAYER
  5
C8
100
AcDbSymbolTable
 70
     5
  0
LAYER
  5
78
100
AcDbSymbolTableRecord
100
AcDbLayerTableRecord
  2
0
 70
     0
 62
     7
  6
CONTINUOUS
  0
LAYER
  5
8
100
AcDbSymbolTableRecord
100
AcDbLayerTableRecord
  2
USP-GEO
 70
     0
 62
     7
  6
CONTINUOUS
  0
LAYER
  5
11
100
AcDbSymbolTableRecord
100
AcDbLayerTableRecord
  2
USP-TXT
 70
     0
 62
     7
  6
CONTINUOUS
  0
LAYER
  5
9A
100
AcDbSymbolTableRecord
100
AcDbLayerTableRecord
  2
USP-HID
 70
     0
 62
     7
  6
HIDDEN
  0
LAYER
  5
4
100
AcDbSymbolTableRecord
100
AcDbLayerTableRecord
  2
USP
 70
     0
 62
     7
  6
CONTINUOUS
  0
ENDTAB
  0
TABLE
  2
STYLE
  5
C9
100
AcDbSymbolTable
 70
     1
  0
STYLE
  5
12
100
AcDbSymbolTableRecord
100
AcDbTextStyleTableRecord
  2
STANDARD
 70
     0
 40
0.0
 41
1.0
 50
0.0
 71
     0
 42
0.5
  3
txt
  4

  0
ENDTAB
  0
TABLE
  2
VIEW
  5
CD
100
AcDbSymbolTable
 70
     0
  0
ENDTAB
  0
TABLE
  2
UCS
  5
CE
100
AcDbSymbolTable
 70
     0
  0
ENDTAB
  0
TABLE
  2
APPID
  5
D1
100
AcDbSymbolTable
 70
     1
  0
APPID
  5
C3
100
AcDbSymbolTableRecord
100
AcDbRegAppTableRecord
  2
ACAD
 70
     0
  0
ENDTAB
  0
TABLE
  2
DIMSTYLE
  5
D2
100
AcDbSymbolTable
 70
     1
  0
DIMSTYLE
105
DA
100
AcDbSymbolTableRecord
100
AcDbDimStyleTableRecord
  2
STANDARD
 70
     0
  3

  4

  5

  6

  7

 40
1.0
 41
0.18
 42
0.0625
 43
0.38
 44
0.18
 45
0.0
 46
0.0
 47
0.0
 48
0.0
140
0.18
141
0.09
142
0.0
143
25.4
144
1.0
145
0.0
146
1.0
147
0.09
 71
     0
 72
     0
 73
     1
 74
     1
 75
     0
 76
     0
 77
     0
 78
     0
170
     0
171
     2
172
     0
173
     0
174
     0
175
     0
176
     0
177
     0
178
     0
270
     2
271
     4
272
     4
273
     2
274
     2
340
12
275
     0
280
     0
281
     0
282
     0
283
     1
284
     0
285
     0
286
     0
287
     3
288
     0
  0
ENDTAB
  0
TABLE
  2
BLOCK_RECORD
  5
1
100
AcDbSymbolTable
 70
     3
  0
BLOCK_RECORD
  5
2
102
{ACAD_XDICTIONARY
360
BA
102
}
100
AcDbSymbolTableRecord
100
AcDbBlockTableRecord
  2
*MODEL_SPACE
  0
BLOCK_RECORD
  5
BE
102
{ACAD_XDICTIONARY
360
C4
102
}
100
AcDbSymbolTableRecord
100
AcDbBlockTableRecord
  2
*PAPER_SPACE
  0
BLOCK_RECORD
  5
6
100
AcDbSymbolTableRecord
100
AcDbBlockTableRecord
  2
THDH210-3_F
  0
BLOCK_RECORD
  5
7B
100
AcDbSymbolTableRecord
100
AcDbBlockTableRecord
  2
THDH210-3_T
  0
BLOCK_RECORD
  5
94
100
AcDbSymbolTableRecord
100
AcDbBlockTableRecord
  2
THDH210-3_S
  0
ENDTAB
  0
ENDSEC
  0
SECTION
  2
BLOCKS
  0
BLOCK
  5
BC
100
AcDbEntity
  8
0
100
AcDbBlockBegin
  2
*MODEL_SPACE
 70
     0
 10
0.0
 20
0.0
 30
0.0
  3
*MODEL_SPACE
  1

  0
ENDBLK
  5
BD
100
AcDbEntity
  8
0
100
AcDbBlockEnd
  0
BLOCK
  5
C6
100
AcDbEntity
 67
     1
  8
0
100
AcDbBlockBegin
  2
*PAPER_SPACE
 70
     0
 10
0.0
 20
0.0
 30
0.0
  3
*PAPER_SPACE
  1

  0
ENDBLK
  5
C7
100
AcDbEntity
 67
     1
  8
0
100
AcDbBlockEnd
  0
BLOCK
  5
77
100
AcDbEntity
  8
0
100
AcDbBlockBegin
  2
THDH210-3_F
 70
     0
 10
0.0
 20
0.0
 30
0.0
  3
THDH210-3_F
  1

  0
LINE
  5
7
100
AcDbEntity
  8
USP-GEO
100
AcDbLine
 10
7.729599999999987
 20
0.1045999999999942
 30
0.0
 11
7.729599999999996
 21
9.229599999999994
 31
0.0
  0
LINE
  5
9
100
AcDbEntity
  8
USP-GEO
100
AcDbLine
 10
7.834199999999988
 20
-0.0000000000000053
 30
0.0
 11
7.834199999999999
 21
9.229599999999996
 31
0.0
  0
LINE
  5
A
100
AcDbEntity
  8
USP-GEO
100
AcDbLine
 10
10.3342
 20
9.229599999999992
 30
0.0
 11
10.33419999999999
 21
2.129813240271463
 31
0.0
  0
LINE
  5
B
100
AcDbEntity
  8
USP-GEO
100
AcDbLine
 10
0.0
 20
2.129813240271474
 30
0.0
 11
0.0000000000000058
 21
9.229600000000003
 31
0.0
  0
LINE
  5
C
100
AcDbEntity
  8
USP-GEO
100
AcDbLine
 10
2.499999999999999
 20
9.229599999999997
 30
0.0
 11
2.499999999999989
 21
-0.0000000000000004
 31
0.0
  0
LINE
  5
D
100
AcDbEntity
  8
USP-GEO
100
AcDbLine
 10
2.604599999999999
 20
9.229599999999997
 30
0.0
 11
2.604599999999989
 21
0.1045999999999991
 31
0.0
  0
LINE
  5
E
100
AcDbEntity
  8
USP-GEO
100
AcDbLine
 10
2.49999999999999
 20
-0.0000000000000009
 30
0.0
 11
7.834199999999988
 21
-0.0000000000000058
 31
0.0
  0
LINE
  5
F
100
AcDbEntity
  8
USP-GEO
100
AcDbLine
 10
2.60459999999999
 20
0.1045999999999996
 30
0.0
 11
7.729599999999987
 21
0.1045999999999947
 31
0.0
  0
TEXT
  5
10
100
AcDbEntity
  8
USP-TXT
100
AcDbText
 10
-0.2479816186661505
 20
-2.696783769416417
 30
0.0
 40
0.5
  1
THDH210-3 - FRONT VIEW
 72
     1
 11
5.127018381333847
 21
-2.696783769416417
 31
0.0
100
AcDbText
  0
ARC
  5
13
100
AcDbEntity
  8
USP-GEO
100
AcDbCircle
 10
2.604599999999995
 20
1.104599999999999
 30
0.0
 40
0.3796
100
AcDbArc
 50
105.994984804125
 51
254.0050151958747
  0
LINE
  5
14
100
AcDbEntity
  8
USP-GEO
100
AcDbLine
 10
2.499999999999996
 20
0.6864375672974057
 30
0.0
 11
-0.0000000000000004
 21
2.129813240271473
 31
0.0
  0
ELLIPSE
  5
15
100
AcDbEntity
  8
USP-GEO
100
AcDbEllipse
 10
2.419898890095372
 20
1.1046
 30
0.0
 11
0.0000000000000001
 21
0.086
 31
0.0
210
0.0
220
0.0
230
1.0
 40
0.7071067811865467
 41
1.570796326794897
 42
2.458818297950581
  0
ELLIPSE
  5
16
100
AcDbEntity
  8
USP-GEO
100
AcDbEllipse
 10
2.419898890095372
 20
1.1046
 30
0.0
 11
0.0000000000000001
 21
0.086
 31
0.0
210
0.0
220
0.0
230
1.0
 40
0.7071067811865467
 41
0.6827743556392188
 42
1.570796326794912
  0
ELLIPSE
  5
17
100
AcDbEntity
  8
USP-GEO
100
AcDbEllipse
 10
2.343161517752258
 20
1.104599999999999
 30
0.0
 11
-0.0000000000000001
 21
-0.086
 31
0.0
210
0.0
220
0.0
230
1.0
 40
0.7071067811865465
 41
0.0
 42
6.283185307179586
  0
CIRCLE
  5
18
100
AcDbEntity
  8
USP-GEO
100
AcDbCircle
 10
1.375000000000003
 20
4.979600000000004
 30
0.0
 40
0.086
  0
ELLIPSE
  5
19
100
AcDbEntity
  8
USP-GEO
100
AcDbEllipse
 10
2.343161517752262
 20
4.854599999999999
 30
0.0
 11
-0.0000000000000001
 21
-0.086
 31
0.0
210
0.0
220
0.0
230
1.0
 40
0.7071067811865465
 41
0.0
 42
6.283185307179586
  0
ARC
  5
1A
100
AcDbEntity
  8
USP-GEO
100
AcDbCircle
 10
2.604599999999999
 20
4.854599999999999
 30
0.0
 40
0.3796
100
AcDbArc
 50
105.9949848041251
 51
254.0050151958747
  0
CIRCLE
  5
1B
100
AcDbEntity
  8
USP-GEO
100
AcDbCircle
 10
0.3750000000000027
 20
4.979600000000006
 30
0.0
 40
0.086
  0
CIRCLE
  5
1C
100
AcDbEntity
  8
USP-GEO
100
AcDbCircle
 10
1.875000000000001
 20
3.104600000000004
 30
0.0
 40
0.086
  0
CIRCLE
  5
1D
100
AcDbEntity
  8
USP-GEO
100
AcDbCircle
 10
0.875000000000001
 20
3.104600000000005
 30
0.0
 40
0.086
  0
CIRCLE
  5
1E
100
AcDbEntity
  8
USP-GEO
100
AcDbCircle
 10
0.375
 20
2.479600000000004
 30
0.0
 40
0.086
  0
CIRCLE
  5
1F
100
AcDbEntity
  8
USP-GEO
100
AcDbCircle
 10
1.875
 20
1.854600000000002
 30
0.0
 40
0.086
  0
CIRCLE
  5
20
100
AcDbEntity
  8
USP-GEO
100
AcDbCircle
 10
1.375
 20
2.479600000000004
 30
0.0
 40
0.086
  0
CIRCLE
  5
21
100
AcDbEntity
  8
USP-GEO
100
AcDbCircle
 10
0.3750000000000009
 20
3.729600000000004
 30
0.0
 40
0.086
  0
CIRCLE
  5
22
100
AcDbEntity
  8
USP-GEO
100
AcDbCircle
 10
0.875000000000001
 20
4.354600000000004
 30
0.0
 40
0.086
  0
CIRCLE
  5
23
100
AcDbEntity
  8
USP-GEO
100
AcDbCircle
 10
1.375
 20
3.729600000000002
 30
0.0
 40
0.086
  0
CIRCLE
  5
24
100
AcDbEntity
  8
USP-GEO
100
AcDbCircle
 10
1.875000000000002
 20
4.354600000000003
 30
0.0
 40
0.086
  0
ARC
  5
25
100
AcDbEntity
  8
USP-GEO
100
AcDbCircle
 10
2.604599999999996
 20
2.354599999999999
 30
0.0
 40
0.3796
100
AcDbArc
 50
105.9949848041251
 51
254.0050151958746
  0
ELLIPSE
  5
26
100
AcDbEntity
  8
USP-GEO
100
AcDbEllipse
 10
2.419898890095374
 20
2.3546
 30
0.0
 11
0.0000000000000001
 21
0.086
 31
0.0
210
0.0
220
0.0
230
1.0
 40
0.7071067811865467
 41
1.570796326794912
 42
2.458818297950576
  0
ELLIPSE
  5
27
100
AcDbEntity
  8
USP-GEO
100
AcDbEllipse
 10
2.419898890095374
 20
2.3546
 30
0.0
 11
0.0000000000000001
 21
0.086
 31
0.0
210
0.0
220
0.0
230
1.0
 40
0.7071067811865467
 41
0.6827743556392187
 42
1.570796326794928
  0
ELLIPSE
  5
28
100
AcDbEntity
  8
USP-GEO
100
AcDbEllipse
 10
2.34316151775226
 20
2.354599999999999
 30
0.0
 11
-0.0000000000000001
 21
-0.086
 31
0.0
210
0.0
220
0.0
230
1.0
 40
0.7071067811865465
 41
0.0
 42
6.283185307179586
  0
ELLIPSE
  5
29
100
AcDbEntity
  8
USP-GEO
100
AcDbEllipse
 10
2.419898890095375
 20
3.604599999999998
 30
0.0
 11
0.0000000000000001
 21
0.086
 31
0.0
210
0.0
220
0.0
230
1.0
 40
0.7071067811865467
 41
1.570796326794897
 42
2.458818297950576
  0
ELLIPSE
  5
2A
100
AcDbEntity
  8
USP-GEO
100
AcDbEllipse
 10
2.34316151775226
 20
3.604599999999998
 30
0.0
 11
-0.0000000000000001
 21
-0.086
 31
0.0
210
0.0
220
0.0
230
1.0
 40
0.7071067811865465
 41
0.0
 42
6.283185307179586
  0
ARC
  5
2B
100
AcDbEntity
  8
USP-GEO
100
AcDbCircle
 10
2.604599999999998
 20
3.604599999999999
 30
0.0
 40
0.3796000000000001
100
AcDbArc
 50
105.9949848041251
 51
254.0050151958746
  0
ELLIPSE
  5
2C
100
AcDbEntity
  8
USP-GEO
100
AcDbEllipse
 10
2.419898890095375
 20
3.604599999999998
 30
0.0
 11
0.0000000000000001
 21
0.086
 31
0.0
210
0.0
220
0.0
230
1.0
 40
0.7071067811865467
 41
0.6827743556392187
 42
1.570796326794912
  0
ELLIPSE
  5
2D
100
AcDbEntity
  8
USP-GEO
100
AcDbEllipse
 10
2.419898890095375
 20
4.854599999999999
 30
0.0
 11
0.0000000000000001
 21
0.086
 31
0.0
210
0.0
220
0.0
230
1.0
 40
0.7071067811865467
 41
1.570796326794897
 42
2.458818297950578
  0
ELLIPSE
  5
2E
100
AcDbEntity
  8
USP-GEO
100
AcDbEllipse
 10
2.419898890095375
 20
4.854599999999999
 30
0.0
 11
0.0000000000000001
 21
0.086
 31
0.0
210
0.0
220
0.0
230
1.0
 40
0.7071067811865467
 41
0.6827743556392019
 42
1.570796326794907
  0
CIRCLE
  5
2F
100
AcDbEntity
  8
USP-GEO
100
AcDbCircle
 10
0.8750000000000031
 20
5.604600000000006
 30
0.0
 40
0.086
  0
CIRCLE
  5
30
100
AcDbEntity
  8
USP-GEO
100
AcDbCircle
 10
0.3750000000000035
 20
6.229600000000006
 30
0.0
 40
0.086
  0
CIRCLE
  5
31
100
AcDbEntity
  8
USP-GEO
100
AcDbCircle
 10
1.875000000000003
 20
5.604600000000004
 30
0.0
 40
0.086
  0
CIRCLE
  5
32
100
AcDbEntity
  8
USP-GEO
100
AcDbCircle
 10
1.375000000000003
 20
6.229600000000003
 30
0.0
 40
0.086
  0
CIRCLE
  5
33
100
AcDbEntity
  8
USP-GEO
100
AcDbCircle
 10
0.3750000000000049
 20
7.479600000000006
 30
0.0
 40
0.086
  0
CIRCLE
  5
34
100
AcDbEntity
  8
USP-GEO
100
AcDbCircle
 10
0.8750000000000039
 20
6.854600000000004
 30
0.0
 40
0.086
  0
CIRCLE
  5
35
100
AcDbEntity
  8
USP-GEO
100
AcDbCircle
 10
0.8750000000000049
 20
8.104600000000003
 30
0.0
 40
0.086
  0
CIRCLE
  5
36
100
AcDbEntity
  8
USP-GEO
100
AcDbCircle
 10
1.375000000000004
 20
7.479600000000006
 30
0.0
 40
0.086
  0
CIRCLE
  5
37
100
AcDbEntity
  8
USP-GEO
100
AcDbCircle
 10
1.875000000000003
 20
6.854600000000003
 30
0.0
 40
0.086
  0
CIRCLE
  5
38
100
AcDbEntity
  8
USP-GEO
100
AcDbCircle
 10
1.875000000000005
 20
8.104600000000003
 30
0.0
 40
0.086
  0
ARC
  5
39
100
AcDbEntity
  8
USP-GEO
100
AcDbCircle
 10
2.6046
 20
6.104599999999999
 30
0.0
 40
0.3796
100
AcDbArc
 50
105.9949848041251
 51
254.0050151958747
  0
ELLIPSE
  5
3A
100
AcDbEntity
  8
USP-GEO
100
AcDbEllipse
 10
2.419898890095376
 20
6.104599999999999
 30
0.0
 11
0.0000000000000001
 21
0.086
 31
0.0
210
0.0
220
0.0
230
1.0
 40
0.7071067811865467
 41
1.570796326794897
 42
2.458818297950577
  0
ELLIPSE
  5
3B
100
AcDbEntity
  8
USP-GEO
100
AcDbEllipse
 10
2.419898890095376
 20
6.104599999999999
 30
0.0
 11
0.0000000000000001
 21
0.086
 31
0.0
210
0.0
220
0.0
230
1.0
 40
0.7071067811865467
 41
0.6827743556392169
 42
1.570796326794907
  0
ELLIPSE
  5
3C
100
AcDbEntity
  8
USP-GEO
100
AcDbEllipse
 10
2.343161517752263
 20
6.104599999999999
 30
0.0
 11
-0.0000000000000001
 21
-0.086
 31
0.0
210
0.0
220
0.0
230
1.0
 40
0.7071067811865465
 41
0.0
 42
6.283185307179586
  0
ARC
  5
3D
100
AcDbEntity
  8
USP-GEO
100
AcDbCircle
 10
2.604600000000001
 20
7.354599999999999
 30
0.0
 40
0.3796
100
AcDbArc
 50
105.994984804125
 51
254.0050151958746
  0
ELLIPSE
  5
3E
100
AcDbEntity
  8
USP-GEO
100
AcDbEllipse
 10
2.419898890095377
 20
7.354599999999999
 30
0.0
 11
0.0000000000000001
 21
0.086
 31
0.0
210
0.0
220
0.0
230
1.0
 40
0.7071067811865467
 41
1.570796326794907
 42
2.458818297950579
  0
ELLIPSE
  5
3F
100
AcDbEntity
  8
USP-GEO
100
AcDbEllipse
 10
2.419898890095377
 20
7.354599999999999
 30
0.0
 11
0.0000000000000001
 21
0.086
 31
0.0
210
0.0
220
0.0
230
1.0
 40
0.7071067811865467
 41
0.6827743556391872
 42
1.570796326794917
  0
ELLIPSE
  5
40
100
AcDbEntity
  8
USP-GEO
100
AcDbEllipse
 10
2.343161517752265
 20
7.354600000000001
 30
0.0
 11
-0.0000000000000001
 21
-0.086
 31
0.0
210
0.0
220
0.0
230
1.0
 40
0.7071067811865465
 41
0.0
 42
6.283185307179586
  0
LINE
  5
41
100
AcDbEntity
  8
USP-GEO
100
AcDbLine
 10
10.33419999999999
 20
2.129813240271463
 30
0.0
 11
7.834199999999995
 21
0.6864375672973995
 31
0.0
  0
ARC
  5
42
100
AcDbEntity
  8
USP-GEO
100
AcDbCircle
 10
7.729599999999999
 20
7.979599999999996
 30
0.0
 40
0.3796
100
AcDbArc
 50
285.9949848041249
 51
74.00501519587499
  0
ARC
  5
43
100
AcDbEntity
  8
USP-GEO
100
AcDbCircle
 10
7.729599999999997
 20
4.229599999999996
 30
0.0
 40
0.3796
100
AcDbArc
 50
285.9949848041248
 51
74.00501519587528
  0
ARC
  5
44
100
AcDbEntity
  8
USP-GEO
100
AcDbCircle
 10
7.729599999999997
 20
5.479599999999994
 30
0.0
 40
0.3796
100
AcDbArc
 50
285.9949848041249
 51
74.00501519587499
  0
ARC
  5
45
100
AcDbEntity
  8
USP-GEO
100
AcDbCircle
 10
7.729599999999997
 20
6.729599999999994
 30
0.0
 40
0.3796
100
AcDbArc
 50
285.9949848041253
 51
74.00501519587486
  0
ARC
  5
46
100
AcDbEntity
  8
USP-GEO
100
AcDbCircle
 10
7.729599999999996
 20
2.979599999999994
 30
0.0
 40
0.3796
100
AcDbArc
 50
285.9949848041249
 51
74.00501519587499
  0
ARC
  5
47
100
AcDbEntity
  8
USP-GEO
100
AcDbCircle
 10
7.729599999999994
 20
1.729599999999994
 30
0.0
 40
0.3796
100
AcDbArc
 50
285.9949848041249
 51
74.00501519587499
  0
ELLIPSE
  5
48
100
AcDbEntity
  8
USP-GEO
100
AcDbEllipse
 10
7.914301109904618
 20
1.729599999999994
 30
0.0
 11
0.0000000000000001
 21
0.086
 31
0.0
210
0.0
220
0.0
230
1.0
 40
0.7071067811865484
 41
4.712388980384671
 42
5.600410951540391
  0
ELLIPSE
  5
49
100
AcDbEntity
  8
USP-GEO
100
AcDbEllipse
 10
7.991038482247731
 20
1.729599999999994
 30
0.0
 11
-0.0000000000000001
 21
-0.086
 31
0.0
210
0.0
220
0.0
230
1.0
 40
0.7071067811865484
 41
0.0
 42
6.283185307179586
  0
ELLIPSE
  5
4A
100
AcDbEntity
  8
USP-GEO
100
AcDbEllipse
 10
7.914301109904618
 20
1.729599999999994
 30
0.0
 11
0.0000000000000001
 21
0.086
 31
0.0
210
0.0
220
0.0
230
1.0
 40
0.7071067811865484
 41
3.824367009228991
 42
4.712388980384685
  0
ELLIPSE
  5
4B
100
AcDbEntity
  8
USP-GEO
100
AcDbEllipse
 10
7.91430110990462
 20
2.979599999999994
 30
0.0
 11
0.0000000000000001
 21
0.086
 31
0.0
210
0.0
220
0.0
230
1.0
 40
0.7071067811865484
 41
4.712388980384664
 42
5.600410951540387
  0
ELLIPSE
  5
4C
100
AcDbEntity
  8
USP-GEO
100
AcDbEllipse
 10
7.91430110990462
 20
2.979599999999994
 30
0.0
 11
0.0000000000000001
 21
0.086
 31
0.0
210
0.0
220
0.0
230
1.0
 40
0.7071067811865484
 41
3.824367009228975
 42
4.712388980384679
  0
ELLIPSE
  5
4D
100
AcDbEntity
  8
USP-GEO
100
AcDbEllipse
 10
7.991038482247731
 20
2.979599999999993
 30
0.0
 11
-0.0000000000000001
 21
-0.086
 31
0.0
210
0.0
220
0.0
230
1.0
 40
0.7071067811865484
 41
0.0
 42
6.283185307179586
  0
ELLIPSE
  5
4E
100
AcDbEntity
  8
USP-GEO
100
AcDbEllipse
 10
7.91430110990462
 20
4.229599999999996
 30
0.0
 11
0.0000000000000001
 21
0.086
 31
0.0
210
0.0
220
0.0
230
1.0
 40
0.7071067811865484
 41
3.824367009228975
 42
4.71238898038467
  0
ELLIPSE
  5
4F
100
AcDbEntity
  8
USP-GEO
100
AcDbEllipse
 10
7.91430110990462
 20
4.229599999999996
 30
0.0
 11
0.0000000000000001
 21
0.086
 31
0.0
210
0.0
220
0.0
230
1.0
 40
0.7071067811865484
 41
4.712388980384659
 42
5.600410951540405
  0
ELLIPSE
  5
50
100
AcDbEntity
  8
USP-GEO
100
AcDbEllipse
 10
7.991038482247732
 20
4.229599999999996
 30
0.0
 11
-0.0000000000000001
 21
-0.086
 31
0.0
210
0.0
220
0.0
230
1.0
 40
0.7071067811865484
 41
0.0
 42
6.283185307179586
  0
ELLIPSE
  5
51
100
AcDbEntity
  8
USP-GEO
100
AcDbEllipse
 10
7.914301109904622
 20
6.729599999999992
 30
0.0
 11
0.0000000000000001
 21
0.086
 31
0.0
210
0.0
220
0.0
230
1.0
 40
0.7071067811865484
 41
4.712388980384721
 42
5.600410951540405
  0
ELLIPSE
  5
52
100
AcDbEntity
  8
USP-GEO
100
AcDbEllipse
 10
7.991038482247736
 20
6.729599999999996
 30
0.0
 11
-0.0000000000000001
 21
-0.086
 31
0.0
210
0.0
220
0.0
230
1.0
 40
0.7071067811865484
 41
0.0
 42
6.283185307179586
  0
ELLIPSE
  5
53
100
AcDbEntity
  8
USP-GEO
100
AcDbEllipse
 10
7.914301109904622
 20
5.479599999999996
 30
0.0
 11
0.0000000000000001
 21
0.086
 31
0.0
210
0.0
220
0.0
230
1.0
 40
0.7071067811865484
 41
3.824367009228975
 42
4.71238898038471
  0
ELLIPSE
  5
54
100
AcDbEntity
  8
USP-GEO
100
AcDbEllipse
 10
7.914301109904622
 20
5.479599999999996
 30
0.0
 11
0.0000000000000001
 21
0.086
 31
0.0
210
0.0
220
0.0
230
1.0
 40
0.7071067811865484
 41
4.7123889803847
 42
5.60041095154037
  0
ELLIPSE
  5
55
100
AcDbEntity
  8
USP-GEO
100
AcDbEllipse
 10
7.991038482247734
 20
5.479599999999992
 30
0.0
 11
-0.0000000000000001
 21
-0.086
 31
0.0
210
0.0
220
0.0
230
1.0
 40
0.7071067811865484
 41
0.0
 42
6.283185307179586
  0
ELLIPSE
  5
56
100
AcDbEntity
  8
USP-GEO
100
AcDbEllipse
 10
7.914301109904622
 20
6.729599999999992
 30
0.0
 11
0.0000000000000001
 21
0.086
 31
0.0
210
0.0
220
0.0
230
1.0
 40
0.7071067811865484
 41
3.824367009229046
 42
4.712388980384731
  0
ELLIPSE
  5
57
100
AcDbEntity
  8
USP-GEO
100
AcDbEllipse
 10
7.914301109904624
 20
7.979599999999996
 30
0.0
 11
0.0000000000000001
 21
0.086
 31
0.0
210
0.0
220
0.0
230
1.0
 40
0.7071067811865484
 41
4.712388980384659
 42
5.600410951540395
  0
ELLIPSE
  5
58
100
AcDbEntity
  8
USP-GEO
100
AcDbEllipse
 10
7.914301109904624
 20
7.979599999999996
 30
0.0
 11
0.0000000000000001
 21
0.086
 31
0.0
210
0.0
220
0.0
230
1.0
 40
0.7071067811865484
 41
3.824367009228993
 42
4.71238898038467
  0
ELLIPSE
  5
59
100
AcDbEntity
  8
USP-GEO
100
AcDbEllipse
 10
7.991038482247736
 20
7.979599999999996
 30
0.0
 11
-0.0000000000000001
 21
-0.086
 31
0.0
210
0.0
220
0.0
230
1.0
 40
0.7071067811865484
 41
0.0
 42
6.283185307179586
  0
CIRCLE
  5
5A
100
AcDbEntity
  8
USP-GEO
100
AcDbCircle
 10
9.959199999999999
 20
3.854599999999993
 30
0.0
 40
0.086
  0
CIRCLE
  5
5B
100
AcDbEntity
  8
USP-GEO
100
AcDbCircle
 10
9.959199999999995
 20
2.604599999999993
 30
0.0
 40
0.086
  0
CIRCLE
  5
5C
100
AcDbEntity
  8
USP-GEO
100
AcDbCircle
 10
8.959199999999995
 20
2.604599999999994
 30
0.0
 40
0.086
  0
CIRCLE
  5
5D
100
AcDbEntity
  8
USP-GEO
100
AcDbCircle
 10
8.459199999999995
 20
1.979599999999996
 30
0.0
 40
0.086
  0
CIRCLE
  5
5E
100
AcDbEntity
  8
USP-GEO
100
AcDbCircle
 10
8.959199999999997
 20
3.854599999999994
 30
0.0
 40
0.086
  0
CIRCLE
  5
5F
100
AcDbEntity
  8
USP-GEO
100
AcDbCircle
 10
8.459199999999997
 20
3.229599999999996
 30
0.0
 40
0.086
  0
CIRCLE
  5
60
100
AcDbEntity
  8
USP-GEO
100
AcDbCircle
 10
8.459199999999999
 20
4.479599999999996
 30
0.0
 40
0.086
  0
CIRCLE
  5
61
100
AcDbEntity
  8
USP-GEO
100
AcDbCircle
 10
9.459199999999999
 20
3.229599999999995
 30
0.0
 40
0.086
  0
CIRCLE
  5
62
100
AcDbEntity
  8
USP-GEO
100
AcDbCircle
 10
9.4592
 20
4.479599999999996
 30
0.0
 40
0.086
  0
CIRCLE
  5
63
100
AcDbEntity
  8
USP-GEO
100
AcDbCircle
 10
9.9592
 20
7.604599999999994
 30
0.0
 40
0.086
  0
CIRCLE
  5
64
100
AcDbEntity
  8
USP-GEO
100
AcDbCircle
 10
9.9592
 20
6.354599999999996
 30
0.0
 40
0.086
  0
CIRCLE
  5
65
100
AcDbEntity
  8
USP-GEO
100
AcDbCircle
 10
9.959199999999999
 20
5.104599999999992
 30
0.0
 40
0.086
  0
CIRCLE
  5
66
100
AcDbEntity
  8
USP-GEO
100
AcDbCircle
 10
8.959199999999999
 20
6.354599999999997
 30
0.0
 40
0.086
  0
CIRCLE
  5
67
100
AcDbEntity
  8
USP-GEO
100
AcDbCircle
 10
8.959199999999999
 20
5.104599999999996
 30
0.0
 40
0.086
  0
CIRCLE
  5
68
100
AcDbEntity
  8
USP-GEO
100
AcDbCircle
 10
8.459199999999999
 20
5.729599999999996
 30
0.0
 40
0.086
  0
CIRCLE
  5
69
100
AcDbEntity
  8
USP-GEO
100
AcDbCircle
 10
9.459199999999999
 20
5.729599999999996
 30
0.0
 40
0.086
  0
CIRCLE
  5
6A
100
AcDbEntity
  8
USP-GEO
100
AcDbCircle
 10
8.9592
 20
7.604599999999996
 30
0.0
 40
0.086
  0
CIRCLE
  5
6B
100
AcDbEntity
  8
USP-GEO
100
AcDbCircle
 10
8.4592
 20
6.979599999999996
 30
0.0
 40
0.086
  0
CIRCLE
  5
6C
100
AcDbEntity
  8
USP-GEO
100
AcDbCircle
 10
8.459200000000002
 20
8.229599999999996
 30
0.0
 40
0.086
  0
CIRCLE
  5
6D
100
AcDbEntity
  8
USP-GEO
100
AcDbCircle
 10
9.459199999999999
 20
6.979599999999994
 30
0.0
 40
0.086
  0
CIRCLE
  5
6E
100
AcDbEntity
  8
USP-GEO
100
AcDbCircle
 10
9.4592
 20
8.229599999999997
 30
0.0
 40
0.086
  0
LINE
  5
6F
100
AcDbEntity
  8
USP-GEO
100
AcDbLine
 10
0.0000000000000062
 20
9.229600000000003
 30
0.0
 11
2.500000000000004
 21
9.229600000000001
 31
0.0
  0
CIRCLE
  5
70
100
AcDbEntity
  8
USP-GEO
100
AcDbCircle
 10
0.3750000000000058
 20
8.729600000000004
 30
0.0
 40
0.086
  0
CIRCLE
  5
71
100
AcDbEntity
  8
USP-GEO
100
AcDbCircle
 10
1.375000000000006
 20
8.729600000000003
 30
0.0
 40
0.086
  0
LINE
  5
72
100
AcDbEntity
  8
USP-GEO
100
AcDbLine
 10
2.604599999999999
 20
9.229599999999997
 30
0.0
 11
2.499999999999999
 21
9.229599999999997
 31
0.0
  0
LINE
  5
73
100
AcDbEntity
  8
USP-GEO
100
AcDbLine
 10
7.834200000000002
 20
9.229599999999994
 30
0.0
 11
10.3342
 21
9.229599999999992
 31
0.0
  0
LINE
  5
74
100
AcDbEntity
  8
USP-GEO
100
AcDbLine
 10
7.729599999999996
 20
9.229599999999994
 30
0.0
 11
7.834199999999997
 21
9.229599999999994
 31
0.0
  0
CIRCLE
  5
75
100
AcDbEntity
  8
USP-GEO
100
AcDbCircle
 10
9.9592
 20
8.854599999999994
 30
0.0
 40
0.086
  0
CIRCLE
  5
76
100
AcDbEntity
  8
USP-GEO
100
AcDbCircle
 10
8.9592
 20
8.854599999999996
 30
0.0
 40
0.086
  0
ENDBLK
  5
79
100
AcDbEntity
  8
0
100
AcDbBlockEnd
  0
BLOCK
  5
91
100
AcDbEntity
  8
0
100
AcDbBlockBegin
  2
THDH210-3_T
 70
     0
 10
0.0
 20
0.0
 30
0.0
  3
THDH210-3_T
  1

  0
LINE
  5
7C
100
AcDbEntity
  8
USP-GEO
100
AcDbLine
 10
7.729599999999988
 20
4.0
 30
0.0
 11
2.604599999999988
 21
4.000000000000007
 31
0.0
  0
LINE
  5
7D
100
AcDbEntity
  8
USP-GEO
100
AcDbLine
 10
2.604599999999983
 20
0.0000000000000036
 30
0.0
 11
7.729599999999981
 21
-0.0000000000000036
 31
0.0
  0
TEXT
  5
7E
100
AcDbEntity
  8
USP-TXT
100
AcDbText
 10
0.2520183813338424
 20
-2.593424852448006
 30
0.0
 40
0.5
  1
THDH210-3 - TOP VIEW
 72
     1
 11
5.12701838133384
 21
-2.593424852448006
 31
0.0
100
AcDbText
  0
LINE
  5
7F
100
AcDbEntity
  8
USP-GEO
100
AcDbLine
 10
2.6046
 20
4.354599999999997
 30
0.0
 11
-0.0000000000000004
 21
4.354600000000004
 31
0.0
  0
LINE
  5
80
100
AcDbEntity
  8
USP-GEO
100
AcDbLine
 10
0.0
 20
4.250000000000007
 30
0.0
 11
2.499999999999998
 21
4.250000000000007
 31
0.0
  0
LINE
  5
81
100
AcDbEntity
  8
USP-GEO
100
AcDbLine
 10
-0.0000000000000004
 20
4.354600000000012
 30
0.0
 11
-0.0000000000000004
 21
4.250000000000007
 31
0.0
  0
LINE
  5
82
100
AcDbEntity
  8
USP-GEO
100
AcDbLine
 10
2.6046
 20
4.354599999999997
 30
0.0
 11
2.604599999999994
 21
0.0
 31
0.0
  0
LINE
  5
83
100
AcDbEntity
  8
USP-GEO
100
AcDbLine
 10
2.499999999999997
 20
4.250000000000007
 30
0.0
 11
2.499999999999992
 21
0.0
 31
0.0
  0
ARC
  5
84
100
AcDbEntity
  8
USP-GEO
100
AcDbCircle
 10
2.604599999999995
 20
3.0
 30
0.0
 40
0.3796
100
AcDbArc
 50
105.9949848041252
 51
211.9057084630068
  0
LINE
  5
85
100
AcDbEntity
  8
USP-GEO
100
AcDbLine
 10
2.604599999999993
 20
0.0
 30
0.0
 11
2.499999999999992
 21
0.0
 31
0.0
  0
LINE
  5
86
100
AcDbEntity
  8
USP-GEO
100
AcDbLine
 10
2.282350334570216
 20
2.799372700934306
 30
0.0
 11
2.403972700934302
 21
2.67775033457022
 31
0.0
  0
ARC
  5
87
100
AcDbEntity
  8
USP-GEO
100
AcDbCircle
 10
2.604599999999995
 20
3.0
 30
0.0
 40
0.3796
100
AcDbArc
 50
238.0942915369933
 51
254.0050151958744
  0
LINE
  5
88
100
AcDbEntity
  8
USP-GEO
100
AcDbLine
 10
7.729599999999997
 20
4.35459999999999
 30
0.0
 11
10.33419999999999
 21
4.35459999999999
 31
0.0
  0
LINE
  5
89
100
AcDbEntity
  8
USP-GEO
100
AcDbLine
 10
7.834199999999995
 20
4.249999999999992
 30
0.0
 11
10.33419999999999
 21
4.249999999999992
 31
0.0
  0
ARC
  5
8A
100
AcDbEntity
  8
USP-GEO
100
AcDbCircle
 10
7.729599999999994
 20
2.999999999999992
 30
0.0
 40
0.3796
100
AcDbArc
 50
328.094291536993
 51
74.00501519587504
  0
LINE
  5
8B
100
AcDbEntity
  8
USP-GEO
100
AcDbLine
 10
7.72959999999999
 20
-0.0000000000000071
 30
0.0
 11
7.729599999999997
 21
4.35459999999999
 31
0.0
  0
LINE
  5
8C
100
AcDbEntity
  8
USP-GEO
100
AcDbLine
 10
7.834199999999992
 20
-0.0000000000000071
 30
0.0
 11
7.834199999999997
 21
4.249999999999992
 31
0.0
  0
LINE
  5
8D
100
AcDbEntity
  8
USP-GEO
100
AcDbLine
 10
7.72959999999999
 20
-0.0000000000000071
 30
0.0
 11
7.834199999999992
 21
-0.0000000000000071
 31
0.0
  0
LINE
  5
8E
100
AcDbEntity
  8
USP-GEO
100
AcDbLine
 10
8.051849665429774
 20
2.799372700934299
 30
0.0
 11
7.930227299065688
 21
2.677750334570212
 31
0.0
  0
ARC
  5
8F
100
AcDbEntity
  8
USP-GEO
100
AcDbCircle
 10
7.729599999999994
 20
2.999999999999992
 30
0.0
 40
0.3796
100
AcDbArc
 50
285.9949848041249
 51
301.9057084630064
  0
LINE
  5
90
100
AcDbEntity
  8
USP-GEO
100
AcDbLine
 10
10.33419999999999
 20
4.35459999999999
 30
0.0
 11
10.33419999999999
 21
4.249999999999992
 31
0.0
  0
ENDBLK
  5
92
100
AcDbEntity
  8
0
100
AcDbBlockEnd
  0
BLOCK
  5
B8
100
AcDbEntity
  8
0
100
AcDbBlockBegin
  2
THDH210-3_S
 70
     0
 10
0.0
 20
0.0
 30
0.0
  3
THDH210-3_S
  1

  0
LINE
  5
95
100
AcDbEntity
  8
USP-GEO
100
AcDbLine
 10
4.354599999999997
 20
9.229599999999999
 30
0.0
 11
4.354599999999997
 21
2.129813240271467
 31
0.0
  0
LINE
  5
96
100
AcDbEntity
  8
USP-GEO
100
AcDbLine
 10
4.25
 20
9.229599999999996
 30
0.0
 11
4.25
 21
2.129813240271468
 31
0.0
  0
LINE
  5
97
100
AcDbEntity
  8
USP-GEO
100
AcDbLine
 10
0.0
 20
0.0
 30
0.0
 11
0.0
 21
9.229600000000001
 31
0.0
  0
LINE
  5
98
100
AcDbEntity
  8
USP-GEO
100
AcDbLine
 10
0.0
 20
0.0
 30
0.0
 11
4.0
 21
0.0
 31
0.0
  0
LINE
  5
99
100
AcDbEntity
  8
USP-HID
100
AcDbLine
 10
0.0
 20
0.1045999999999987
 30
0.0
 11
4.0
 21
0.1045999999999987
 31
0.0
  0
TEXT
  5
9C
100
AcDbEntity
  8
USP-TXT
100
AcDbText
 10
-2.875816855953369
 20
-2.696783769416409
 30
0.0
 40
0.5
  1
THDH210-3 - SIDE VIEW
 72
     1
 11
2.165849810713297
 21
-2.696783769416409
 31
0.0
100
AcDbText
  0
CIRCLE
  5
9D
100
AcDbEntity
  8
USP-GEO
100
AcDbCircle
 10
2.125
 20
7.354599999999999
 30
0.0
 40
0.125
  0
LINE
  5
9E
100
AcDbEntity
  8
USP-GEO
100
AcDbLine
 10
4.354599999999997
 20
2.129813240271467
 30
0.0
 11
4.354599999999997
 21
0.6864375672974017
 31
0.0
  0
LINE
  5
9F
100
AcDbEntity
  8
USP-GEO
100
AcDbLine
 10
4.25
 20
2.129813240271468
 30
0.0
 11
4.25
 21
0.6864375672974039
 31
0.0
  0
LINE
  5
A0
100
AcDbEntity
  8
USP-GEO
100
AcDbLine
 10
4.0
 20
0.5420999999999987
 30
0.0
 11
4.0
 21
-0.0000000000000009
 31
0.0
  0
LINE
  5
A1
100
AcDbEntity
  8
USP-GEO
100
AcDbLine
 10
4.25
 20
0.6864375672974044
 30
0.0
 11
4.0
 21
0.5420999999999987
 31
0.0
  0
LINE
  5
A2
100
AcDbEntity
  8
USP-GEO
100
AcDbLine
 10
4.354599999999997
 20
0.6864375672974044
 30
0.0
 11
4.25
 21
0.6864375672974044
 31
0.0
  0
CIRCLE
  5
A3
100
AcDbEntity
  8
USP-GEO
100
AcDbCircle
 10
3.0
 20
2.979599999999997
 30
0.0
 40
0.3649040969898805
  0
CIRCLE
  5
A4
100
AcDbEntity
  8
USP-GEO
100
AcDbCircle
 10
3.0
 20
1.729599999999997
 30
0.0
 40
0.3649040969898805
  0
ELLIPSE
  5
A5
100
AcDbEntity
  8
USP-GEO
100
AcDbEllipse
 10
2.815298890095377
 20
1.729599999999999
 30
0.0
 11
0.0
 21
0.086
 31
0.0
210
0.0
220
0.0
230
1.0
 40
0.7071067811865466
 41
0.6827743556391828
 42
2.45881829795061
  0
ELLIPSE
  5
A6
100
AcDbEntity
  8
USP-GEO
100
AcDbEllipse
 10
2.738561517752266
 20
1.729599999999999
 30
0.0
 11
0.0
 21
-0.086
 31
0.0
210
0.0
220
0.0
230
1.0
 40
0.7071067811865467
 41
0.0
 42
6.283185307179586
  0
ELLIPSE
  5
A7
100
AcDbEntity
  8
USP-GEO
100
AcDbEllipse
 10
2.738561517752259
 20
2.979599999999997
 30
0.0
 11
0.0
 21
-0.086
 31
0.0
210
0.0
220
0.0
230
1.0
 40
0.7071067811865467
 41
0.0
 42
6.283185307179586
  0
ELLIPSE
  5
A8
100
AcDbEntity
  8
USP-GEO
100
AcDbEllipse
 10
2.815298890095377
 20
2.979599999999999
 30
0.0
 11
0.0
 21
0.086
 31
0.0
210
0.0
220
0.0
230
1.0
 40
0.7071067811865466
 41
0.6827743556392509
 42
2.458818297950545
  0
LINE
  5
A9
100
AcDbEntity
  8
USP-GEO
100
AcDbLine
 10
4.354599999999997
 20
2.129813240271467
 30
0.0
 11
4.25
 21
2.129813240271467
 31
0.0
  0
CIRCLE
  5
AA
100
AcDbEntity
  8
USP-GEO
100
AcDbCircle
 10
3.0
 20
4.229599999999999
 30
0.0
 40
0.3649040969898805
  0
ELLIPSE
  5
AB
100
AcDbEntity
  8
USP-GEO
100
AcDbEllipse
 10
2.738561517752266
 20
4.229599999999999
 30
0.0
 11
0.0
 21
-0.086
 31
0.0
210
0.0
220
0.0
230
1.0
 40
0.7071067811865467
 41
0.0
 42
6.283185307179586
  0
ELLIPSE
  5
AC
100
AcDbEntity
  8
USP-GEO
100
AcDbEllipse
 10
2.815298890095377
 20
4.229599999999999
 30
0.0
 11
0.0
 21
0.086
 31
0.0
210
0.0
220
0.0
230
1.0
 40
0.7071067811865466
 41
0.6827743556391828
 42
2.45881829795061
  0
ELLIPSE
  5
AD
100
AcDbEntity
  8
USP-GEO
100
AcDbEllipse
 10
2.815298890095377
 20
6.729599999999997
 30
0.0
 11
0.0
 21
0.086
 31
0.0
210
0.0
220
0.0
230
1.0
 40
0.7071067811865466
 41
0.6827743556391763
 42
2.458818297950604
  0
CIRCLE
  5
AE
100
AcDbEntity
  8
USP-GEO
100
AcDbCircle
 10
3.0
 20
6.729599999999999
 30
0.0
 40
0.3649040969898805
  0
ELLIPSE
  5
AF
100
AcDbEntity
  8
USP-GEO
100
AcDbEllipse
 10
2.738561517752266
 20
6.729600000000001
 30
0.0
 11
0.0
 21
-0.086
 31
0.0
210
0.0
220
0.0
230
1.0
 40
0.7071067811865467
 41
0.0
 42
6.283185307179586
  0
CIRCLE
  5
B0
100
AcDbEntity
  8
USP-GEO
100
AcDbCircle
 10
3.0
 20
5.479599999999999
 30
0.0
 40
0.3649040969898805
  0
ELLIPSE
  5
B1
100
AcDbEntity
  8
USP-GEO
100
AcDbEllipse
 10
2.738561517752266
 20
5.479599999999997
 30
0.0
 11
0.0
 21
-0.086
 31
0.0
210
0.0
220
0.0
230
1.0
 40
0.7071067811865467
 41
0.0
 42
6.283185307179586
  0
ELLIPSE
  5
B2
100
AcDbEntity
  8
USP-GEO
100
AcDbEllipse
 10
2.815298890095377
 20
5.479599999999999
 30
0.0
 11
0.0
 21
0.086
 31
0.0
210
0.0
220
0.0
230
1.0
 40
0.7071067811865466
 41
0.6827743556391894
 42
2.458818297950617
  0
CIRCLE
  5
B3
100
AcDbEntity
  8
USP-GEO
100
AcDbCircle
 10
3.0
 20
7.979599999999999
 30
0.0
 40
0.3649040969898805
  0
ELLIPSE
  5
B4
100
AcDbEntity
  8
USP-GEO
100
AcDbEllipse
 10
2.738561517752259
 20
7.979599999999999
 30
0.0
 11
0.0
 21
-0.086
 31
0.0
210
0.0
220
0.0
230
1.0
 40
0.7071067811865467
 41
0.0
 42
6.283185307179586
  0
ELLIPSE
  5
B5
100
AcDbEntity
  8
USP-GEO
100
AcDbEllipse
 10
2.815298890095377
 20
7.979599999999999
 30
0.0
 11
0.0
 21
0.086
 31
0.0
210
0.0
220
0.0
230
1.0
 40
0.7071067811865466
 41
0.6827743556391959
 42
2.458818297950552
  0
LINE
  5
B6
100
AcDbEntity
  8
USP-GEO
100
AcDbLine
 10
0.0
 20
9.229600000000001
 30
0.0
 11
4.25
 21
9.229599999999997
 31
0.0
  0
LINE
  5
B7
100
AcDbEntity
  8
USP-GEO
100
AcDbLine
 10
4.354599999999997
 20
9.229599999999999
 30
0.0
 11
4.25
 21
9.229599999999999
 31
0.0
  0
ENDBLK
  5
B9
100
AcDbEntity
  8
0
100
AcDbBlockEnd
  0
ENDSEC
  0
SECTION
  2
ENTITIES
  0
INSERT
  5
3
100
AcDbEntity
  8
USP
100
AcDbBlockReference
  2
THDH210-3_F
 10
0.2506716710383525
 20
2.697495975379137
 30
0.0
  0
INSERT
  5
7A
100
AcDbEntity
  8
USP
100
AcDbBlockReference
  2
THDH210-3_T
 10
0.2506716710383596
 20
17.75575676705903
 30
0.0
  0
INSERT
  5
93
100
AcDbEntity
  8
USP
100
AcDbBlockReference
  2
THDH210-3_S
 10
16.57700290470606
 20
2.697495975379132
 30
0.0
  0
VIEWPORT
  5
BF
102
{ACAD_XDICTIONARY
360
C0
102
}
100
AcDbEntity
 67
     1
  8
0
100
AcDbViewport
 10
5.285416850893516
 20
3.968749891115924
 30
0.0
 40
13.50573247017707
 41
8.992999745766947
 68
    -1
 69
     1
1001
ACAD
1000
MVIEW
1002
{
1070
    16
1010
0.0
1020
0.0
1030
0.0
1010
0.0
1020
0.0
1030
1.0
1040
0.0
1040
8.992999745766947
1040
5.285416850893516
1040
3.968749891115924
1040
50.0
1040
0.0
1040
0.0
1070
     0
1070
   100
1070
     1
1070
     1
1070
     0
1070
     0
1070
     0
1070
     0
1040
0.0
1040
0.0
1040
0.0
1040
0.5
1040
0.5
1040
0.5
1040
0.5
1070
     0
1002
{
1002
}
1002
}
  0
ENDSEC
  0
SECTION
  2
OBJECTS
  0
DICTIONARY
  5
D6
102
{ACAD_XDICTIONARY
360
D7
102
}
100
AcDbDictionary
  3
ACAD_GROUP
350
D4
  3
ACAD_MLINESTYLE
350
D5
  0
DICTIONARY
  5
BA
100
AcDbDictionary
280
     1
  3
ACAD_LAYOUTSELFREF
360
BB
  0
DICTIONARY
  5
C4
100
AcDbDictionary
280
     1
  3
ACAD_LAYOUTSELFREF
360
C5
  0
DICTIONARY
  5
C0
100
AcDbDictionary
280
     1
  3
ACAD_XREC_ROUNDTRIP
360
C1
  0
DICTIONARY
  5
D7
100
AcDbDictionary
280
     1
  3
ACAD_XREC_ROUNDTRIP
360
D8
  0
DICTIONARY
  5
D4
102
{ACAD_REACTORS
330
D6
102
}
100
AcDbDictionary
  0
DICTIONARY
  5
D5
102
{ACAD_REACTORS
330
D6
102
}
100
AcDbDictionary
  3
STANDARD
350
D9
  0
XRECORD
  5
BB
102
{ACAD_REACTORS
330
BA
102
}
100
AcDbXrecord
340
18
  0
XRECORD
  5
C5
102
{ACAD_REACTORS
330
C4
102
}
100
AcDbXrecord
340
15
  0
XRECORD
  5
C1
102
{ACAD_REACTORS
330
C0
102
}
100
AcDbXrecord
102
UCS
 74
     0
 71
     1
 10
0.0
 20
0.0
 30
0.0
 10
1.0
 20
0.0
 30
0.0
 10
0.0
 20
1.0
 30
0.0
146
0.0
 79
     0
102
VIEW
281
     0
102
NEWVIEWCONTROL
280
     4
  0
XRECORD
  5
D8
102
{ACAD_REACTORS
330
D7
102
}
100
AcDbXrecord
102
EXTNAMES
  1
ACDBVARIABLEDICTIONARY
  2
AcDbVariableDictionary
  0
MLINESTYLE
  5
D9
102
{ACAD_REACTORS
330
D5
102
}
100
AcDbMlineStyle
  2
STANDARD
 70
     0
  3

 62
     0
 51
90.0
 52
90.0
 71
     2
 49
0.5
 62
   256
  6
BYLAYER
 49
-0.5
 62
   256
  6
BYLAYER
  0
ENDSEC
  0
EOF
