  0
SECTION
  2
HEADER
  9
$ACADVER
  1
AC1014
  9
$ACADMAINTVER
 70
     9
  9
$DWGCODEPAGE
  3
ANSI_1252
  9
$INSBASE
 10
0.0
 20
0.0
 30
0.0
  9
$EXTMIN
 10
-0.0823980605451151
 20
0.0006936472578261
 30
0.0
  9
$EXTMAX
 10
16.90445689816077
 20
19.8463037743517
 30
0.0
  9
$LIMMIN
 10
0.0
 20
0.0
  9
$LIMMAX
 10
12.0
 20
9.0
  9
$ORTHOMODE
 70
     1
  9
$REGENMODE
 70
     1
  9
$FILLMODE
 70
     1
  9
$QTEXTMODE
 70
     0
  9
$MIRRTEXT
 70
     0
  9
$DRAGMODE
 70
     2
  9
$LTSCALE
 40
1.5
  9
$OSMODE
 70
     0
  9
$ATTMODE
 70
     1
  9
$TEXTSIZE
 40
0.75
  9
$TRACEWID
 40
0.05
  9
$TEXTSTYLE
  7
STANDARD
  9
$CLAYER
  8
USP
  9
$CELTYPE
  6
BYLAYER
  9
$CECOLOR
 62
   256
  9
$CELTSCALE
 40
1.0
  9
$DELOBJ
 70
     1
  9
$DISPSILH
 70
     1
  9
$DIMSCALE
 40
7.0
  9
$DIMASZ
 40
0.125
  9
$DIMEXO
 40
0.0625
  9
$DIMDLI
 40
0.37890625
  9
$DIMRND
 40
0.0
  9
$DIMDLE
 40
0.0
  9
$DIMEXE
 40
0.09375
  9
$DIMTP
 40
0.0
  9
$DIMTM
 40
0.0
  9
$DIMTXT
 40
0.109375
  9
$DIMCEN
 40
0.0
  9
$DIMTSZ
 40
0.0
  9
$DIMTOL
 70
     0
  9
$DIMLIM
 70
     0
  9
$DIMTIH
 70
     1
  9
$DIMTOH
 70
     1
  9
$DIMSE1
 70
     0
  9
$DIMSE2
 70
     0
  9
$DIMTAD
 70
     0
  9
$DIMZIN
 70
     8
  9
$DIMBLK
  1

  9
$DIMASO
 70
     1
  9
$DIMSHO
 70
     1
  9
$DIMPOST
  1

  9
$DIMAPOST
  1

  9
$DIMALT
 70
     0
  9
$DIMALTD
 70
     2
  9
$DIMALTF
 40
25.4
  9
$DIMLFAC
 40
1.0
  9
$DIMTOFL
 70
     0
  9
$DIMTVP
 40
0.0
  9
$DIMTIX
 70
     0
  9
$DIMSOXD
 70
     0
  9
$DIMSAH
 70
     0
  9
$DIMBLK1
  1

  9
$DIMBLK2
  1

  9
$DIMSTYLE
  2
STANDARD
  9
$DIMCLRD
 70
     0
  9
$DIMCLRE
 70
     0
  9
$DIMCLRT
 70
   256
  9
$DIMTFAC
 40
1.0
  9
$DIMGAP
 40
0.08984375
  9
$DIMJUST
 70
     0
  9
$DIMSD1
 70
     0
  9
$DIMSD2
 70
     0
  9
$DIMTOLJ
 70
     1
  9
$DIMTZIN
 70
     0
  9
$DIMALTZ
 70
     0
  9
$DIMALTTZ
 70
     0
  9
$DIMFIT
 70
     3
  9
$DIMUPT
 70
     1
  9
$DIMUNIT
 70
     7
  9
$DIMDEC
 70
     4
  9
$DIMTDEC
 70
     4
  9
$DIMALTU
 70
     2
  9
$DIMALTTD
 70
     2
  9
$DIMTXSTY
  7
STANDARD
  9
$DIMAUNIT
 70
     0
  9
$LUNITS
 70
     5
  9
$LUPREC
 70
     6
  9
$SKETCHINC
 40
0.1
  9
$FILLETRAD
 40
0.0
  9
$AUNITS
 70
     0
  9
$AUPREC
 70
     1
  9
$MENU
  1
CUSTOM
  9
$ELEVATION
 40
0.0
  9
$PELEVATION
 40
0.0
  9
$THICKNESS
 40
0.0
  9
$LIMCHECK
 70
     0
  9
$BLIPMODE
 70
     0
  9
$CHAMFERA
 40
0.0
  9
$CHAMFERB
 40
0.0
  9
$CHAMFERC
 40
0.0
  9
$CHAMFERD
 40
0.0
  9
$SKPOLY
 70
     0
  9
$TDCREATE
 40
2451263.663231366
  9
$TDUPDATE
 40
2452768.686057939
  9
$TDINDWG
 40
0.4418461921
  9
$TDUSRTIMER
 40
0.4418461921
  9
$USRTIMER
 70
     1
  9
$ANGBASE
 50
0.0
  9
$ANGDIR
 70
     0
  9
$PDMODE
 70
     0
  9
$PDSIZE
 40
0.0
  9
$PLINEWID
 40
0.0
  9
$COORDS
 70
     2
  9
$SPLFRAME
 70
     0
  9
$SPLINETYPE
 70
     6
  9
$SPLINESEGS
 70
     8
  9
$ATTDIA
 70
     0
  9
$ATTREQ
 70
     0
  9
$HANDLING
 70
     1
  9
$HANDSEED
  5
1B2
  9
$SURFTAB1
 70
     6
  9
$SURFTAB2
 70
     6
  9
$SURFTYPE
 70
     6
  9
$SURFU
 70
     6
  9
$SURFV
 70
     6
  9
$UCSNAME
  2

  9
$UCSORG
 10
0.0
 20
0.0
 30
0.0
  9
$UCSXDIR
 10
1.0
 20
0.0
 30
0.0
  9
$UCSYDIR
 10
0.0
 20
1.0
 30
0.0
  9
$PUCSNAME
  2

  9
$PUCSORG
 10
0.0
 20
0.0
 30
0.0
  9
$PUCSXDIR
 10
1.0
 20
0.0
 30
0.0
  9
$PUCSYDIR
 10
0.0
 20
1.0
 30
0.0
  9
$USERI1
 70
     0
  9
$USERI2
 70
     0
  9
$USERI3
 70
     0
  9
$USERI4
 70
     0
  9
$USERI5
 70
     0
  9
$USERR1
 40
0.0
  9
$USERR2
 40
0.0
  9
$USERR3
 40
0.0
  9
$USERR4
 40
0.0
  9
$USERR5
 40
0.0
  9
$WORLDVIEW
 70
     1
  9
$SHADEDGE
 70
     3
  9
$SHADEDIF
 70
    70
  9
$TILEMODE
 70
     1
  9
$MAXACTVP
 70
    16
  9
$PINSBASE
 10
0.0
 20
0.0
 30
0.0
  9
$PLIMCHECK
 70
     0
  9
$PEXTMIN
 10
1.000000000000000E+20
 20
1.000000000000000E+20
 30
1.000000000000000E+20
  9
$PEXTMAX
 10
-1.000000000000000E+20
 20
-1.000000000000000E+20
 30
-1.000000000000000E+20
  9
$PLIMMIN
 10
0.0
 20
0.0
  9
$PLIMMAX
 10
12.0
 20
9.0
  9
$UNITMODE
 70
     0
  9
$VISRETAIN
 70
     0
  9
$PLINEGEN
 70
     0
  9
$PSLTSCALE
 70
     0
  9
$TREEDEPTH
 70
  3020
  9
$PICKSTYLE
 70
     0
  9
$CMLSTYLE
  2
STANDARD
  9
$CMLJUST
 70
     0
  9
$CMLSCALE
 40
1.0
  9
$PROXYGRAPHICS
 70
     1
  9
$MEASUREMENT
 70
     0
  0
ENDSEC
  0
SECTION
  2
CLASSES
  0
CLASS
  1
ACDBDICTIONARYWDFLT
  2
AcDbDictionaryWithDefault
  3
AutoCAD 2000
 90
        0
280
     0
281
     0
  0
CLASS
  1
ACDBPLACEHOLDER
  2
AcDbPlaceHolder
  3
AutoCAD 2000
 90
        0
280
     0
281
     0
  0
CLASS
  1
LAYOUT
  2
AcDbLayout
  3
AutoCAD 2000
 90
        0
280
     0
281
     0
  0
CLASS
  1
DICTIONARYVAR
  2
AcDbDictionaryVar
  3
"AutoCAD"
 90
        0
280
     0
281
     0
  0
CLASS
  1
LONG_TRANSACTION
  2
AcDbLongTransaction
  3
AutoCAD 2000
 90
        0
280
     0
281
     0
  0
CLASS
  1
LWPOLYLINE
  2
AcDbPolyline
  3
"AutoCAD"
 90
        0
280
     0
281
     1
  0
CLASS
  1
HATCH
  2
AcDbHatch
  3
"ACAD_SEDONA"
 90
        0
280
     0
281
     1
  0
CLASS
  1
XRECORD
  2
AcDbXrecord
  3
"<Built In>"
 90
        0
280
     0
281
     0
  0
CLASS
  1
LONG_TRANSACTION
  2
AcDbLongTransaction
  3
AutoCAD 2000
 90
        0
280
     0
281
     0
  0
CLASS
  1
LWPOLYLINE
  2
AcDbPolyline
  3
"AutoCAD"
 90
        0
280
     0
281
     1
  0
CLASS
  1
HATCH
  2
AcDbHatch
  3
"ACAD_SEDONA"
 90
        0
280
     0
281
     1
  0
CLASS
  1
XRECORD
  2
AcDbXrecord
  3
"<Built In>"
 90
        0
280
     0
281
     0
  0
ENDSEC
  0
SECTION
  2
TABLES
  0
TABLE
  2
VPORT
  5
1A2
100
AcDbSymbolTable
 70
     1
  0
VPORT
  5
1A3
100
AcDbSymbolTableRecord
100
AcDbViewportTableRecord
  2
*ACTIVE
 70
     0
 10
0.0
 20
0.0
 11
1.0
 21
1.0
 12
-14.40478655996193
 22
17.61765081969633
 13
0.0
 23
0.0
 14
1.0
 24
1.0
 15
0.0
 25
0.0
 16
0.0
 26
0.0
 36
1.0
 17
23.09603071721725
 27
-10.27010416511325
 37
-10.44050274849355
 40
21.47867547731954
 41
1.457627118644067
 42
50.0
 43
10.55307667737539
 44
10.55307667737539
 50
0.0
 51
0.0
 71
     0
 72
   100
 73
     1
 74
     1
 75
     0
 76
     0
 77
     0
 78
     0
  0
ENDTAB
  0
TABLE
  2
LTYPE
  5
19D
100
AcDbSymbolTable
 70
     1
  0
LTYPE
  5
19E
100
AcDbSymbolTableRecord
100
AcDbLinetypeTableRecord
  2
BYBLOCK
 70
     0
  3

 72
    65
 73
     0
 40
0.0
  0
LTYPE
  5
19F
100
AcDbSymbolTableRecord
100
AcDbLinetypeTableRecord
  2
BYLAYER
 70
     0
  3

 72
    65
 73
     0
 40
0.0
  0
LTYPE
  5
5
100
AcDbSymbolTableRecord
100
AcDbLinetypeTableRecord
  2
CONTINUOUS
 70
     0
  3
Solid line
 72
    65
 73
     0
 40
0.0
  0
ENDTAB
  0
TABLE
  2
LAYER
  5
19B
100
AcDbSymbolTable
 70
     4
  0
LAYER
  5
32
100
AcDbSymbolTableRecord
100
AcDbLayerTableRecord
  2
0
 70
     0
 62
     7
  6
CONTINUOUS
  0
LAYER
  5
8
102
{ACAD_XDICTIONARY
360
9
102
}
100
AcDbSymbolTableRecord
100
AcDbLayerTableRecord
  2
USP-GEO
 70
     0
 62
     7
  6
CONTINUOUS
  0
LAYER
  5
D
102
{ACAD_XDICTIONARY
360
E
102
}
100
AcDbSymbolTableRecord
100
AcDbLayerTableRecord
  2
USP-TXT
 70
     0
 62
     7
  6
CONTINUOUS
  0
LAYER
  5
4
100
AcDbSymbolTableRecord
100
AcDbLayerTableRecord
  2
USP
 70
     0
 62
     7
  6
CONTINUOUS
  0
ENDTAB
  0
TABLE
  2
STYLE
  5
19C
100
AcDbSymbolTable
 70
     1
  0
STYLE
  5
10
100
AcDbSymbolTableRecord
100
AcDbTextStyleTableRecord
  2
STANDARD
 70
     0
 40
0.0
 41
1.0
 50
0.0
 71
     0
 42
0.75
  3
txt
  4

  0
ENDTAB
  0
TABLE
  2
VIEW
  5
1A0
100
AcDbSymbolTable
 70
     0
  0
ENDTAB
  0
TABLE
  2
UCS
  5
1A1
100
AcDbSymbolTable
 70
     0
  0
ENDTAB
  0
TABLE
  2
APPID
  5
1A4
100
AcDbSymbolTable
 70
     1
  0
APPID
  5
1A5
100
AcDbSymbolTableRecord
100
AcDbRegAppTableRecord
  2
ACAD
 70
     0
  0
ENDTAB
  0
TABLE
  2
DIMSTYLE
  5
1A6
100
AcDbSymbolTable
 70
     1
  0
DIMSTYLE
105
1AE
100
AcDbSymbolTableRecord
100
AcDbDimStyleTableRecord
  2
STANDARD
 70
     0
  3

  4

  5

  6

  7

 40
1.0
 41
0.18
 42
0.0625
 43
0.38
 44
0.18
 45
0.0
 46
0.0
 47
0.0
 48
0.0
140
0.18
141
0.09
142
0.0
143
25.4
144
1.0
145
0.0
146
1.0
147
0.09
 71
     0
 72
     0
 73
     1
 74
     1
 75
     0
 76
     0
 77
     0
 78
     0
170
     0
171
     2
172
     0
173
     0
174
     0
175
     0
176
     0
177
     0
178
     0
270
     2
271
     4
272
     4
273
     2
274
     2
340
10
275
     0
280
     0
281
     0
282
     0
283
     1
284
     0
285
     0
286
     0
287
     3
288
     0
  0
ENDTAB
  0
TABLE
  2
BLOCK_RECORD
  5
1
100
AcDbSymbolTable
 70
     3
  0
BLOCK_RECORD
  5
2
102
{ACAD_XDICTIONARY
360
192
102
}
100
AcDbSymbolTableRecord
100
AcDbBlockTableRecord
  2
*MODEL_SPACE
  0
BLOCK_RECORD
  5
196
102
{ACAD_XDICTIONARY
360
197
102
}
100
AcDbSymbolTableRecord
100
AcDbBlockTableRecord
  2
*PAPER_SPACE
  0
BLOCK_RECORD
  5
6
100
AcDbSymbolTableRecord
100
AcDbBlockTableRecord
  2
THDH210-2_T
  0
BLOCK_RECORD
  5
35
100
AcDbSymbolTableRecord
100
AcDbBlockTableRecord
  2
THDH210-2_F
  0
BLOCK_RECORD
  5
12A
100
AcDbSymbolTableRecord
100
AcDbBlockTableRecord
  2
THDH210-2_S
  0
ENDTAB
  0
ENDSEC
  0
SECTION
  2
BLOCKS
  0
BLOCK
  5
194
100
AcDbEntity
  8
0
100
AcDbBlockBegin
  2
*MODEL_SPACE
 70
     0
 10
0.0
 20
0.0
 30
0.0
  3
*MODEL_SPACE
  1

  0
ENDBLK
  5
195
100
AcDbEntity
  8
0
100
AcDbBlockEnd
  0
BLOCK
  5
199
100
AcDbEntity
 67
     1
  8
0
100
AcDbBlockBegin
  2
*PAPER_SPACE
 70
     0
 10
0.0
 20
0.0
 30
0.0
  3
*PAPER_SPACE
  1

  0
ENDBLK
  5
19A
100
AcDbEntity
 67
     1
  8
0
100
AcDbBlockEnd
  0
BLOCK
  5
31
100
AcDbEntity
  8
0
100
AcDbBlockBegin
  2
THDH210-2_T
 70
     0
 10
0.0
 20
0.0
 30
0.0
  3
THDH210-2_T
  1

  0
LWPOLYLINE
  5
7
100
AcDbEntity
  8
USP-GEO
100
AcDbPolyline
 90
        2
 70
   129
 43
0.0
 10
0.0
 20
4.223066739372111
 10
2.616637505961801
 20
4.223066739372111
  0
LWPOLYLINE
  5
B
100
AcDbEntity
  8
USP-GEO
100
AcDbPolyline
 90
       65
 70
   128
 43
0.0
 10
2.497789473896919
 20
3.152444050520973
 10
2.438365457864478
 20
3.132636045176827
 10
2.29970942045545
 20
2.993980007767799
 10
2.260093409767158
 20
2.815707959670476
 10
2.29970942045545
 20
2.636445511305947
 10
2.319517425799599
 20
2.636445511305947
 10
2.319517425799599
 20
2.616637505961801
 10
2.339325431143745
 20
2.596829500617655
 10
2.359133436487891
 20
2.577021495273505
 10
2.398749447176186
 20
2.537405484585214
 10
2.418557452520332
 20
2.517597479241064
 10
2.438365457864478
 20
2.517597479241064
 10
2.497789473896919
 20
2.477981468552773
 10
2.616637505961801
 20
2.477981468552773
 10
2.616637505961801
 20
2.359133436487891
 10
2.616637505961801
 20
2.279901415111304
 10
2.616637505961801
 20
2.240285404423008
 10
2.497789473896919
 20
2.240285404423008
 10
2.497789473896919
 20
2.279901415111304
 10
2.497789473896919
 20
2.359133436487891
 10
2.497789473896919
 20
2.477981468552773
 10
2.497789473896919
 20
2.55721348992936
 10
2.497789473896919
 20
2.596829500617655
 10
2.497789473896919
 20
2.616637505961801
 10
2.497789473896919
 20
4.124026712651378
 10
0.0
 20
4.124026712651378
 10
0.0
 20
4.223066739372111
 10
0.0
 20
4.124026712651378
 10
2.497789473896919
 20
4.124026712651378
 10
2.497789473896919
 20
2.616637505961801
 10
2.497789473896919
 20
2.596829500617655
 10
2.497789473896919
 20
2.55721348992936
 10
2.497789473896919
 20
2.477981468552773
 10
2.497789473896919
 20
2.359133436487891
 10
2.497789473896919
 20
2.279901415111304
 10
2.497789473896919
 20
2.240285404423008
 10
2.497789473896919
 20
2.180861388390567
 10
2.497789473896919
 20
2.002589340293248
 10
2.497789473896919
 20
1.725277265475192
 10
2.497789473896919
 20
2.002589340293248
 10
2.497789473896919
 20
2.180861388390567
 10
2.497789473896919
 20
2.240285404423008
 10
2.616637505961801
 20
2.240285404423008
 10
2.616637505961801
 20
2.180861388390567
 10
2.616637505961801
 20
2.002589340293248
 10
2.616637505961801
 20
1.725277265475192
 10
2.497789473896919
 20
1.725277265475192
 10
2.497789473896919
 20
0.198080053441469
 10
2.497789473896919
 20
0.0990400267207328
 10
2.497789473896919
 20
0.0198080053441459
 10
2.497789473896919
 20
0.0
 10
2.497789473896919
 20
0.0198080053441459
 10
2.497789473896919
 20
0.0990400267207328
 10
2.497789473896919
 20
0.198080053441469
 10
2.616637505961801
 20
0.198080053441469
 10
2.616637505961801
 20
0.0990400267207328
 10
2.616637505961801
 20
0.0198080053441459
 10
2.616637505961801
 20
0.0
 10
2.497789473896919
 20
0.0
 10
2.616637505961801
 20
0.0
 10
2.616637505961801
 20
0.0198080053441459
 10
2.616637505961801
 20
0.0990400267207328
 10
2.616637505961801
 20
0.198080053441469
 10
2.616637505961801
 20
1.725277265475192
 10
2.616637505961801
 20
0.198080053441469
  0
TEXT
  5
C
100
AcDbEntity
  8
USP-TXT
100
AcDbText
 10
1.347353094449052
 20
-1.909856199431871
 30
0.0
 40
0.296875
  1
THDH210-2 - TOP VIEW
 72
     1
 11
4.241884344449051
 21
-1.909856199431871
 31
0.0
100
AcDbText
  0
LWPOLYLINE
  5
11
100
AcDbEntity
  8
USP-GEO
100
AcDbPolyline
 90
       18
 70
   128
 43
0.0
 10
5.055002963826279
 20
0.0594240160324411
 10
5.074810969170428
 20
0.0594240160324411
 10
5.094618974514574
 20
0.0198080053441459
 10
5.11442697985872
 20
0.0
 10
5.867131182936301
 20
0.0
 10
5.966171209657037
 20
0.0
 10
5.966171209657037
 20
0.0198080053441459
 10
5.966171209657037
 20
0.0990400267207328
 10
5.966171209657037
 20
0.198080053441469
 10
5.966171209657037
 20
1.725277265475192
 10
5.966171209657037
 20
2.002589340293248
 10
5.966171209657037
 20
2.180861388390567
 10
5.966171209657037
 20
2.240285404423008
 10
5.867131182936301
 20
2.240285404423008
 10
5.867131182936301
 20
2.180861388390567
 10
5.867131182936301
 20
2.002589340293248
 10
5.867131182936301
 20
1.725277265475192
 10
5.966171209657037
 20
1.725277265475192
  0
LWPOLYLINE
  5
12
100
AcDbEntity
  8
USP-GEO
100
AcDbPolyline
 90
        2
 70
   129
 43
0.0
 10
5.11442697985872
 20
4.005178680586496
 10
5.867131182936301
 20
4.005178680586496
  0
LWPOLYLINE
  5
13
100
AcDbEntity
  8
USP-GEO
100
AcDbPolyline
 90
       20
 70
   128
 43
0.0
 10
5.11442697985872
 20
0.0
 10
5.867131182936301
 20
0.0
 10
5.966171209657037
 20
0.0
 10
5.966171209657037
 20
0.0198080053441459
 10
5.966171209657037
 20
0.0990400267207328
 10
5.966171209657037
 20
0.198080053441469
 10
5.966171209657037
 20
1.725277265475192
 10
5.966171209657037
 20
2.002589340293248
 10
5.966171209657037
 20
2.180861388390567
 10
5.966171209657037
 20
2.240285404423008
 10
5.966171209657037
 20
2.279901415111304
 10
5.966171209657037
 20
2.359133436487891
 10
5.966171209657037
 20
2.477981468552773
 10
5.966171209657037
 20
2.55721348992936
 10
5.966171209657037
 20
2.596829500617655
 10
5.966171209657037
 20
2.616637505961801
 10
5.966171209657037
 20
4.124026712651378
 10
8.463960683553956
 20
4.124026712651378
 10
8.463960683553956
 20
4.223066739372111
 10
5.867131182936301
 20
4.223066739372111
  0
LWPOLYLINE
  5
14
100
AcDbEntity
  8
USP-GEO
100
AcDbPolyline
 90
        2
 70
   128
 43
0.0
 10
2.497789473896919
 20
1.725277265475192
 10
2.497789473896919
 20
0.198080053441469
  0
LWPOLYLINE
  5
15
100
AcDbEntity
  8
USP-GEO
100
AcDbPolyline
 90
        2
 70
   129
 43
0.0
 10
3.370332109306588
 20
0.0
 10
2.616637505961801
 20
0.0
  0
LWPOLYLINE
  5
16
100
AcDbEntity
  8
USP-GEO
100
AcDbPolyline
 90
        2
 70
   129
 43
0.0
 10
4.737084478052722
 20
0.0
 10
3.74668421084538
 20
0.0
  0
LWPOLYLINE
  5
17
100
AcDbEntity
  8
USP-GEO
100
AcDbPolyline
 90
        2
 70
   129
 43
0.0
 10
3.667452189468793
 20
0.0594240160324411
 10
3.429756125339029
 20
0.0594240160324411
  0
LWPOLYLINE
  5
18
100
AcDbEntity
  8
USP-GEO
100
AcDbPolyline
 90
        4
 70
   128
 43
0.0
 10
3.429756125339029
 20
0.0594240160324411
 10
3.390140114650737
 20
0.0594240160324411
 10
3.370332109306588
 20
0.0198080053441459
 10
3.370332109306588
 20
0.0
  0
LWPOLYLINE
  5
19
100
AcDbEntity
  8
USP-GEO
100
AcDbPolyline
 90
        2
 70
   128
 43
0.0
 10
3.390140114650737
 20
0.0594240160324411
 10
3.429756125339029
 20
0.0594240160324411
  0
LWPOLYLINE
  5
1A
100
AcDbEntity
  8
USP-GEO
100
AcDbPolyline
 90
        4
 70
   128
 43
0.0
 10
3.667452189468793
 20
0.0594240160324411
 10
3.707068200157085
 20
0.0594240160324411
 10
3.726876205501234
 20
0.0198080053441459
 10
3.74668421084538
 20
0.0
  0
LWPOLYLINE
  5
1B
100
AcDbEntity
  8
USP-GEO
100
AcDbPolyline
 90
        2
 70
   129
 43
0.0
 10
5.055002963826279
 20
0.0594240160324411
 10
4.796508494085163
 20
0.0594240160324411
  0
LWPOLYLINE
  5
1C
100
AcDbEntity
  8
USP-GEO
100
AcDbPolyline
 90
        4
 70
   128
 43
0.0
 10
4.737084478052722
 20
0.0
 10
4.737084478052722
 20
0.0198080053441459
 10
4.776700488741017
 20
0.0594240160324411
 10
4.796508494085163
 20
0.0594240160324411
  0
LWPOLYLINE
  5
1D
100
AcDbEntity
  8
USP-GEO
100
AcDbPolyline
 90
        2
 70
   128
 43
0.0
 10
4.776700488741017
 20
0.0594240160324411
 10
4.796508494085163
 20
0.0594240160324411
  0
LWPOLYLINE
  5
1E
100
AcDbEntity
  8
USP-GEO
100
AcDbPolyline
 90
        2
 70
   129
 43
0.0
 10
2.616637505961801
 20
4.005178680586496
 10
3.370332109306588
 20
4.005178680586496
  0
LWPOLYLINE
  5
1F
100
AcDbEntity
  8
USP-GEO
100
AcDbPolyline
 90
       11
 70
   128
 43
0.0
 10
2.616637505961801
 20
1.725277265475192
 10
2.616637505961801
 20
2.002589340293248
 10
2.616637505961801
 20
2.180861388390567
 10
2.616637505961801
 20
2.240285404423008
 10
2.616637505961801
 20
2.279901415111304
 10
2.616637505961801
 20
2.359133436487891
 10
2.616637505961801
 20
2.477981468552773
 10
2.616637505961801
 20
2.55721348992936
 10
2.616637505961801
 20
2.596829500617655
 10
2.616637505961801
 20
2.616637505961801
 10
2.616637505961801
 20
4.223066739372111
  0
LWPOLYLINE
  5
20
100
AcDbEntity
  8
USP-GEO
100
AcDbPolyline
 90
        2
 70
   128
 43
0.0
 10
2.616637505961801
 20
2.616637505961801
 10
2.616637505961801
 20
4.223066739372111
  0
LWPOLYLINE
  5
21
100
AcDbEntity
  8
USP-GEO
100
AcDbPolyline
 90
        2
 70
   128
 43
0.0
 10
2.418557452520332
 20
2.517597479241064
 10
2.419547852787541
 20
2.517597479241064
  0
LWPOLYLINE
  5
22
100
AcDbEntity
  8
USP-GEO
100
AcDbPolyline
 90
        4
 70
   128
 43
0.0
 10
2.616637505961801
 20
2.616637505961801
 10
2.616637505961801
 20
2.596829500617655
 10
2.616637505961801
 20
2.55721348992936
 10
2.616637505961801
 20
2.477981468552773
  0
LWPOLYLINE
  5
23
100
AcDbEntity
  8
USP-GEO
100
AcDbPolyline
 90
        2
 70
   129
 43
0.0
 10
2.616637505961801
 20
2.616637505961801
 10
2.497789473896919
 20
2.616637505961801
  0
LWPOLYLINE
  5
24
100
AcDbEntity
  8
USP-GEO
100
AcDbPolyline
 90
        3
 70
   128
 43
0.0
 10
4.737084478052722
 20
3.965562669898201
 10
4.737084478052722
 20
4.005178680586496
 10
3.74668421084538
 20
4.005178680586496
  0
LWPOLYLINE
  5
25
100
AcDbEntity
  8
USP-GEO
100
AcDbPolyline
 90
        8
 70
   128
 43
0.0
 10
4.796508494085163
 20
3.945754664554055
 10
4.776700488741017
 20
3.945754664554055
 10
4.737084478052722
 20
3.965562669898201
 10
4.737084478052722
 20
4.005178680586496
 10
3.74668421084538
 20
4.005178680586496
 10
3.726876205501234
 20
3.965562669898201
 10
3.707068200157085
 20
3.945754664554055
 10
3.667452189468793
 20
3.945754664554055
  0
LWPOLYLINE
  5
26
100
AcDbEntity
  8
USP-GEO
100
AcDbPolyline
 90
        2
 70
   129
 43
0.0
 10
3.429756125339029
 20
3.945754664554055
 10
3.667452189468793
 20
3.945754664554055
  0
LWPOLYLINE
  5
27
100
AcDbEntity
  8
USP-GEO
100
AcDbPolyline
 90
        4
 70
   128
 43
0.0
 10
3.429756125339029
 20
3.945754664554055
 10
3.390140114650737
 20
3.945754664554055
 10
3.370332109306588
 20
3.965562669898201
 10
3.370332109306588
 20
4.005178680586496
  0
LWPOLYLINE
  5
28
100
AcDbEntity
  8
USP-GEO
100
AcDbPolyline
 90
        2
 70
   129
 43
0.0
 10
4.796508494085163
 20
3.945754664554055
 10
5.055002963826279
 20
3.945754664554055
  0
LWPOLYLINE
  5
29
100
AcDbEntity
  8
USP-GEO
100
AcDbPolyline
 90
        4
 70
   128
 43
0.0
 10
5.11442697985872
 20
4.005178680586496
 10
5.094618974514574
 20
3.965562669898201
 10
5.074810969170428
 20
3.945754664554055
 10
5.055002963826279
 20
3.945754664554055
  0
LWPOLYLINE
  5
2A
100
AcDbEntity
  8
USP-GEO
100
AcDbPolyline
 90
       13
 70
   128
 43
0.0
 10
5.867131182936301
 20
4.223066739372111
 10
5.867131182936301
 20
2.616637505961801
 10
5.867131182936301
 20
2.596829500617655
 10
5.867131182936301
 20
2.55721348992936
 10
5.867131182936301
 20
2.477981468552773
 10
5.867131182936301
 20
2.359133436487891
 10
5.867131182936301
 20
2.279901415111304
 10
5.867131182936301
 20
2.240285404423008
 10
5.867131182936301
 20
2.180861388390567
 10
5.867131182936301
 20
2.002589340293248
 10
5.867131182936301
 20
1.725277265475192
 10
5.867131182936301
 20
0.198080053441469
 10
5.867131182936301
 20
0.0990400267207328
  0
LWPOLYLINE
  5
2B
100
AcDbEntity
  8
USP-GEO
100
AcDbPolyline
 90
        2
 70
   128
 43
0.0
 10
5.867131182936301
 20
1.725277265475192
 10
5.867131182936301
 20
0.198080053441469
  0
LWPOLYLINE
  5
2C
100
AcDbEntity
  8
USP-GEO
100
AcDbPolyline
 90
        3
 70
   128
 43
0.0
 10
5.966171209657037
 20
0.198080053441469
 10
5.867131182936301
 20
0.198080053441469
 10
5.867131182936301
 20
0.0990400267207328
  0
LWPOLYLINE
  5
2D
100
AcDbEntity
  8
USP-GEO
100
AcDbPolyline
 90
        4
 70
   129
 43
0.0
 10
5.867131182936301
 20
0.0990400267207328
 10
5.867131182936301
 20
0.0198080053441459
 10
5.867131182936301
 20
0.0
 10
5.867131182936301
 20
0.0198080053441459
  0
LWPOLYLINE
  5
2E
100
AcDbEntity
  8
USP-GEO
100
AcDbPolyline
 90
        6
 70
   129
 43
0.0
 10
5.867131182936301
 20
4.223066739372111
 10
5.867131182936301
 20
2.616637505961801
 10
5.966171209657037
 20
2.616637505961801
 10
5.966171209657037
 20
4.124026712651378
 10
8.463960683553956
 20
4.124026712651378
 10
8.463960683553956
 20
4.223066739372111
  0
LWPOLYLINE
  5
2F
100
AcDbEntity
  8
USP-GEO
100
AcDbPolyline
 90
       27
 70
   128
 43
0.0
 10
5.966171209657037
 20
3.152444050520973
 10
6.045403231033624
 20
3.132636045176827
 10
6.164251263098506
 20
2.993980007767799
 10
6.223675279130947
 20
2.815707959670476
 10
6.164251263098506
 20
2.636445511305947
 10
6.164251263098506
 20
2.616637505961801
 10
6.124635252410211
 20
2.596829500617655
 10
6.104827247066065
 20
2.577021495273505
 10
6.085019241721919
 20
2.537405484585214
 10
6.06521123637777
 20
2.517597479241064
 10
6.045403231033624
 20
2.517597479241064
 10
5.966171209657037
 20
2.477981468552773
 10
5.867131182936301
 20
2.477981468552773
 10
5.867131182936301
 20
2.55721348992936
 10
5.867131182936301
 20
2.596829500617655
 10
5.867131182936301
 20
2.616637505961801
 10
5.966171209657037
 20
2.616637505961801
 10
5.966171209657037
 20
2.596829500617655
 10
5.966171209657037
 20
2.55721348992936
 10
5.966171209657037
 20
2.477981468552773
 10
5.966171209657037
 20
2.359133436487891
 10
5.966171209657037
 20
2.279901415111304
 10
5.966171209657037
 20
2.240285404423008
 10
5.867131182936301
 20
2.240285404423008
 10
5.867131182936301
 20
2.279901415111304
 10
5.867131182936301
 20
2.359133436487891
 10
5.867131182936301
 20
2.477981468552773
  0
LWPOLYLINE
  5
30
100
AcDbEntity
  8
USP-GEO
100
AcDbPolyline
 90
        2
 70
   128
 43
0.0
 10
6.045403231033624
 20
2.517597479241064
 10
6.04639363130083
 20
2.517597479241064
  0
ENDBLK
  5
33
100
AcDbEntity
  8
0
100
AcDbBlockEnd
  0
BLOCK
  5
127
100
AcDbEntity
  8
0
100
AcDbBlockBegin
  2
THDH210-2_F
 70
     0
 10
0.0
 20
0.0
 30
0.0
  3
THDH210-2_F
  1

  0
LWPOLYLINE
  5
36
100
AcDbEntity
  8
USP-GEO
100
AcDbPolyline
 90
       52
 70
   128
 43
0.0
 10
2.616637505961801
 20
0.1188480320648821
 10
2.616637505961801
 20
0.2971200801622054
 10
2.616637505961801
 20
0.4753921282595251
 10
2.616637505961801
 20
0.6536641763568483
 10
2.616637505961801
 20
0.812128219110022
 10
2.616637505961801
 20
2.477981468552775
 10
2.616637505961801
 20
2.874141575435713
 10
2.616637505961801
 20
3.350524103962444
 10
2.616637505961801
 20
3.825916232221969
 10
2.616637505961801
 20
4.619226846255051
 10
2.616637505961801
 20
4.777690889008226
 10
2.616637505961801
 20
4.936154931761402
 10
2.616637505961801
 20
5.035194958482135
 10
2.616637505961801
 20
5.115417380125931
 10
2.616637505961801
 20
5.194649401502518
 10
2.616637505961801
 20
5.313497433567398
 10
2.616637505961801
 20
5.610617513729602
 10
2.616637505961801
 20
5.729465545794484
 10
2.616637505961801
 20
5.808697567171071
 10
2.616637505961801
 20
5.887929588547658
 10
2.616637505961801
 20
5.986969615268392
 10
2.616637505961801
 20
6.145433658021568
 10
2.616637505961801
 20
6.304888101041949
 10
2.616637505961801
 20
6.502968154483419
 10
2.616637505961801
 20
6.661432197236594
 10
2.616637505961801
 20
6.800088234645622
 10
2.616637505961801
 20
6.918936266710502
 10
2.616637505961801
 20
6.978360282742944
 10
2.616637505961801
 20
7.077400309463678
 10
2.616637505961801
 20
7.176440336184413
 10
2.616637505961801
 20
7.49435882195797
 10
2.616637505961801
 20
7.593398848678704
 10
2.616637505961801
 20
7.692438875399439
 10
2.616637505961801
 20
7.751862891431878
 10
2.616637505961801
 20
7.87071092349676
 10
2.616637505961801
 20
8.009366960905788
 10
2.616637505961801
 20
8.18763900900311
 10
2.616637505961801
 20
8.366901457367639
 10
2.616637505961801
 20
8.54517350546496
 10
2.616637505961801
 20
8.683829542873988
 10
2.616637505961801
 20
8.80267757493887
 10
2.616637505961801
 20
8.862101590971311
 10
2.616637505961801
 20
8.961141617692044
 10
2.616637505961801
 20
9.060181644412779
 10
2.616637505961801
 20
9.378100130186336
 10
2.497789473896919
 20
9.378100130186336
 10
0.0
 20
9.378100130186336
 10
0.0
 20
9.060181644412779
 10
0.0198080053441476
 20
8.961141617692044
 10
0.0802224216437946
 20
8.862101590971311
 10
0.1594544430203815
 20
8.80267757493887
 10
0.2783024750852636
 20
8.683829542873988
  0
LWPOLYLINE
  5
37
100
AcDbEntity
  8
USP-GEO
100
AcDbPolyline
 90
        3
 70
   128
 43
0.0
 10
2.497789473896919
 20
9.378100130186336
 10
0.0
 20
9.378100130186336
 10
0.0
 20
9.060181644412779
  0
LWPOLYLINE
  5
38
100
AcDbEntity
  8
USP-GEO
100
AcDbPolyline
 90
       10
 70
   128
 43
0.0
 10
0.1594544430203815
 20
5.887929588547658
 10
0.0802224216437946
 20
5.808697567171071
 10
0.0198080053441476
 20
5.729465545794484
 10
0.0
 20
5.610617513729602
 10
0.0
 20
5.313497433567398
 10
0.0198080053441476
 20
5.194649401502518
 10
0.0802224216437946
 20
5.115417380125931
 10
0.1594544430203815
 20
5.035194958482135
 10
0.2783024750852636
 20
4.936154931761402
 10
0.3575344964618505
 20
4.777690889008226
  0
LWPOLYLINE
  5
39
100
AcDbEntity
  8
USP-GEO
100
AcDbPolyline
 90
       10
 70
   128
 43
0.0
 10
0.2783024750852636
 20
6.800088234645622
 10
0.1594544430203815
 20
6.918936266710502
 10
0.0802224216437946
 20
6.978360282742944
 10
0.0198080053441476
 20
7.077400309463678
 10
0.0
 20
7.176440336184413
 10
0.0
 20
7.49435882195797
 10
0.0198080053441476
 20
7.593398848678704
 10
0.0802224216437946
 20
7.692438875399439
 10
0.1594544430203815
 20
7.751862891431878
 10
0.2783024750852636
 20
7.87071092349676
  0
LWPOLYLINE
  5
3A
100
AcDbEntity
  8
USP-GEO
100
AcDbPolyline
 90
        2
 70
   128
 43
0.0
 10
0.0
 20
5.610617513729602
 10
0.0
 20
5.313497433567398
  0
LWPOLYLINE
  5
3B
100
AcDbEntity
  8
USP-GEO
100
AcDbPolyline
 90
        2
 70
   128
 43
0.0
 10
0.0
 20
7.49435882195797
 10
0.0
 20
7.176440336184413
  0
LWPOLYLINE
  5
3C
100
AcDbEntity
  8
USP-GEO
100
AcDbPolyline
 90
       42
 70
   128
 43
0.0
 10
5.867131182936301
 20
8.862101590971311
 10
5.867131182936301
 20
8.80267757493887
 10
5.867131182936301
 20
8.683829542873988
 10
5.867131182936301
 20
8.54517350546496
 10
5.867131182936301
 20
8.366901457367639
 10
5.867131182936301
 20
8.18763900900311
 10
5.867131182936301
 20
8.009366960905788
 10
5.867131182936301
 20
7.87071092349676
 10
5.867131182936301
 20
7.751862891431878
 10
5.867131182936301
 20
7.692438875399439
 10
5.867131182936301
 20
7.593398848678704
 10
5.867131182936301
 20
7.49435882195797
 10
5.867131182936301
 20
7.176440336184413
 10
5.867131182936301
 20
7.077400309463678
 10
5.867131182936301
 20
6.978360282742944
 10
5.867131182936301
 20
6.918936266710502
 10
5.867131182936301
 20
6.800088234645622
 10
5.867131182936301
 20
6.661432197236594
 10
5.867131182936301
 20
6.502968154483419
 10
5.867131182936301
 20
6.304888101041949
 10
5.867131182936301
 20
6.145433658021568
 10
5.867131182936301
 20
5.986969615268392
 10
5.867131182936301
 20
5.887929588547658
 10
5.867131182936301
 20
5.808697567171071
 10
5.867131182936301
 20
5.729465545794484
 10
5.867131182936301
 20
5.610617513729602
 10
5.867131182936301
 20
5.313497433567398
 10
5.867131182936301
 20
5.194649401502518
 10
5.867131182936301
 20
5.115417380125931
 10
5.867131182936301
 20
5.035194958482135
 10
5.867131182936301
 20
4.936154931761402
 10
5.867131182936301
 20
4.777690889008226
 10
5.867131182936301
 20
4.619226846255051
 10
5.867131182936301
 20
3.825916232221969
 10
5.867131182936301
 20
3.350524103962444
 10
5.867131182936301
 20
2.874141575435713
 10
5.867131182936301
 20
2.477981468552775
 10
5.867131182936301
 20
0.812128219110022
 10
5.867131182936301
 20
0.6536641763568483
 10
5.867131182936301
 20
0.4753921282595251
 10
5.867131182936301
 20
0.2971200801622054
 10
5.867131182936301
 20
0.1188480320648821
  0
LWPOLYLINE
  5
3D
100
AcDbEntity
  8
USP-GEO
100
AcDbPolyline
 90
        3
 70
   128
 43
0.0
 10
0.3575344964618505
 20
8.54517350546496
 10
0.3773425018059981
 20
8.366901457367639
 10
0.3773425018059981
 20
8.18763900900311
  0
LWPOLYLINE
  5
3E
100
AcDbEntity
  8
USP-GEO
100
AcDbPolyline
 90
        6
 70
   128
 43
0.0
 10
0.2783024750852636
 20
8.683829542873988
 10
0.3575344964618505
 20
8.54517350546496
 10
0.3773425018059981
 20
8.366901457367639
 10
0.3773425018059981
 20
8.18763900900311
 10
0.3575344964618505
 20
8.009366960905788
 10
0.2783024750852636
 20
7.87071092349676
  0
LWPOLYLINE
  5
3F
100
AcDbEntity
  8
USP-GEO
100
AcDbPolyline
 90
       14
 70
   128
 43
0.0
 10
1.923357318916661
 20
8.327285446679345
 10
1.962973329604952
 20
8.347093452023491
 10
2.141245377702276
 20
8.347093452023491
 10
2.180861388390571
 20
8.327285446679345
 10
2.220477399078863
 20
8.307477441335198
 10
2.220477399078863
 20
8.267861430646904
 10
2.220477399078863
 20
8.207447014347257
 10
2.180861388390571
 20
8.18763900900311
 10
2.141245377702276
 20
8.167831003658962
 10
1.962973329604952
 20
8.167831003658962
 10
1.923357318916661
 20
8.18763900900311
 10
1.903549313572515
 20
8.207447014347257
 10
1.883741308228366
 20
8.267861430646904
 10
1.903549313572515
 20
8.307477441335198
  0
LWPOLYLINE
  5
40
100
AcDbEntity
  8
USP-GEO
100
AcDbPolyline
 90
        4
 70
   128
 43
0.0
 10
2.497789473896919
 20
8.366901457367639
 10
2.497789473896919
 20
8.18763900900311
 10
2.616637505961801
 20
8.18763900900311
 10
2.616637505961801
 20
8.366901457367639
  0
LWPOLYLINE
  5
41
100
AcDbEntity
  8
USP-GEO
100
AcDbPolyline
 90
        3
 70
   128
 43
0.0
 10
8.126234192436253
 20
8.009366960905788
 10
8.086618181747958
 20
8.18763900900311
 10
8.086618181747958
 20
8.366901457367639
  0
LWPOLYLINE
  5
42
100
AcDbEntity
  8
USP-GEO
100
AcDbPolyline
 90
       14
 70
   128
 43
0.0
 10
6.243483284475093
 20
8.327285446679345
 10
6.263291289819239
 20
8.366901457367639
 10
6.283099295163385
 20
8.386709462711786
 10
6.32271530585168
 20
8.406517468055932
 10
6.500987353949003
 20
8.406517468055932
 10
6.540603364637295
 20
8.386709462711786
 10
6.58021937532559
 20
8.366901457367639
 10
6.58021937532559
 20
8.327285446679345
 10
6.58021937532559
 20
8.287669435991052
 10
6.540603364637295
 20
8.247063025035551
 10
6.500987353949003
 20
8.227255019691403
 10
6.32271530585168
 20
8.227255019691403
 10
6.283099295163385
 20
8.247063025035551
 10
6.263291289819239
 20
8.287669435991052
  0
LWPOLYLINE
  5
43
100
AcDbEntity
  8
USP-GEO
100
AcDbPolyline
 90
       39
 70
   128
 43
0.0
 10
7.848922117618197
 20
2.874141575435713
 10
8.027194165715517
 20
3.350524103962444
 10
8.086618181747958
 20
3.825916232221969
 10
8.086618181747958
 20
4.619226846255051
 10
8.126234192436253
 20
4.777690889008226
 10
8.20546621381284
 20
4.936154931761402
 10
8.325304646144928
 20
5.035194958482135
 10
8.404536667521515
 20
5.115417380125931
 10
8.44415267820981
 20
5.194649401502518
 10
8.463960683553956
 20
5.313497433567398
 10
8.463960683553956
 20
5.610617513729602
 10
8.44415267820981
 20
5.729465545794484
 10
8.404536667521515
 20
5.808697567171071
 10
8.325304646144928
 20
5.887929588547658
 10
8.20546621381284
 20
5.986969615268392
 10
8.126234192436253
 20
6.145433658021568
 10
8.086618181747958
 20
6.304888101041949
 10
8.086618181747958
 20
6.502968154483419
 10
8.126234192436253
 20
6.661432197236594
 10
8.20546621381284
 20
6.800088234645622
 10
8.325304646144928
 20
6.918936266710502
 10
8.404536667521515
 20
6.978360282742944
 10
8.44415267820981
 20
7.077400309463678
 10
8.463960683553956
 20
7.176440336184413
 10
8.463960683553956
 20
7.49435882195797
 10
8.44415267820981
 20
7.593398848678704
 10
8.404536667521515
 20
7.692438875399439
 10
8.325304646144928
 20
7.751862891431878
 10
8.20546621381284
 20
7.87071092349676
 10
8.126234192436253
 20
8.009366960905788
 10
8.086618181747958
 20
8.18763900900311
 10
8.086618181747958
 20
8.366901457367639
 10
8.126234192436253
 20
8.54517350546496
 10
8.20546621381284
 20
8.683829542873988
 10
8.325304646144928
 20
8.80267757493887
 10
8.404536667521515
 20
8.862101590971311
 10
8.44415267820981
 20
8.961141617692044
 10
8.463960683553956
 20
9.060181644412779
 10
8.463960683553956
 20
9.378100130186336
  0
LWPOLYLINE
  5
44
100
AcDbEntity
  8
USP-GEO
100
AcDbPolyline
 90
        4
 70
   128
 43
0.0
 10
5.966171209657037
 20
8.18763900900311
 10
5.966171209657037
 20
8.366901457367639
 10
5.867131182936301
 20
8.366901457367639
 10
5.867131182936301
 20
8.18763900900311
  0
LWPOLYLINE
  5
45
100
AcDbEntity
  8
USP-GEO
100
AcDbPolyline
 90
       45
 70
   128
 43
0.0
 10
2.497789473896919
 20
9.378100130186336
 10
2.497789473896919
 20
9.060181644412779
 10
2.497789473896919
 20
8.961141617692044
 10
2.497789473896919
 20
8.862101590971311
 10
2.497789473896919
 20
8.80267757493887
 10
2.497789473896919
 20
8.683829542873988
 10
2.497789473896919
 20
8.54517350546496
 10
2.497789473896919
 20
8.366901457367639
 10
2.497789473896919
 20
8.18763900900311
 10
2.497789473896919
 20
8.009366960905788
 10
2.497789473896919
 20
7.87071092349676
 10
2.497789473896919
 20
7.751862891431878
 10
2.497789473896919
 20
7.692438875399439
 10
2.497789473896919
 20
7.593398848678704
 10
2.497789473896919
 20
7.49435882195797
 10
2.497789473896919
 20
7.176440336184413
 10
2.497789473896919
 20
7.077400309463678
 10
2.497789473896919
 20
6.978360282742944
 10
2.497789473896919
 20
6.918936266710502
 10
2.497789473896919
 20
6.800088234645622
 10
2.497789473896919
 20
6.661432197236594
 10
2.497789473896919
 20
6.502968154483419
 10
2.497789473896919
 20
6.304888101041949
 10
2.497789473896919
 20
6.145433658021568
 10
2.497789473896919
 20
5.986969615268392
 10
2.497789473896919
 20
5.887929588547658
 10
2.497789473896919
 20
5.808697567171071
 10
2.497789473896919
 20
5.729465545794484
 10
2.497789473896919
 20
5.610617513729602
 10
2.497789473896919
 20
5.313497433567398
 10
2.497789473896919
 20
5.194649401502518
 10
2.497789473896919
 20
5.115417380125931
 10
2.497789473896919
 20
5.035194958482135
 10
2.497789473896919
 20
4.936154931761402
 10
2.497789473896919
 20
4.777690889008226
 10
2.497789473896919
 20
4.619226846255051
 10
2.497789473896919
 20
3.825916232221969
 10
2.497789473896919
 20
3.350524103962444
 10
2.497789473896919
 20
2.874141575435713
 10
2.497789473896919
 20
2.477981468552775
 10
2.497789473896919
 20
0.812128219110022
 10
2.497789473896919
 20
0.6536641763568483
 10
2.497789473896919
 20
0.4753921282595251
 10
2.497789473896919
 20
0.2971200801622054
 10
2.497789473896919
 20
0.0
  0
LWPOLYLINE
  5
46
100
AcDbEntity
  8
USP-GEO
100
AcDbPolyline
 90
       44
 70
   128
 43
0.0
 10
5.966171209657037
 20
0.2971200801622054
 10
5.966171209657037
 20
0.4753921282595251
 10
5.966171209657037
 20
0.6536641763568483
 10
5.966171209657037
 20
0.812128219110022
 10
5.966171209657037
 20
2.477981468552775
 10
5.966171209657037
 20
2.874141575435713
 10
5.966171209657037
 20
3.350524103962444
 10
5.966171209657037
 20
3.825916232221969
 10
5.966171209657037
 20
4.619226846255051
 10
5.966171209657037
 20
4.777690889008226
 10
5.966171209657037
 20
4.936154931761402
 10
5.966171209657037
 20
5.035194958482135
 10
5.966171209657037
 20
5.115417380125931
 10
5.966171209657037
 20
5.194649401502518
 10
5.966171209657037
 20
5.313497433567398
 10
5.966171209657037
 20
5.610617513729602
 10
5.966171209657037
 20
5.729465545794484
 10
5.966171209657037
 20
5.808697567171071
 10
5.966171209657037
 20
5.887929588547658
 10
5.966171209657037
 20
5.986969615268392
 10
5.966171209657037
 20
6.145433658021568
 10
5.966171209657037
 20
6.304888101041949
 10
5.966171209657037
 20
6.502968154483419
 10
5.966171209657037
 20
6.661432197236594
 10
5.966171209657037
 20
6.800088234645622
 10
5.966171209657037
 20
6.918936266710502
 10
5.966171209657037
 20
6.978360282742944
 10
5.966171209657037
 20
7.077400309463678
 10
5.966171209657037
 20
7.176440336184413
 10
5.966171209657037
 20
7.49435882195797
 10
5.966171209657037
 20
7.593398848678704
 10
5.966171209657037
 20
7.692438875399439
 10
5.966171209657037
 20
7.751862891431878
 10
5.966171209657037
 20
7.87071092349676
 10
5.966171209657037
 20
8.009366960905788
 10
5.966171209657037
 20
8.18763900900311
 10
5.966171209657037
 20
8.366901457367639
 10
5.966171209657037
 20
8.54517350546496
 10
5.966171209657037
 20
8.683829542873988
 10
5.966171209657037
 20
8.80267757493887
 10
5.966171209657037
 20
8.862101590971311
 10
5.966171209657037
 20
8.961141617692044
 10
5.966171209657037
 20
9.060181644412779
 10
5.966171209657037
 20
9.378100130186336
  0
LWPOLYLINE
  5
47
100
AcDbEntity
  8
USP-GEO
100
AcDbPolyline
 90
       12
 70
   129
 43
0.0
 10
6.164251263098506
 20
8.247063025035551
 10
6.164251263098506
 20
8.287669435991052
 10
6.124635252410211
 20
8.307477441335198
 10
6.104827247066065
 20
8.327285446679345
 10
6.085019241721919
 20
8.307477441335198
 10
6.06521123637777
 20
8.287669435991052
 10
6.045403231033624
 20
8.247063025035551
 10
6.06521123637777
 20
8.207447014347257
 10
6.085019241721919
 20
8.167831003658962
 10
6.104827247066065
 20
8.167831003658962
 10
6.124635252410211
 20
8.167831003658962
 10
6.164251263098506
 20
8.207447014347257
  0
LWPOLYLINE
  5
48
100
AcDbEntity
  8
USP-GEO
100
AcDbPolyline
 90
        5
 70
   128
 43
0.0
 10
6.06521123637777
 20
8.287669435991052
 10
6.085019241721919
 20
8.287669435991052
 10
6.085019241721919
 20
8.247063025035551
 10
6.085019241721919
 20
8.207447014347257
 10
6.06521123637777
 20
8.18763900900311
  0
LWPOLYLINE
  5
49
100
AcDbEntity
  8
USP-GEO
100
AcDbPolyline
 90
        7
 70
   128
 43
0.0
 10
5.966171209657037
 20
7.910326934185054
 10
6.045403231033624
 20
7.9301349395292
 10
6.164251263098506
 20
8.068790976938229
 10
6.223675279130947
 20
8.247063025035551
 10
6.164251263098506
 20
8.42632547340008
 10
6.045403231033624
 20
8.54517350546496
 10
5.966171209657037
 20
8.584789516153254
  0
LWPOLYLINE
  5
4A
100
AcDbEntity
  8
USP-GEO
100
AcDbPolyline
 90
        7
 70
   128
 43
0.0
 10
2.497789473896919
 20
8.763061564250577
 10
2.438365457864478
 20
8.743253558906429
 10
2.29970942045545
 20
8.604597521497401
 10
2.260093409767158
 20
8.42632547340008
 10
2.29970942045545
 20
8.247063025035551
 10
2.438365457864478
 20
8.128214992970669
 10
2.497789473896919
 20
8.088598982282375
  0
TEXT
  5
4B
100
AcDbEntity
  8
USP-TXT
100
AcDbText
 10
1.050478094449051
 20
-1.664832421968668
 30
0.0
 40
0.296875
  1
THDH210-2 - FRONT VIEW
 72
     1
 11
4.241884344449051
 21
-1.664832421968668
 31
0.0
100
AcDbText
  0
LWPOLYLINE
  5
4C
100
AcDbEntity
  8
USP-GEO
100
AcDbPolyline
 90
       15
 70
   128
 43
0.0
 10
5.966171209657037
 20
0.0
 10
5.11442697985872
 20
0.0
 10
5.094618974514574
 20
0.0
 10
5.074810969170428
 20
0.0
 10
5.055002963826279
 20
0.0
 10
4.796508494085163
 20
0.0
 10
4.776700488741017
 20
0.0
 10
4.737084478052722
 20
0.0
 10
3.74668421084538
 20
0.0
 10
3.726876205501234
 20
0.0
 10
3.707068200157085
 20
0.0
 10
3.667452189468793
 20
0.0
 10
3.429756125339029
 20
0.0
 10
3.390140114650737
 20
0.0
 10
3.370332109306588
 20
0.0
  0
LWPOLYLINE
  5
4D
100
AcDbEntity
  8
USP-GEO
100
AcDbPolyline
 90
        2
 70
   128
 43
0.0
 10
5.11442697985872
 20
0.0
 10
5.966171209657037
 20
0.0
  0
LWPOLYLINE
  5
4E
100
AcDbEntity
  8
USP-GEO
100
AcDbPolyline
 90
        2
 70
   128
 43
0.0
 10
5.867131182936301
 20
0.1188480320648821
 10
5.11442697985872
 20
0.1188480320648821
  0
LWPOLYLINE
  5
4F
100
AcDbEntity
  8
USP-GEO
100
AcDbPolyline
 90
       25
 70
   128
 43
0.0
 10
5.867131182936301
 20
0.2971200801622054
 10
5.867131182936301
 20
0.4753921282595251
 10
5.867131182936301
 20
0.6536641763568483
 10
5.867131182936301
 20
0.812128219110022
 10
5.966171209657037
 20
0.812128219110022
 10
5.966171209657037
 20
0.6536641763568483
 10
5.966171209657037
 20
0.4753921282595251
 10
5.966171209657037
 20
0.2971200801622054
 10
5.867131182936301
 20
0.2971200801622054
 10
5.867131182936301
 20
0.1188480320648821
 10
5.11442697985872
 20
0.1188480320648821
 10
5.094618974514574
 20
0.1188480320648821
 10
5.074810969170428
 20
0.1188480320648821
 10
5.055002963826279
 20
0.1188480320648821
 10
4.796508494085163
 20
0.1188480320648821
 10
4.776700488741017
 20
0.1188480320648821
 10
4.737084478052722
 20
0.1188480320648821
 10
3.74668421084538
 20
0.1188480320648821
 10
3.726876205501234
 20
0.1188480320648821
 10
3.707068200157085
 20
0.1188480320648821
 10
3.667452189468793
 20
0.1188480320648821
 10
3.429756125339029
 20
0.1188480320648821
 10
3.390140114650737
 20
0.1188480320648821
 10
3.370332109306588
 20
0.1188480320648821
 10
2.616637505961801
 20
0.1188480320648821
  0
LWPOLYLINE
  5
50
100
AcDbEntity
  8
USP-GEO
100
AcDbPolyline
 90
        2
 70
   128
 43
0.0
 10
0.9121586460979642
 20
2.477981468552775
 10
2.418557452520332
 20
0.812128219110022
  0
LWPOLYLINE
  5
51
100
AcDbEntity
  8
USP-GEO
100
AcDbPolyline
 90
        7
 70
   128
 43
0.0
 10
0.3575344964618505
 20
4.777690889008226
 10
0.3773425018059981
 20
4.619226846255051
 10
0.3773425018059981
 20
3.825916232221969
 10
0.4367665178384393
 20
3.350524103962444
 10
0.6150385659357589
 20
2.874141575435713
 10
0.9121586460979642
 20
2.477981468552775
 10
2.418557452520332
 20
0.812128219110022
  0
LWPOLYLINE
  5
52
100
AcDbEntity
  8
USP-GEO
100
AcDbPolyline
 90
        5
 70
   128
 43
0.0
 10
2.497789473896919
 20
2.477981468552775
 10
2.497789473896919
 20
0.812128219110022
 10
2.497789473896919
 20
0.6536641763568483
 10
2.497789473896919
 20
0.4753921282595251
 10
2.497789473896919
 20
0.2971200801622054
  0
LWPOLYLINE
  5
53
100
AcDbEntity
  8
USP-GEO
100
AcDbPolyline
 90
        3
 70
   128
 43
0.0
 10
2.616637505961801
 20
2.477981468552775
 10
2.616637505961801
 20
0.812128219110022
 10
2.497789473896919
 20
0.812128219110022
  0
LWPOLYLINE
  5
54
100
AcDbEntity
  8
USP-GEO
100
AcDbPolyline
 90
        3
 70
   128
 43
0.0
 10
2.497789473896919
 20
0.0
 10
3.370332109306588
 20
0.0
 10
3.371322509573797
 20
0.0
  0
LWPOLYLINE
  5
55
100
AcDbEntity
  8
USP-GEO
100
AcDbPolyline
 90
        6
 70
   129
 43
0.0
 10
3.370332109306588
 20
0.1188480320648821
 10
2.616637505961801
 20
0.1188480320648821
 10
2.616637505961801
 20
0.2971200801622054
 10
2.497789473896919
 20
0.2971200801622054
 10
2.497789473896919
 20
0.0
 10
3.370332109306588
 20
0.0
  0
LWPOLYLINE
  5
56
100
AcDbEntity
  8
USP-GEO
100
AcDbPolyline
 90
        4
 70
   128
 43
0.0
 10
2.616637505961801
 20
0.2971200801622054
 10
2.616637505961801
 20
0.4753921282595251
 10
2.616637505961801
 20
0.6536641763568483
 10
2.616637505961801
 20
0.812128219110022
  0
LWPOLYLINE
  5
57
100
AcDbEntity
  8
USP-GEO
100
AcDbPolyline
 90
        5
 70
   128
 43
0.0
 10
2.398749447176186
 20
1.248894736948461
 10
2.398749447176186
 20
1.268702742292607
 10
2.37894144183204
 20
1.308318752980902
 10
2.398749447176186
 20
1.347934763669197
 10
2.399739847443392
 20
1.347934763669197
  0
LWPOLYLINE
  5
58
100
AcDbEntity
  8
USP-GEO
100
AcDbPolyline
 90
        5
 70
   128
 43
0.0
 10
2.438365457864478
 20
0.9913906674745511
 10
2.29970942045545
 20
1.130046704883579
 10
2.260093409767158
 20
1.308318752980902
 10
2.29970942045545
 20
1.486590801078225
 10
2.438365457864478
 20
1.605438833143104
  0
LWPOLYLINE
  5
59
100
AcDbEntity
  8
USP-GEO
100
AcDbPolyline
 90
       12
 70
   129
 43
0.0
 10
2.418557452520332
 20
1.268702742292607
 10
2.398749447176186
 20
1.229086731604315
 10
2.359133436487891
 20
1.229086731604315
 10
2.339325431143745
 20
1.229086731604315
 10
2.319517425799599
 20
1.268702742292607
 10
2.319517425799599
 20
1.308318752980902
 10
2.319517425799599
 20
1.347934763669197
 10
2.339325431143745
 20
1.367742769013343
 10
2.359133436487891
 20
1.387550774357489
 10
2.398749447176186
 20
1.367742769013343
 10
2.418557452520332
 20
1.347934763669197
 10
2.418557452520332
 20
1.308318752980902
  0
LWPOLYLINE
  5
5A
100
AcDbEntity
  8
USP-GEO
100
AcDbPolyline
 90
        4
 70
   128
 43
0.0
 10
2.497789473896919
 20
0.7130881923892894
 10
2.477981468552773
 20
0.7527042030775811
 10
2.458173463208627
 20
0.7923202137658763
 10
2.418557452520332
 20
0.812128219110022
  0
LWPOLYLINE
  5
5B
100
AcDbEntity
  8
USP-GEO
100
AcDbPolyline
 90
        2
 70
   128
 43
0.0
 10
2.438365457864478
 20
0.9913906674745511
 10
2.497789473896919
 20
0.9715826621304053
  0
LWPOLYLINE
  5
5C
100
AcDbEntity
  8
USP-GEO
100
AcDbPolyline
 90
        7
 70
   128
 43
0.0
 10
2.37894144183204
 20
1.546014817110663
 10
2.339325431143745
 20
1.565822822454812
 10
2.339325431143745
 20
1.605438833143104
 10
2.339325431143745
 20
1.664862849175545
 10
2.37894144183204
 20
1.684670854519694
 10
2.418557452520332
 20
1.70447885986384
 10
2.497789473896919
 20
1.70447885986384
  0
LWPOLYLINE
  5
5D
100
AcDbEntity
  8
USP-GEO
100
AcDbPolyline
 90
        2
 70
   128
 43
0.0
 10
2.497789473896919
 20
1.645054843831399
 10
2.438365457864478
 20
1.605438833143104
  0
LWPOLYLINE
  5
5E
100
AcDbEntity
  8
USP-GEO
100
AcDbPolyline
 90
        2
 70
   128
 43
0.0
 10
2.418557452520332
 20
1.70447885986384
 10
2.497789473896919
 20
1.70447885986384
  0
LWPOLYLINE
  5
5F
100
AcDbEntity
  8
USP-GEO
100
AcDbPolyline
 90
        4
 70
   128
 43
0.0
 10
3.74668421084538
 20
0.0
 10
4.737084478052722
 20
0.0
 10
4.737084478052722
 20
0.1188480320648821
 10
3.74668421084538
 20
0.1188480320648821
  0
LWPOLYLINE
  5
60
100
AcDbEntity
  8
USP-GEO
100
AcDbPolyline
 90
        4
 70
   128
 43
0.0
 10
3.429756125339029
 20
0.0
 10
3.667452189468793
 20
0.0
 10
3.667452189468793
 20
0.1188480320648821
 10
3.429756125339029
 20
0.1188480320648821
  0
LWPOLYLINE
  5
61
100
AcDbEntity
  8
USP-GEO
100
AcDbPolyline
 90
        8
 70
   128
 43
0.0
 10
3.371322509573797
 20
0.1188480320648821
 10
3.370332109306588
 20
0.1188480320648821
 10
3.390140114650737
 20
0.1188480320648821
 10
3.429756125339029
 20
0.1188480320648821
 10
3.429756125339029
 20
0.0
 10
3.390140114650737
 20
0.0
 10
3.370332109306588
 20
0.0
 10
3.371322509573797
 20
0.0
  0
LWPOLYLINE
  5
62
100
AcDbEntity
  8
USP-GEO
100
AcDbPolyline
 90
        8
 70
   128
 43
0.0
 10
3.667452189468793
 20
0.1188480320648821
 10
3.707068200157085
 20
0.1188480320648821
 10
3.726876205501234
 20
0.1188480320648821
 10
3.74668421084538
 20
0.1188480320648821
 10
3.74668421084538
 20
0.0
 10
3.726876205501234
 20
0.0
 10
3.707068200157085
 20
0.0
 10
3.667452189468793
 20
0.0
  0
LWPOLYLINE
  5
63
100
AcDbEntity
  8
USP-GEO
100
AcDbPolyline
 90
        4
 70
   128
 43
0.0
 10
4.796508494085163
 20
0.0
 10
5.055002963826279
 20
0.0
 10
5.055002963826279
 20
0.1188480320648821
 10
4.796508494085163
 20
0.1188480320648821
  0
LWPOLYLINE
  5
64
100
AcDbEntity
  8
USP-GEO
100
AcDbPolyline
 90
        7
 70
   128
 43
0.0
 10
4.738074878319931
 20
0.1188480320648821
 10
4.737084478052722
 20
0.1188480320648821
 10
4.776700488741017
 20
0.1188480320648821
 10
4.796508494085163
 20
0.1188480320648821
 10
4.796508494085163
 20
0.0
 10
4.776700488741017
 20
0.0
 10
4.737084478052722
 20
0.0
  0
LWPOLYLINE
  5
65
100
AcDbEntity
  8
USP-GEO
100
AcDbPolyline
 90
        8
 70
   128
 43
0.0
 10
5.055002963826279
 20
0.0
 10
5.074810969170428
 20
0.0
 10
5.094618974514574
 20
0.0
 10
5.11442697985872
 20
0.0
 10
5.11442697985872
 20
0.1188480320648821
 10
5.094618974514574
 20
0.1188480320648821
 10
5.074810969170428
 20
0.1188480320648821
 10
5.055002963826279
 20
0.1188480320648821
  0
LWPOLYLINE
  5
66
100
AcDbEntity
  8
USP-GEO
100
AcDbPolyline
 90
        8
 70
   128
 43
0.0
 10
2.418557452520332
 20
5.155033390814224
 10
2.37894144183204
 20
5.17484139615837
 10
2.339325431143745
 20
5.194649401502518
 10
2.339325431143745
 20
5.234265412190811
 10
2.339325431143745
 20
5.293689428223252
 10
2.37894144183204
 20
5.313497433567398
 10
2.418557452520332
 20
5.333305438911546
 10
2.497789473896919
 20
5.333305438911546
  0
LWPOLYLINE
  5
67
100
AcDbEntity
  8
USP-GEO
100
AcDbPolyline
 90
        8
 70
   128
 43
0.0
 10
2.616637505961801
 20
5.313497433567398
 10
2.616637505961801
 20
5.194649401502518
 10
2.616637505961801
 20
5.115417380125931
 10
2.616637505961801
 20
5.035194958482135
 10
2.497789473896919
 20
5.035194958482135
 10
2.497789473896919
 20
5.115417380125931
 10
2.497789473896919
 20
5.194649401502518
 10
2.497789473896919
 20
5.313497433567398
  0
LWPOLYLINE
  5
68
100
AcDbEntity
  8
USP-GEO
100
AcDbPolyline
 90
       12
 70
   129
 43
0.0
 10
0.9715826621304053
 20
3.132636045176829
 10
0.9319666514421101
 20
3.112828039832681
 10
0.8923506407538148
 20
3.093020034488535
 10
0.8527346300655231
 20
3.112828039832681
 10
0.8131186193772279
 20
3.132636045176829
 10
0.8131186193772279
 20
3.19206006120927
 10
0.8131186193772279
 20
3.231676071897563
 10
0.8527346300655231
 20
3.271292082585857
 10
0.8923506407538148
 20
3.271292082585857
 10
0.9319666514421101
 20
3.271292082585857
 10
0.9715826621304053
 20
3.231676071897563
 10
0.9913906674745511
 20
3.19206006120927
  0
LWPOLYLINE
  5
69
100
AcDbEntity
  8
USP-GEO
100
AcDbPolyline
 90
        2
 70
   128
 43
0.0
 10
0.3773425018059981
 20
4.619226846255051
 10
0.3773425018059981
 20
3.825916232221969
  0
LWPOLYLINE
  5
6A
100
AcDbEntity
  8
USP-GEO
100
AcDbPolyline
 90
       12
 70
   129
 43
0.0
 10
0.9913906674745511
 20
4.440954798157729
 10
0.9715826621304053
 20
4.401338787469436
 10
0.9319666514421101
 20
4.361722776781142
 10
0.8923506407538148
 20
4.341914771436995
 10
0.8527346300655231
 20
4.361722776781142
 10
0.8131186193772279
 20
4.401338787469436
 10
0.8131186193772279
 20
4.440954798157729
 10
0.8131186193772279
 20
4.480570808846023
 10
0.8527346300655231
 20
4.520186819534316
 10
0.8923506407538148
 20
4.520186819534316
 10
0.9319666514421101
 20
4.520186819534316
 10
0.9715826621304053
 20
4.480570808846023
  0
LWPOLYLINE
  5
6B
100
AcDbEntity
  8
USP-GEO
100
AcDbPolyline
 90
       11
 70
   128
 43
0.0
 10
1.546014817110663
 20
3.588220168092206
 10
1.526206811766517
 20
3.6278361787805
 10
1.466782795734076
 20
3.6278361787805
 10
1.42716678504578
 20
3.6278361787805
 10
1.387550774357489
 20
3.588220168092206
 10
1.387550774357489
 20
3.548604157403913
 10
1.387550774357489
 20
3.508988146715619
 10
1.42716678504578
 20
3.469372136027326
 10
1.466782795734076
 20
3.449564130683178
 10
1.526206811766517
 20
3.469372136027326
 10
1.546014817110663
 20
3.508988146715619
  0
LWPOLYLINE
  5
6C
100
AcDbEntity
  8
USP-GEO
100
AcDbPolyline
 90
       10
 70
   128
 43
0.0
 10
2.497789473896919
 20
4.619226846255051
 10
2.497789473896919
 20
3.825916232221969
 10
2.497789473896919
 20
3.350524103962444
 10
2.497789473896919
 20
2.874141575435713
 10
2.497789473896919
 20
2.477981468552775
 10
2.616637505961801
 20
2.477981468552775
 10
2.616637505961801
 20
2.874141575435713
 10
2.616637505961801
 20
3.350524103962444
 10
2.616637505961801
 20
3.825916232221969
 10
2.616637505961801
 20
4.619226846255051
  0
LWPOLYLINE
  5
6D
100
AcDbEntity
  8
USP-GEO
100
AcDbPolyline
 90
        5
 70
   128
 43
0.0
 10
2.399739847443392
 20
3.508988146715619
 10
2.398749447176186
 20
3.508988146715619
 10
2.37894144183204
 20
3.548604157403913
 10
2.398749447176186
 20
3.588220168092206
 10
2.398749447176186
 20
3.608028173436354
  0
LWPOLYLINE
  5
6E
100
AcDbEntity
  8
USP-GEO
100
AcDbPolyline
 90
        7
 70
   128
 43
0.0
 10
2.497789473896919
 20
3.211868066553416
 10
2.438365457864478
 20
3.251484077241709
 10
2.29970942045545
 20
3.370332109306591
 10
2.260093409767158
 20
3.548604157403913
 10
2.29970942045545
 20
3.726876205501234
 10
2.438365457864478
 20
3.865532242910262
 10
2.497789473896919
 20
3.88534024825441
  0
LWPOLYLINE
  5
6F
100
AcDbEntity
  8
USP-GEO
100
AcDbPolyline
 90
       12
 70
   129
 43
0.0
 10
2.398749447176186
 20
3.6278361787805
 10
2.418557452520332
 20
3.588220168092206
 10
2.418557452520332
 20
3.548604157403913
 10
2.418557452520332
 20
3.508988146715619
 10
2.398749447176186
 20
3.489180141371472
 10
2.359133436487891
 20
3.469372136027326
 10
2.339325431143745
 20
3.489180141371472
 10
2.319517425799599
 20
3.508988146715619
 10
2.319517425799599
 20
3.548604157403913
 10
2.319517425799599
 20
3.588220168092206
 10
2.339325431143745
 20
3.6278361787805
 10
2.359133436487891
 20
3.6278361787805
  0
LWPOLYLINE
  5
70
100
AcDbEntity
  8
USP-GEO
100
AcDbPolyline
 90
        2
 70
   128
 43
0.0
 10
1.962973329604952
 20
2.834525564747417
 10
2.141245377702276
 20
2.834525564747417
  0
LWPOLYLINE
  5
71
100
AcDbEntity
  8
USP-GEO
100
AcDbPolyline
 90
        2
 70
   128
 43
0.0
 10
2.141245377702276
 20
2.676061521994244
 10
1.962973329604952
 20
2.676061521994244
  0
LWPOLYLINE
  5
72
100
AcDbEntity
  8
USP-GEO
100
AcDbPolyline
 90
       14
 70
   129
 43
0.0
 10
2.220477399078863
 20
2.75529354337083
 10
2.220477399078863
 20
2.715677532682537
 10
2.180861388390571
 20
2.676061521994244
 10
2.141245377702276
 20
2.676061521994244
 10
1.962973329604952
 20
2.676061521994244
 10
1.923357318916661
 20
2.676061521994244
 10
1.903549313572515
 20
2.715677532682537
 10
1.883741308228366
 20
2.75529354337083
 10
1.903549313572515
 20
2.794909554059124
 10
1.923357318916661
 20
2.834525564747417
 10
1.962973329604952
 20
2.834525564747417
 10
2.141245377702276
 20
2.834525564747417
 10
2.180861388390571
 20
2.834525564747417
 10
2.220477399078863
 20
2.794909554059124
  0
LWPOLYLINE
  5
73
100
AcDbEntity
  8
USP-GEO
100
AcDbPolyline
 90
       11
 70
   128
 43
0.0
 10
1.546014817110663
 20
2.240285404423012
 10
1.526206811766517
 20
2.220477399078866
 10
1.466782795734076
 20
2.200669393734717
 10
1.42716678504578
 20
2.220477399078866
 10
1.387550774357489
 20
2.240285404423012
 10
1.387550774357489
 20
2.299709420455453
 10
1.387550774357489
 20
2.339325431143747
 10
1.42716678504578
 20
2.37894144183204
 10
1.466782795734076
 20
2.37894144183204
 10
1.526206811766517
 20
2.37894144183204
 10
1.546014817110663
 20
2.339325431143747
  0
LWPOLYLINE
  5
74
100
AcDbEntity
  8
USP-GEO
100
AcDbPolyline
 90
        2
 70
   128
 43
0.0
 10
1.387550774357489
 20
2.299709420455453
 10
1.387550774357489
 20
2.339325431143747
  0
LWPOLYLINE
  5
75
100
AcDbEntity
  8
USP-GEO
100
AcDbPolyline
 90
        3
 70
   128
 43
0.0
 10
1.546014817110663
 20
2.240285404423012
 10
1.565822822454808
 20
2.299709420455453
 10
1.546014817110663
 20
2.339325431143747
  0
LWPOLYLINE
  5
76
100
AcDbEntity
  8
USP-GEO
100
AcDbPolyline
 90
        3
 70
   128
 43
0.0
 10
1.546014817110663
 20
3.588220168092206
 10
1.565822822454808
 20
3.548604157403913
 10
1.546014817110663
 20
3.508988146715619
  0
LWPOLYLINE
  5
77
100
AcDbEntity
  8
USP-GEO
100
AcDbPolyline
 90
        7
 70
   128
 43
0.0
 10
2.497789473896919
 20
2.775101548714978
 10
2.438365457864478
 20
2.735485538026685
 10
2.29970942045545
 20
2.596829500617657
 10
2.260093409767158
 20
2.418557452520333
 10
2.29970942045545
 20
2.240285404423012
 10
2.438365457864478
 20
2.12143737235813
 10
2.497789473896919
 20
2.081821361669838
  0
LWPOLYLINE
  5
78
100
AcDbEntity
  8
USP-GEO
100
AcDbPolyline
 90
       12
 70
   129
 43
0.0
 10
2.398749447176186
 20
2.497789473896922
 10
2.418557452520332
 20
2.458173463208627
 10
2.418557452520332
 20
2.418557452520333
 10
2.418557452520332
 20
2.37894144183204
 10
2.398749447176186
 20
2.359133436487894
 10
2.359133436487891
 20
2.359133436487894
 10
2.339325431143745
 20
2.359133436487894
 10
2.319517425799599
 20
2.37894144183204
 10
2.319517425799599
 20
2.418557452520333
 10
2.319517425799599
 20
2.458173463208627
 10
2.339325431143745
 20
2.497789473896922
 10
2.359133436487891
 20
2.497789473896922
  0
LWPOLYLINE
  5
79
100
AcDbEntity
  8
USP-GEO
100
AcDbPolyline
 90
        4
 70
   128
 43
0.0
 10
2.398749447176186
 20
2.37894144183204
 10
2.37894144183204
 20
2.418557452520333
 10
2.398749447176186
 20
2.458173463208627
 10
2.398749447176186
 20
2.477981468552775
  0
LWPOLYLINE
  5
7A
100
AcDbEntity
  8
USP-GEO
100
AcDbPolyline
 90
        2
 70
   128
 43
0.0
 10
1.962973329604952
 20
4.599418840910905
 10
2.141245377702276
 20
4.599418840910905
  0
LWPOLYLINE
  5
7B
100
AcDbEntity
  8
USP-GEO
100
AcDbPolyline
 90
        2
 70
   128
 43
0.0
 10
2.141245377702276
 20
4.421146792813582
 10
1.962973329604952
 20
4.421146792813582
  0
LWPOLYLINE
  5
7C
100
AcDbEntity
  8
USP-GEO
100
AcDbPolyline
 90
       14
 70
   129
 43
0.0
 10
2.220477399078863
 20
4.460762803501877
 10
2.220477399078863
 20
4.50037881419017
 10
2.220477399078863
 20
4.539994824878464
 10
2.180861388390571
 20
4.579610835566757
 10
2.141245377702276
 20
4.599418840910905
 10
1.962973329604952
 20
4.599418840910905
 10
1.923357318916661
 20
4.579610835566757
 10
1.903549313572515
 20
4.539994824878464
 10
1.883741308228366
 20
4.50037881419017
 10
1.903549313572515
 20
4.460762803501877
 10
1.923357318916661
 20
4.421146792813582
 10
1.962973329604952
 20
4.421146792813582
 10
2.141245377702276
 20
4.421146792813582
 10
2.180861388390571
 20
4.421146792813582
  0
LWPOLYLINE
  5
7D
100
AcDbEntity
  8
USP-GEO
100
AcDbPolyline
 90
       12
 70
   129
 43
0.0
 10
1.526206811766517
 20
4.876730915728961
 10
1.546014817110663
 20
4.837114905040667
 10
1.565822822454808
 20
4.797498894352372
 10
1.546014817110663
 20
4.757882883664079
 10
1.526206811766517
 20
4.718266872975785
 10
1.466782795734076
 20
4.698458867631639
 10
1.42716678504578
 20
4.718266872975785
 10
1.387550774357489
 20
4.757882883664079
 10
1.387550774357489
 20
4.797498894352372
 10
1.387550774357489
 20
4.837114905040667
 10
1.42716678504578
 20
4.876730915728961
 10
1.466782795734076
 20
4.896538921073107
  0
LWPOLYLINE
  5
7E
100
AcDbEntity
  8
USP-GEO
100
AcDbPolyline
 90
        7
 70
   128
 43
0.0
 10
2.497789473896919
 20
4.341914771436995
 10
2.438365457864478
 20
4.381530782125288
 10
2.29970942045545
 20
4.50037881419017
 10
2.260093409767158
 20
4.678650862287492
 10
2.29970942045545
 20
4.856922910384813
 10
2.438365457864478
 20
4.995578947793841
 10
2.497789473896919
 20
5.015386953137989
  0
LWPOLYLINE
  5
7F
100
AcDbEntity
  8
USP-GEO
100
AcDbPolyline
 90
        2
 70
   128
 43
0.0
 10
2.616637505961801
 20
3.825916232221969
 10
2.497789473896919
 20
3.825916232221969
  0
LWPOLYLINE
  5
80
100
AcDbEntity
  8
USP-GEO
100
AcDbPolyline
 90
       12
 70
   129
 43
0.0
 10
2.418557452520332
 20
4.639034851599198
 10
2.398749447176186
 20
4.619226846255051
 10
2.359133436487891
 20
4.599418840910905
 10
2.339325431143745
 20
4.619226846255051
 10
2.319517425799599
 20
4.639034851599198
 10
2.319517425799599
 20
4.678650862287492
 10
2.319517425799599
 20
4.718266872975785
 10
2.339325431143745
 20
4.738074878319933
 10
2.359133436487891
 20
4.757882883664079
 10
2.398749447176186
 20
4.738074878319933
 10
2.418557452520332
 20
4.718266872975785
 10
2.418557452520332
 20
4.678650862287492
  0
LWPOLYLINE
  5
81
100
AcDbEntity
  8
USP-GEO
100
AcDbPolyline
 90
        2
 70
   128
 43
0.0
 10
2.220477399078863
 20
4.460762803501877
 10
2.180861388390571
 20
4.421146792813582
  0
LWPOLYLINE
  5
82
100
AcDbEntity
  8
USP-GEO
100
AcDbPolyline
 90
        8
 70
   128
 43
0.0
 10
2.616637505961801
 20
5.035194958482135
 10
2.616637505961801
 20
4.936154931761402
 10
2.616637505961801
 20
4.777690889008226
 10
2.616637505961801
 20
4.619226846255051
 10
2.497789473896919
 20
4.619226846255051
 10
2.497789473896919
 20
4.777690889008226
 10
2.497789473896919
 20
4.936154931761402
 10
2.497789473896919
 20
5.035194958482135
  0
LWPOLYLINE
  5
83
100
AcDbEntity
  8
USP-GEO
100
AcDbPolyline
 90
        5
 70
   128
 43
0.0
 10
2.398749447176186
 20
4.738074878319933
 10
2.398749447176186
 20
4.718266872975785
 10
2.37894144183204
 20
4.678650862287492
 10
2.398749447176186
 20
4.639034851599198
 10
2.398749447176186
 20
4.619226846255051
  0
LWPOLYLINE
  5
84
100
AcDbEntity
  8
USP-GEO
100
AcDbPolyline
 90
        2
 70
   129
 43
0.0
 10
2.418557452520332
 20
5.155033390814224
 10
2.497789473896919
 20
5.155033390814224
  0
LWPOLYLINE
  5
85
100
AcDbEntity
  8
USP-GEO
100
AcDbPolyline
 90
        6
 70
   128
 43
0.0
 10
0.2783024750852636
 20
6.800088234645622
 10
0.3575344964618505
 20
6.661432197236594
 10
0.3773425018059981
 20
6.502968154483419
 10
0.3773425018059981
 20
6.304888101041949
 10
0.3575344964618505
 20
6.145433658021568
 10
0.2783024750852636
 20
5.986969615268392
  0
LWPOLYLINE
  5
86
100
AcDbEntity
  8
USP-GEO
100
AcDbPolyline
 90
        2
 70
   129
 43
0.0
 10
0.1594544430203815
 20
5.887929588547658
 10
0.2783024750852636
 20
5.986969615268392
  0
LWPOLYLINE
  5
87
100
AcDbEntity
  8
USP-GEO
100
AcDbPolyline
 90
       12
 70
   129
 43
0.0
 10
0.4169585124942899
 20
5.293689428223252
 10
0.397150507150144
 20
5.254073417534959
 10
0.3575344964618505
 20
5.214457406846664
 10
0.3179184857735571
 20
5.214457406846664
 10
0.2783024750852636
 20
5.214457406846664
 10
0.2386864643969702
 20
5.254073417534959
 10
0.2386864643969702
 20
5.293689428223252
 10
0.2386864643969702
 20
5.353113444255694
 10
0.2783024750852636
 20
5.372921449599839
 10
0.3179184857735571
 20
5.392729454943987
 10
0.3575344964618505
 20
5.372921449599839
 10
0.397150507150144
 20
5.353113444255694
  0
LWPOLYLINE
  5
88
100
AcDbEntity
  8
USP-GEO
100
AcDbPolyline
 90
        3
 70
   128
 43
0.0
 10
0.3575344964618505
 20
6.661432197236594
 10
0.3773425018059981
 20
6.502968154483419
 10
0.3773425018059981
 20
6.304888101041949
  0
LWPOLYLINE
  5
89
100
AcDbEntity
  8
USP-GEO
100
AcDbPolyline
 90
       12
 70
   129
 43
0.0
 10
0.9913906674745511
 20
5.769081556482777
 10
0.9715826621304053
 20
5.729465545794484
 10
0.9319666514421101
 20
5.689849535106189
 10
0.8923506407538148
 20
5.689849535106189
 10
0.8527346300655231
 20
5.689849535106189
 10
0.8131186193772279
 20
5.729465545794484
 10
0.8131186193772279
 20
5.769081556482777
 10
0.8131186193772279
 20
5.808697567171071
 10
0.8527346300655231
 20
5.848313577859364
 10
0.8923506407538148
 20
5.868121583203512
 10
0.9319666514421101
 20
5.848313577859364
 10
0.9715826621304053
 20
5.808697567171071
  0
LWPOLYLINE
  5
8A
100
AcDbEntity
  8
USP-GEO
100
AcDbPolyline
 90
        9
 70
   128
 43
0.0
 10
0.2783024750852636
 20
6.978360282742944
 10
0.3179184857735571
 20
6.958552277398796
 10
0.3575344964618505
 20
6.978360282742944
 10
0.397150507150144
 20
6.998168288087089
 10
0.4169585124942899
 20
7.05759230411953
 10
0.397150507150144
 20
7.097208314807824
 10
0.3575344964618505
 20
7.136824325496117
 10
0.3179184857735571
 20
7.136824325496117
 10
0.2783024750852636
 20
7.136824325496117
  0
LWPOLYLINE
  5
8B
100
AcDbEntity
  8
USP-GEO
100
AcDbPolyline
 90
        6
 70
   128
 43
0.0
 10
0.2783024750852636
 20
6.978360282742944
 10
0.2386864643969702
 20
6.998168288087089
 10
0.2386864643969702
 20
7.05759230411953
 10
0.2386864643969702
 20
7.097208314807824
 10
0.2783024750852636
 20
7.136824325496117
 10
0.3179184857735571
 20
7.136824325496117
  0
LWPOLYLINE
  5
8C
100
AcDbEntity
  8
USP-GEO
100
AcDbPolyline
 90
       12
 70
   129
 43
0.0
 10
0.9913906674745511
 20
6.819896239989768
 10
0.9715826621304053
 20
6.760472223957327
 10
0.9319666514421101
 20
6.740664218613181
 10
0.8923506407538148
 20
6.720856213269033
 10
0.8527346300655231
 20
6.740664218613181
 10
0.8131186193772279
 20
6.760472223957327
 10
0.8131186193772279
 20
6.819896239989768
 10
0.8131186193772279
 20
6.859512250678061
 10
0.8527346300655231
 20
6.899128261366357
 10
0.8923506407538148
 20
6.899128261366357
 10
0.9319666514421101
 20
6.899128261366357
 10
0.9715826621304053
 20
6.859512250678061
  0
LWPOLYLINE
  5
8D
100
AcDbEntity
  8
USP-GEO
100
AcDbPolyline
 90
        2
 70
   128
 43
0.0
 10
0.8527346300655231
 20
6.899128261366357
 10
0.8923506407538148
 20
6.899128261366357
  0
LWPOLYLINE
  5
8E
100
AcDbEntity
  8
USP-GEO
100
AcDbPolyline
 90
        5
 70
   128
 43
0.0
 10
2.616637505961801
 20
6.304888101041949
 10
2.616637505961801
 20
6.502968154483419
 10
2.616637505961801
 20
6.661432197236594
 10
2.616637505961801
 20
6.800088234645622
 10
2.616637505961801
 20
6.918936266710502
  0
LWPOLYLINE
  5
8F
100
AcDbEntity
  8
USP-GEO
100
AcDbPolyline
 90
        7
 70
   128
 43
0.0
 10
2.497789473896919
 20
6.502968154483419
 10
2.497789473896919
 20
6.661432197236594
 10
2.497789473896919
 20
6.800088234645622
 10
2.497789473896919
 20
6.918936266710502
 10
2.497789473896919
 20
6.978360282742944
 10
2.497789473896919
 20
7.077400309463678
 10
2.497789473896919
 20
7.176440336184413
  0
LWPOLYLINE
  5
90
100
AcDbEntity
  8
USP-GEO
100
AcDbPolyline
 90
        7
 70
   128
 43
0.0
 10
2.497789473896919
 20
6.899128261366357
 10
2.438365457864478
 20
6.859512250678061
 10
2.29970942045545
 20
6.740664218613181
 10
2.260093409767158
 20
6.56239217051586
 10
2.29970942045545
 20
6.384120122418536
 10
2.438365457864478
 20
6.245464085009508
 10
2.497789473896919
 20
6.225656079665363
  0
LWPOLYLINE
  5
91
100
AcDbEntity
  8
USP-GEO
100
AcDbPolyline
 90
        2
 70
   128
 43
0.0
 10
1.962973329604952
 20
6.344504111730243
 10
2.141245377702276
 20
6.344504111730243
  0
LWPOLYLINE
  5
92
100
AcDbEntity
  8
USP-GEO
100
AcDbPolyline
 90
        2
 70
   128
 43
0.0
 10
2.141245377702276
 20
6.166232063632921
 10
1.962973329604952
 20
6.166232063632921
  0
LWPOLYLINE
  5
93
100
AcDbEntity
  8
USP-GEO
100
AcDbPolyline
 90
       14
 70
   129
 43
0.0
 10
2.220477399078863
 20
6.265272090353656
 10
2.220477399078863
 20
6.304888101041949
 10
2.180861388390571
 20
6.324696106386097
 10
2.141245377702276
 20
6.344504111730243
 10
1.962973329604952
 20
6.344504111730243
 10
1.923357318916661
 20
6.324696106386097
 10
1.903549313572515
 20
6.304888101041949
 10
1.883741308228366
 20
6.265272090353656
 10
1.903549313572515
 20
6.205848074321215
 10
1.923357318916661
 20
6.186040068977069
 10
1.962973329604952
 20
6.166232063632921
 10
2.141245377702276
 20
6.166232063632921
 10
2.180861388390571
 20
6.186040068977069
 10
2.220477399078863
 20
6.205848074321215
  0
LWPOLYLINE
  5
94
100
AcDbEntity
  8
USP-GEO
100
AcDbPolyline
 90
        9
 70
   128
 43
0.0
 10
1.526206811766517
 20
5.967161609924245
 10
1.466782795734076
 20
5.967161609924245
 10
1.42716678504578
 20
5.967161609924245
 10
1.387550774357489
 20
6.00677762061254
 10
1.387550774357489
 20
6.046393631300833
 10
1.387550774357489
 20
6.086009641989127
 10
1.42716678504578
 20
6.12562565267742
 10
1.466782795734076
 20
6.145433658021568
 10
1.526206811766517
 20
6.12562565267742
  0
LWPOLYLINE
  5
95
100
AcDbEntity
  8
USP-GEO
100
AcDbPolyline
 90
        5
 70
   128
 43
0.0
 10
1.526206811766517
 20
6.12562565267742
 10
1.546014817110663
 20
6.086009641989127
 10
1.565822822454808
 20
6.046393631300833
 10
1.546014817110663
 20
6.00677762061254
 10
1.526206811766517
 20
5.967161609924245
  0
LWPOLYLINE
  5
96
100
AcDbEntity
  8
USP-GEO
100
AcDbPolyline
 90
       11
 70
   128
 43
0.0
 10
2.616637505961801
 20
6.502968154483419
 10
2.497789473896919
 20
6.502968154483419
 10
2.497789473896919
 20
6.304888101041949
 10
2.497789473896919
 20
6.145433658021568
 10
2.497789473896919
 20
5.986969615268392
 10
2.497789473896919
 20
5.887929588547658
 10
2.616637505961801
 20
5.887929588547658
 10
2.616637505961801
 20
5.986969615268392
 10
2.616637505961801
 20
6.145433658021568
 10
2.616637505961801
 20
6.304888101041949
 10
2.497789473896919
 20
6.304888101041949
  0
LWPOLYLINE
  5
97
100
AcDbEntity
  8
USP-GEO
100
AcDbPolyline
 90
        4
 70
   128
 43
0.0
 10
2.497789473896919
 20
5.610617513729602
 10
2.497789473896919
 20
5.313497433567398
 10
2.616637505961801
 20
5.313497433567398
 10
2.616637505961801
 20
5.610617513729602
  0
LWPOLYLINE
  5
98
100
AcDbEntity
  8
USP-GEO
100
AcDbPolyline
 90
        2
 70
   128
 43
0.0
 10
2.418557452520332
 20
5.333305438911546
 10
2.497789473896919
 20
5.333305438911546
  0
LWPOLYLINE
  5
99
100
AcDbEntity
  8
USP-GEO
100
AcDbPolyline
 90
        8
 70
   128
 43
0.0
 10
2.497789473896919
 20
5.887929588547658
 10
2.497789473896919
 20
5.808697567171071
 10
2.497789473896919
 20
5.729465545794484
 10
2.497789473896919
 20
5.610617513729602
 10
2.616637505961801
 20
5.610617513729602
 10
2.616637505961801
 20
5.729465545794484
 10
2.616637505961801
 20
5.808697567171071
 10
2.616637505961801
 20
5.887929588547658
  0
LWPOLYLINE
  5
9A
100
AcDbEntity
  8
USP-GEO
100
AcDbPolyline
 90
       12
 70
   129
 43
0.0
 10
2.398749447176186
 20
6.621816186548299
 10
2.418557452520332
 20
6.602008181204153
 10
2.418557452520332
 20
6.56239217051586
 10
2.418557452520332
 20
6.522776159827566
 10
2.398749447176186
 20
6.483160149139271
 10
2.359133436487891
 20
6.483160149139271
 10
2.339325431143745
 20
6.483160149139271
 10
2.319517425799599
 20
6.522776159827566
 10
2.319517425799599
 20
6.56239217051586
 10
2.319517425799599
 20
6.602008181204153
 10
2.339325431143745
 20
6.621816186548299
 10
2.359133436487891
 20
6.641624191892447
  0
LWPOLYLINE
  5
9B
100
AcDbEntity
  8
USP-GEO
100
AcDbPolyline
 90
        5
 70
   128
 43
0.0
 10
2.398749447176186
 20
6.502968154483419
 10
2.398749447176186
 20
6.522776159827566
 10
2.37894144183204
 20
6.56239217051586
 10
2.398749447176186
 20
6.602008181204153
 10
2.399739847443392
 20
6.602008181204153
  0
LWPOLYLINE
  5
9C
100
AcDbEntity
  8
USP-GEO
100
AcDbPolyline
 90
        2
 70
   128
 43
0.0
 10
2.141245377702276
 20
8.167831003658962
 10
1.962973329604952
 20
8.167831003658962
  0
LWPOLYLINE
  5
9D
100
AcDbEntity
  8
USP-GEO
100
AcDbPolyline
 90
        9
 70
   128
 43
0.0
 10
1.526206811766517
 20
7.136824325496117
 10
1.466782795734076
 20
7.156632330840265
 10
1.42716678504578
 20
7.136824325496117
 10
1.387550774357489
 20
7.097208314807824
 10
1.387550774357489
 20
7.05759230411953
 10
1.387550774357489
 20
7.017976293431237
 10
1.42716678504578
 20
6.978360282742944
 10
1.466782795734076
 20
6.978360282742944
 10
1.526206811766517
 20
6.978360282742944
  0
LWPOLYLINE
  5
9E
100
AcDbEntity
  8
USP-GEO
100
AcDbPolyline
 90
        5
 70
   128
 43
0.0
 10
1.526206811766517
 20
7.136824325496117
 10
1.546014817110663
 20
7.097208314807824
 10
1.565822822454808
 20
7.05759230411953
 10
1.546014817110663
 20
7.017976293431237
 10
1.526206811766517
 20
6.978360282742944
  0
LWPOLYLINE
  5
9F
100
AcDbEntity
  8
USP-GEO
100
AcDbPolyline
 90
        2
 70
   128
 43
0.0
 10
1.526206811766517
 20
7.136824325496117
 10
1.546014817110663
 20
7.097208314807824
  0
LWPOLYLINE
  5
A0
100
AcDbEntity
  8
USP-GEO
100
AcDbPolyline
 90
        9
 70
   128
 43
0.0
 10
1.526206811766517
 20
7.949942944873347
 10
1.466782795734076
 20
7.949942944873347
 10
1.42716678504578
 20
7.949942944873347
 10
1.387550774357489
 20
7.910326934185054
 10
1.387550774357489
 20
7.87071092349676
 10
1.387550774357489
 20
7.831094912808467
 10
1.42716678504578
 20
7.791478902120172
 10
1.466782795734076
 20
7.771670896776026
 10
1.526206811766517
 20
7.791478902120172
  0
LWPOLYLINE
  5
A1
100
AcDbEntity
  8
USP-GEO
100
AcDbPolyline
 90
        5
 70
   128
 43
0.0
 10
1.526206811766517
 20
7.949942944873347
 10
1.546014817110663
 20
7.910326934185054
 10
1.565822822454808
 20
7.87071092349676
 10
1.546014817110663
 20
7.831094912808467
 10
1.526206811766517
 20
7.791478902120172
  0
LWPOLYLINE
  5
A2
100
AcDbEntity
  8
USP-GEO
100
AcDbPolyline
 90
        2
 70
   128
 43
0.0
 10
1.526206811766517
 20
7.791478902120172
 10
1.466782795734076
 20
7.771670896776026
  0
LWPOLYLINE
  5
A3
100
AcDbEntity
  8
USP-GEO
100
AcDbPolyline
 90
        4
 70
   128
 43
0.0
 10
2.497789473896919
 20
7.49435882195797
 10
2.497789473896919
 20
7.176440336184413
 10
2.616637505961801
 20
7.176440336184413
 10
2.616637505961801
 20
7.49435882195797
  0
LWPOLYLINE
  5
A4
100
AcDbEntity
  8
USP-GEO
100
AcDbPolyline
 90
        5
 70
   128
 43
0.0
 10
2.497789473896919
 20
6.918936266710502
 10
2.616637505961801
 20
6.918936266710502
 10
2.616637505961801
 20
6.978360282742944
 10
2.616637505961801
 20
7.077400309463678
 10
2.616637505961801
 20
7.176440336184413
  0
LWPOLYLINE
  5
A5
100
AcDbEntity
  8
USP-GEO
100
AcDbPolyline
 90
        2
 70
   128
 43
0.0
 10
2.418557452520332
 20
7.077400309463678
 10
2.497789473896919
 20
7.077400309463678
  0
LWPOLYLINE
  5
A6
100
AcDbEntity
  8
USP-GEO
100
AcDbPolyline
 90
        8
 70
   128
 43
0.0
 10
2.418557452520332
 20
6.899128261366357
 10
2.37894144183204
 20
6.918936266710502
 10
2.339325431143745
 20
6.958552277398796
 10
2.339325431143745
 20
6.998168288087089
 10
2.339325431143745
 20
7.037784298775385
 10
2.37894144183204
 20
7.077400309463678
 10
2.418557452520332
 20
7.077400309463678
 10
2.497789473896919
 20
7.077400309463678
  0
LWPOLYLINE
  5
A7
100
AcDbEntity
  8
USP-GEO
100
AcDbPolyline
 90
        2
 70
   129
 43
0.0
 10
2.418557452520332
 20
6.899128261366357
 10
2.497789473896919
 20
6.899128261366357
  0
LWPOLYLINE
  5
A8
100
AcDbEntity
  8
USP-GEO
100
AcDbPolyline
 90
        2
 70
   128
 43
0.0
 10
2.220477399078863
 20
8.207447014347257
 10
2.180861388390571
 20
8.18763900900311
  0
LWPOLYLINE
  5
A9
100
AcDbEntity
  8
USP-GEO
100
AcDbPolyline
 90
        8
 70
   128
 43
0.0
 10
2.497789473896919
 20
8.18763900900311
 10
2.497789473896919
 20
8.009366960905788
 10
2.497789473896919
 20
7.87071092349676
 10
2.497789473896919
 20
7.751862891431878
 10
2.616637505961801
 20
7.751862891431878
 10
2.616637505961801
 20
7.87071092349676
 10
2.616637505961801
 20
8.009366960905788
 10
2.616637505961801
 20
8.18763900900311
  0
LWPOLYLINE
  5
AA
100
AcDbEntity
  8
USP-GEO
100
AcDbPolyline
 90
        8
 70
   128
 43
0.0
 10
2.497789473896919
 20
7.751862891431878
 10
2.497789473896919
 20
7.692438875399439
 10
2.497789473896919
 20
7.593398848678704
 10
2.497789473896919
 20
7.49435882195797
 10
2.616637505961801
 20
7.49435882195797
 10
2.616637505961801
 20
7.593398848678704
 10
2.616637505961801
 20
7.692438875399439
 10
2.616637505961801
 20
7.751862891431878
  0
LWPOLYLINE
  5
AB
100
AcDbEntity
  8
USP-GEO
100
AcDbPolyline
 90
        2
 70
   129
 43
0.0
 10
7.571610042800141
 20
2.477981468552775
 10
6.164251263098506
 20
0.9517746567862594
  0
LWPOLYLINE
  5
AC
100
AcDbEntity
  8
USP-GEO
100
AcDbPolyline
 90
        8
 70
   128
 43
0.0
 10
5.966171209657037
 20
0.812128219110022
 10
5.966171209657037
 20
2.477981468552775
 10
5.966171209657037
 20
2.874141575435713
 10
5.966171209657037
 20
3.350524103962444
 10
5.966171209657037
 20
3.825916232221969
 10
5.966171209657037
 20
4.619226846255051
 10
5.867131182936301
 20
4.619226846255051
 10
5.867131182936301
 20
3.825916232221969
  0
LWPOLYLINE
  5
AD
100
AcDbEntity
  8
USP-GEO
100
AcDbPolyline
 90
        3
 70
   128
 43
0.0
 10
5.966171209657037
 20
2.477981468552775
 10
5.867131182936301
 20
2.477981468552775
 10
5.867131182936301
 20
0.812128219110022
  0
LWPOLYLINE
  5
AE
100
AcDbEntity
  8
USP-GEO
100
AcDbPolyline
 90
        7
 70
   128
 43
0.0
 10
5.966171209657037
 20
1.902558913305309
 10
6.045403231033624
 20
1.922366918649455
 10
6.164251263098506
 20
2.062013356325689
 10
6.223675279130947
 20
2.240285404423012
 10
6.164251263098506
 20
2.418557452520333
 10
6.045403231033624
 20
2.537405484585216
 10
5.966171209657037
 20
2.577021495273509
  0
LWPOLYLINE
  5
AF
100
AcDbEntity
  8
USP-GEO
100
AcDbPolyline
 90
        2
 70
   129
 43
0.0
 10
5.966171209657037
 20
0.2971200801622054
 10
5.966171209657037
 20
0.0
  0
LWPOLYLINE
  5
B0
100
AcDbEntity
  8
USP-GEO
100
AcDbPolyline
 90
        7
 70
   128
 43
0.0
 10
5.966171209657037
 20
0.7725122084217304
 10
6.045403231033624
 20
0.812128219110022
 10
6.164251263098506
 20
0.9319666514421136
 10
6.223675279130947
 20
1.110238699539433
 10
6.164251263098506
 20
1.288510747636756
 10
6.045403231033624
 20
1.427166785045784
 10
5.966171209657037
 20
1.44697479038993
  0
LWPOLYLINE
  5
B1
100
AcDbEntity
  8
USP-GEO
100
AcDbPolyline
 90
        5
 70
   128
 43
0.0
 10
6.025595225689478
 20
0.7923202137658763
 10
6.025595225689478
 20
0.812128219110022
 10
6.025595225689478
 20
0.7923202137658763
 10
5.985979215001183
 20
0.7527042030775811
 10
5.966171209657037
 20
0.7130881923892894
  0
LWPOLYLINE
  5
B2
100
AcDbEntity
  8
USP-GEO
100
AcDbPolyline
 90
       17
 70
   128
 43
0.0
 10
6.06521123637777
 20
1.169662715571874
 10
6.085019241721919
 20
1.149854710227728
 10
6.085019241721919
 20
1.110238699539433
 10
6.085019241721919
 20
1.070622688851141
 10
6.06521123637777
 20
1.070622688851141
 10
6.085019241721919
 20
1.050814683506992
 10
6.104827247066065
 20
1.031006678162846
 10
6.124635252410211
 20
1.050814683506992
 10
6.164251263098506
 20
1.070622688851141
 10
6.164251263098506
 20
1.110238699539433
 10
6.164251263098506
 20
1.149854710227728
 10
6.124635252410211
 20
1.18947072091602
 10
6.104827247066065
 20
1.18947072091602
 10
6.085019241721919
 20
1.18947072091602
 10
6.06521123637777
 20
1.149854710227728
 10
6.045403231033624
 20
1.110238699539433
 10
6.06521123637777
 20
1.070622688851141
  0
LWPOLYLINE
  5
B3
100
AcDbEntity
  8
USP-GEO
100
AcDbPolyline
 90
        8
 70
   128
 43
0.0
 10
5.966171209657037
 20
1.823326891928722
 10
6.045403231033624
 20
1.823326891928722
 10
6.104827247066065
 20
1.823326891928722
 10
6.124635252410211
 20
1.783710881240427
 10
6.144443257754357
 20
1.744094870552132
 10
6.124635252410211
 20
1.70447885986384
 10
6.104827247066065
 20
1.664862849175545
 10
6.045403231033624
 20
1.645054843831399
  0
LWPOLYLINE
  5
B4
100
AcDbEntity
  8
USP-GEO
100
AcDbPolyline
 90
        2
 70
   129
 43
0.0
 10
5.966171209657037
 20
1.645054843831399
 10
6.045403231033624
 20
1.645054843831399
  0
LWPOLYLINE
  5
B5
100
AcDbEntity
  8
USP-GEO
100
AcDbPolyline
 90
        2
 70
   128
 43
0.0
 10
6.045403231033624
 20
1.823326891928722
 10
6.104827247066065
 20
1.823326891928722
  0
LWPOLYLINE
  5
B6
100
AcDbEntity
  8
USP-GEO
100
AcDbPolyline
 90
        2
 70
   128
 43
0.0
 10
5.966171209657037
 20
1.823326891928722
 10
6.045403231033624
 20
1.823326891928722
  0
LWPOLYLINE
  5
B7
100
AcDbEntity
  8
USP-GEO
100
AcDbPolyline
 90
        7
 70
   128
 43
0.0
 10
5.867131182936301
 20
5.313497433567398
 10
5.867131182936301
 20
5.610617513729602
 10
5.966171209657037
 20
5.610617513729602
 10
5.966171209657037
 20
5.313497433567398
 10
5.966171209657037
 20
5.194649401502518
 10
5.966171209657037
 20
5.115417380125931
 10
5.966171209657037
 20
5.035194958482135
  0
LWPOLYLINE
  5
B8
100
AcDbEntity
  8
USP-GEO
100
AcDbPolyline
 90
        5
 70
   128
 43
0.0
 10
5.966171209657037
 20
5.313497433567398
 10
5.867131182936301
 20
5.313497433567398
 10
5.867131182936301
 20
5.194649401502518
 10
5.867131182936301
 20
5.115417380125931
 10
5.867131182936301
 20
5.035194958482135
  0
LWPOLYLINE
  5
B9
100
AcDbEntity
  8
USP-GEO
100
AcDbPolyline
 90
        4
 70
   128
 43
0.0
 10
6.085019241721919
 20
3.6278361787805
 10
6.104827247066065
 20
3.6278361787805
 10
6.124635252410211
 20
3.588220168092206
 10
6.12562565267742
 20
3.588220168092206
  0
LWPOLYLINE
  5
BA
100
AcDbEntity
  8
USP-GEO
100
AcDbPolyline
 90
        5
 70
   128
 43
0.0
 10
5.966171209657037
 20
3.825916232221969
 10
5.867131182936301
 20
3.825916232221969
 10
5.867131182936301
 20
3.350524103962444
 10
5.867131182936301
 20
2.874141575435713
 10
5.867131182936301
 20
2.477981468552775
  0
LWPOLYLINE
  5
BB
100
AcDbEntity
  8
USP-GEO
100
AcDbPolyline
 90
        7
 70
   128
 43
0.0
 10
5.966171209657037
 20
3.033596018456094
 10
6.045403231033624
 20
3.053404023800242
 10
6.164251263098506
 20
3.19206006120927
 10
6.223675279130947
 20
3.370332109306591
 10
6.164251263098506
 20
3.548604157403913
 10
6.045403231033624
 20
3.667452189468795
 10
5.966171209657037
 20
3.707068200157088
  0
LWPOLYLINE
  5
BC
100
AcDbEntity
  8
USP-GEO
100
AcDbPolyline
 90
        6
 70
   128
 43
0.0
 10
6.500987353949003
 20
2.735485538026685
 10
6.32271530585168
 20
2.735485538026685
 10
6.283099295163385
 20
2.735485538026685
 10
6.263291289819239
 20
2.775101548714978
 10
6.243483284475093
 20
2.814717559403272
 10
6.263291289819239
 20
2.854333570091565
  0
LWPOLYLINE
  5
BD
100
AcDbEntity
  8
USP-GEO
100
AcDbPolyline
 90
       12
 70
   128
 43
0.0
 10
6.283099295163385
 20
2.735485538026685
 10
6.32271530585168
 20
2.735485538026685
 10
6.500987353949003
 20
2.735485538026685
 10
6.540603364637295
 20
2.735485538026685
 10
6.58021937532559
 20
2.775101548714978
 10
6.58021937532559
 20
2.814717559403272
 10
6.58021937532559
 20
2.854333570091565
 10
6.540603364637295
 20
2.893949580779858
 10
6.500987353949003
 20
2.893949580779858
 10
6.32271530585168
 20
2.893949580779858
 10
6.283099295163385
 20
2.893949580779858
 10
6.263291289819239
 20
2.854333570091565
  0
LWPOLYLINE
  5
BE
100
AcDbEntity
  8
USP-GEO
100
AcDbPolyline
 90
       12
 70
   129
 43
0.0
 10
6.164251263098506
 20
2.240285404423012
 10
6.164251263098506
 20
2.279901415111305
 10
6.124635252410211
 20
2.299709420455453
 10
6.104827247066065
 20
2.319517425799599
 10
6.085019241721919
 20
2.299709420455453
 10
6.06521123637777
 20
2.279901415111305
 10
6.045403231033624
 20
2.240285404423012
 10
6.06521123637777
 20
2.200669393734717
 10
6.085019241721919
 20
2.180861388390571
 10
6.104827247066065
 20
2.161053383046425
 10
6.124635252410211
 20
2.180861388390571
 10
6.164251263098506
 20
2.200669393734717
  0
LWPOLYLINE
  5
BF
100
AcDbEntity
  8
USP-GEO
100
AcDbPolyline
 90
        5
 70
   128
 43
0.0
 10
6.06521123637777
 20
2.299709420455453
 10
6.085019241721919
 20
2.279901415111305
 10
6.085019241721919
 20
2.240285404423012
 10
6.085019241721919
 20
2.200669393734717
 10
6.06521123637777
 20
2.180861388390571
  0
LWPOLYLINE
  5
C0
100
AcDbEntity
  8
USP-GEO
100
AcDbPolyline
 90
       12
 70
   129
 43
0.0
 10
6.164251263098506
 20
3.330716098618298
 10
6.164251263098506
 20
3.370332109306591
 10
6.164251263098506
 20
3.409948119994885
 10
6.124635252410211
 20
3.429756125339032
 10
6.104827247066065
 20
3.449564130683178
 10
6.085019241721919
 20
3.429756125339032
 10
6.06521123637777
 20
3.409948119994885
 10
6.045403231033624
 20
3.370332109306591
 10
6.06521123637777
 20
3.330716098618298
 10
6.085019241721919
 20
3.291100087930004
 10
6.104827247066065
 20
3.291100087930004
 10
6.124635252410211
 20
3.291100087930004
  0
LWPOLYLINE
  5
C1
100
AcDbEntity
  8
USP-GEO
100
AcDbPolyline
 90
        5
 70
   128
 43
0.0
 10
6.06521123637777
 20
3.409948119994885
 10
6.085019241721919
 20
3.409948119994885
 10
6.085019241721919
 20
3.370332109306591
 10
6.085019241721919
 20
3.330716098618298
 10
6.06521123637777
 20
3.31090809327415
  0
LWPOLYLINE
  5
C2
100
AcDbEntity
  8
USP-GEO
100
AcDbPolyline
 90
        2
 70
   128
 43
0.0
 10
6.32271530585168
 20
2.893949580779858
 10
6.500987353949003
 20
2.893949580779858
  0
LWPOLYLINE
  5
C3
100
AcDbEntity
  8
USP-GEO
100
AcDbPolyline
 90
        8
 70
   128
 43
0.0
 10
5.966171209657037
 20
4.619226846255051
 10
5.966171209657037
 20
4.777690889008226
 10
5.966171209657037
 20
4.936154931761402
 10
5.966171209657037
 20
5.035194958482135
 10
5.867131182936301
 20
5.035194958482135
 10
5.867131182936301
 20
4.936154931761402
 10
5.867131182936301
 20
4.777690889008226
 10
5.867131182936301
 20
4.619226846255051
  0
LWPOLYLINE
  5
C4
100
AcDbEntity
  8
USP-GEO
100
AcDbPolyline
 90
        7
 70
   128
 43
0.0
 10
5.966171209657037
 20
4.143834717995526
 10
6.045403231033624
 20
4.183450728683821
 10
6.164251263098506
 20
4.322106766092849
 10
6.223675279130947
 20
4.50037881419017
 10
6.164251263098506
 20
4.678650862287492
 10
6.045403231033624
 20
4.797498894352372
 10
5.966171209657037
 20
4.837114905040667
  0
LWPOLYLINE
  5
C5
100
AcDbEntity
  8
USP-GEO
100
AcDbPolyline
 90
       12
 70
   128
 43
0.0
 10
6.263291289819239
 20
4.619226846255051
 10
6.283099295163385
 20
4.639034851599198
 10
6.32271530585168
 20
4.658842856943344
 10
6.500987353949003
 20
4.658842856943344
 10
6.540603364637295
 20
4.639034851599198
 10
6.58021937532559
 20
4.619226846255051
 10
6.58021937532559
 20
4.559802830222611
 10
6.58021937532559
 20
4.520186819534316
 10
6.540603364637295
 20
4.50037881419017
 10
6.500987353949003
 20
4.480570808846023
 10
6.32271530585168
 20
4.480570808846023
 10
6.283099295163385
 20
4.50037881419017
  0
LWPOLYLINE
  5
C6
100
AcDbEntity
  8
USP-GEO
100
AcDbPolyline
 90
       12
 70
   129
 43
0.0
 10
6.164251263098506
 20
4.50037881419017
 10
6.164251263098506
 20
4.539994824878464
 10
6.124635252410211
 20
4.559802830222611
 10
6.104827247066065
 20
4.579610835566757
 10
6.085019241721919
 20
4.559802830222611
 10
6.06521123637777
 20
4.539994824878464
 10
6.045403231033624
 20
4.50037881419017
 10
6.06521123637777
 20
4.460762803501877
 10
6.085019241721919
 20
4.421146792813582
 10
6.104827247066065
 20
4.421146792813582
 10
6.124635252410211
 20
4.421146792813582
 10
6.164251263098506
 20
4.460762803501877
  0
LWPOLYLINE
  5
C7
100
AcDbEntity
  8
USP-GEO
100
AcDbPolyline
 90
        5
 70
   128
 43
0.0
 10
6.06521123637777
 20
4.539994824878464
 10
6.085019241721919
 20
4.539994824878464
 10
6.085019241721919
 20
4.50037881419017
 10
6.085019241721919
 20
4.460762803501877
 10
6.06521123637777
 20
4.440954798157729
  0
LWPOLYLINE
  5
C8
100
AcDbEntity
  8
USP-GEO
100
AcDbPolyline
 90
        4
 70
   128
 43
0.0
 10
6.283099295163385
 20
4.50037881419017
 10
6.263291289819239
 20
4.520186819534316
 10
6.243483284475093
 20
4.559802830222611
 10
6.263291289819239
 20
4.619226846255051
  0
LWPOLYLINE
  5
C9
100
AcDbEntity
  8
USP-GEO
100
AcDbPolyline
 90
        2
 70
   128
 43
0.0
 10
6.500987353949003
 20
4.480570808846023
 10
6.32271530585168
 20
4.480570808846023
  0
LWPOLYLINE
  5
CA
100
AcDbEntity
  8
USP-GEO
100
AcDbPolyline
 90
        2
 70
   128
 43
0.0
 10
6.32271530585168
 20
4.658842856943344
 10
6.500987353949003
 20
4.658842856943344
  0
LWPOLYLINE
  5
CB
100
AcDbEntity
  8
USP-GEO
100
AcDbPolyline
 90
       12
 70
   129
 43
0.0
 10
7.076409909196467
 20
3.56841216274806
 10
7.096217914540616
 20
3.608028173436354
 10
7.076409909196467
 20
3.647644184124647
 10
7.056601903852321
 20
3.687260194812941
 10
6.99717788781988
 20
3.707068200157088
 10
6.957561877131588
 20
3.687260194812941
 10
6.917945866443293
 20
3.647644184124647
 10
6.917945866443293
 20
3.608028173436354
 10
6.917945866443293
 20
3.56841216274806
 10
6.957561877131588
 20
3.528796152059767
 10
6.99717788781988
 20
3.508988146715619
 10
7.056601903852321
 20
3.528796152059767
  0
LWPOLYLINE
  5
CC
100
AcDbEntity
  8
USP-GEO
100
AcDbPolyline
 90
        5
 70
   128
 43
0.0
 10
6.917945866443293
 20
2.319517425799599
 10
6.957561877131588
 20
2.279901415111305
 10
6.99717788781988
 20
2.26009340976716
 10
7.056601903852321
 20
2.279901415111305
 10
6.99717788781988
 20
2.26009340976716
  0
LWPOLYLINE
  5
CD
100
AcDbEntity
  8
USP-GEO
100
AcDbPolyline
 90
       10
 70
   128
 43
0.0
 10
6.917945866443293
 20
2.319517425799599
 10
6.917945866443293
 20
2.359133436487894
 10
6.917945866443293
 20
2.398749447176188
 10
6.957561877131588
 20
2.438365457864481
 10
6.99717788781988
 20
2.438365457864481
 10
7.056601903852321
 20
2.438365457864481
 10
7.076409909196467
 20
2.398749447176188
 10
7.096217914540616
 20
2.359133436487894
 10
7.076409909196467
 20
2.319517425799599
 10
7.056601903852321
 20
2.279901415111305
  0
LWPOLYLINE
  5
CE
100
AcDbEntity
  8
USP-GEO
100
AcDbPolyline
 90
        2
 70
   128
 43
0.0
 10
7.571610042800141
 20
2.477981468552775
 10
7.848922117618197
 20
2.874141575435713
  0
LWPOLYLINE
  5
CF
100
AcDbEntity
  8
USP-GEO
100
AcDbPolyline
 90
       10
 70
   128
 43
0.0
 10
7.631034058832582
 20
3.330716098618298
 10
7.571610042800141
 20
3.330716098618298
 10
7.531994032111846
 20
3.330716098618298
 10
7.492378021423554
 20
3.291100087930004
 10
7.492378021423554
 20
3.251484077241709
 10
7.492378021423554
 20
3.211868066553416
 10
7.531994032111846
 20
3.172252055865122
 10
7.571610042800141
 20
3.152444050520976
 10
7.631034058832582
 20
3.172252055865122
 10
7.650842064176728
 20
3.211868066553416
  0
LWPOLYLINE
  5
D0
100
AcDbEntity
  8
USP-GEO
100
AcDbPolyline
 90
        4
 70
   128
 43
0.0
 10
7.631034058832582
 20
3.330716098618298
 10
7.650842064176728
 20
3.291100087930004
 10
7.670650069520874
 20
3.251484077241709
 10
7.650842064176728
 20
3.211868066553416
  0
LWPOLYLINE
  5
D1
100
AcDbEntity
  8
USP-GEO
100
AcDbPolyline
 90
       12
 70
   129
 43
0.0
 10
7.076409909196467
 20
4.896538921073107
 10
7.096217914540616
 20
4.856922910384813
 10
7.076409909196467
 20
4.81730689969652
 10
7.056601903852321
 20
4.777690889008226
 10
6.99717788781988
 20
4.777690889008226
 10
6.957561877131588
 20
4.777690889008226
 10
6.917945866443293
 20
4.81730689969652
 10
6.917945866443293
 20
4.856922910384813
 10
6.917945866443293
 20
4.896538921073107
 10
6.957561877131588
 20
4.936154931761402
 10
6.99717788781988
 20
4.955962937105548
 10
7.056601903852321
 20
4.936154931761402
  0
LWPOLYLINE
  5
D2
100
AcDbEntity
  8
USP-GEO
100
AcDbPolyline
 90
        9
 70
   128
 43
0.0
 10
7.631034058832582
 20
4.579610835566757
 10
7.571610042800141
 20
4.599418840910905
 10
7.531994032111846
 20
4.579610835566757
 10
7.492378021423554
 20
4.539994824878464
 10
7.492378021423554
 20
4.50037881419017
 10
7.492378021423554
 20
4.460762803501877
 10
7.531994032111846
 20
4.421146792813582
 10
7.571610042800141
 20
4.401338787469436
 10
7.631034058832582
 20
4.421146792813582
  0
LWPOLYLINE
  5
D3
100
AcDbEntity
  8
USP-GEO
100
AcDbPolyline
 90
        5
 70
   128
 43
0.0
 10
7.631034058832582
 20
4.579610835566757
 10
7.650842064176728
 20
4.539994824878464
 10
7.670650069520874
 20
4.50037881419017
 10
7.650842064176728
 20
4.460762803501877
 10
7.631034058832582
 20
4.421146792813582
  0
LWPOLYLINE
  5
D4
100
AcDbEntity
  8
USP-GEO
100
AcDbPolyline
 90
        8
 70
   128
 43
0.0
 10
5.966171209657037
 20
6.502968154483419
 10
5.966171209657037
 20
6.661432197236594
 10
5.966171209657037
 20
6.800088234645622
 10
5.966171209657037
 20
6.918936266710502
 10
5.867131182936301
 20
6.918936266710502
 10
5.867131182936301
 20
6.800088234645622
 10
5.867131182936301
 20
6.661432197236594
 10
5.867131182936301
 20
6.502968154483419
  0
LWPOLYLINE
  5
D5
100
AcDbEntity
  8
USP-GEO
100
AcDbPolyline
 90
        4
 70
   128
 43
0.0
 10
5.966171209657037
 20
6.304888101041949
 10
5.966171209657037
 20
6.502968154483419
 10
5.867131182936301
 20
6.502968154483419
 10
5.867131182936301
 20
6.304888101041949
  0
LWPOLYLINE
  5
D6
100
AcDbEntity
  8
USP-GEO
100
AcDbPolyline
 90
        7
 70
   128
 43
0.0
 10
5.867131182936301
 20
5.986969615268392
 10
5.867131182936301
 20
6.145433658021568
 10
5.867131182936301
 20
6.304888101041949
 10
5.966171209657037
 20
6.304888101041949
 10
5.966171209657037
 20
6.145433658021568
 10
5.966171209657037
 20
5.986969615268392
 10
5.966171209657037
 20
5.887929588547658
  0
LWPOLYLINE
  5
D7
100
AcDbEntity
  8
USP-GEO
100
AcDbPolyline
 90
        8
 70
   128
 43
0.0
 10
5.966171209657037
 20
5.610617513729602
 10
5.966171209657037
 20
5.729465545794484
 10
5.966171209657037
 20
5.808697567171071
 10
5.966171209657037
 20
5.887929588547658
 10
5.867131182936301
 20
5.887929588547658
 10
5.867131182936301
 20
5.808697567171071
 10
5.867131182936301
 20
5.729465545794484
 10
5.867131182936301
 20
5.610617513729602
  0
LWPOLYLINE
  5
D8
100
AcDbEntity
  8
USP-GEO
100
AcDbPolyline
 90
        2
 70
   128
 43
0.0
 10
5.867131182936301
 20
5.986969615268392
 10
5.867131182936301
 20
5.887929588547658
  0
LWPOLYLINE
  5
D9
100
AcDbEntity
  8
USP-GEO
100
AcDbPolyline
 90
        8
 70
   128
 43
0.0
 10
5.966171209657037
 20
5.392729454943987
 10
6.045403231033624
 20
5.392729454943987
 10
6.104827247066065
 20
5.372921449599839
 10
6.124635252410211
 20
5.353113444255694
 10
6.144443257754357
 20
5.313497433567398
 10
6.124635252410211
 20
5.254073417534959
 10
6.104827247066065
 20
5.234265412190811
 10
6.045403231033624
 20
5.214457406846664
  0
LWPOLYLINE
  5
DA
100
AcDbEntity
  8
USP-GEO
100
AcDbPolyline
 90
        2
 70
   128
 43
0.0
 10
6.045403231033624
 20
5.392729454943987
 10
6.104827247066065
 20
5.372921449599839
  0
LWPOLYLINE
  5
DB
100
AcDbEntity
  8
USP-GEO
100
AcDbPolyline
 90
        2
 70
   129
 43
0.0
 10
5.966171209657037
 20
5.214457406846664
 10
6.045403231033624
 20
5.214457406846664
  0
LWPOLYLINE
  5
DC
100
AcDbEntity
  8
USP-GEO
100
AcDbPolyline
 90
        2
 70
   128
 43
0.0
 10
5.966171209657037
 20
5.392729454943987
 10
6.045403231033624
 20
5.392729454943987
  0
LWPOLYLINE
  5
DD
100
AcDbEntity
  8
USP-GEO
100
AcDbPolyline
 90
       12
 70
   128
 43
0.0
 10
6.283099295163385
 20
6.245464085009508
 10
6.32271530585168
 20
6.225656079665363
 10
6.500987353949003
 20
6.225656079665363
 10
6.540603364637295
 20
6.245464085009508
 10
6.58021937532559
 20
6.285080095697804
 10
6.58021937532559
 20
6.324696106386097
 10
6.58021937532559
 20
6.364312117074391
 10
6.540603364637295
 20
6.384120122418536
 10
6.500987353949003
 20
6.403928127762684
 10
6.32271530585168
 20
6.403928127762684
 10
6.283099295163385
 20
6.384120122418536
 10
6.263291289819239
 20
6.364312117074391
  0
LWPOLYLINE
  5
DE
100
AcDbEntity
  8
USP-GEO
100
AcDbPolyline
 90
        4
 70
   128
 43
0.0
 10
6.283099295163385
 20
6.245464085009508
 10
6.263291289819239
 20
6.285080095697804
 10
6.243483284475093
 20
6.324696106386097
 10
6.263291289819239
 20
6.364312117074391
  0
LWPOLYLINE
  5
DF
100
AcDbEntity
  8
USP-GEO
100
AcDbPolyline
 90
       17
 70
   128
 43
0.0
 10
6.06521123637777
 20
6.423736133106832
 10
6.085019241721919
 20
6.403928127762684
 10
6.085019241721919
 20
6.364312117074391
 10
6.085019241721919
 20
6.324696106386097
 10
6.06521123637777
 20
6.324696106386097
 10
6.085019241721919
 20
6.304888101041949
 10
6.104827247066065
 20
6.285080095697804
 10
6.124635252410211
 20
6.304888101041949
 10
6.164251263098506
 20
6.324696106386097
 10
6.164251263098506
 20
6.364312117074391
 10
6.164251263098506
 20
6.403928127762684
 10
6.124635252410211
 20
6.443544138450977
 10
6.104827247066065
 20
6.443544138450977
 10
6.085019241721919
 20
6.443544138450977
 10
6.06521123637777
 20
6.403928127762684
 10
6.045403231033624
 20
6.364312117074391
 10
6.06521123637777
 20
6.324696106386097
  0
LWPOLYLINE
  5
E0
100
AcDbEntity
  8
USP-GEO
100
AcDbPolyline
 90
        7
 70
   128
 43
0.0
 10
5.966171209657037
 20
6.026585625956686
 10
6.045403231033624
 20
6.066201636644979
 10
6.164251263098506
 20
6.186040068977069
 10
6.223675279130947
 20
6.364312117074391
 10
6.164251263098506
 20
6.542584165171712
 10
6.045403231033624
 20
6.68124020258074
 10
5.966171209657037
 20
6.701048207924888
  0
LWPOLYLINE
  5
E1
100
AcDbEntity
  8
USP-GEO
100
AcDbPolyline
 90
        2
 70
   128
 43
0.0
 10
6.500987353949003
 20
6.225656079665363
 10
6.32271530585168
 20
6.225656079665363
  0
LWPOLYLINE
  5
E2
100
AcDbEntity
  8
USP-GEO
100
AcDbPolyline
 90
        2
 70
   128
 43
0.0
 10
6.32271530585168
 20
6.403928127762684
 10
6.500987353949003
 20
6.403928127762684
  0
LWPOLYLINE
  5
E3
100
AcDbEntity
  8
USP-GEO
100
AcDbPolyline
 90
        8
 70
   128
 43
0.0
 10
5.966171209657037
 20
7.751862891431878
 10
5.966171209657037
 20
7.87071092349676
 10
5.966171209657037
 20
8.009366960905788
 10
5.966171209657037
 20
8.18763900900311
 10
5.867131182936301
 20
8.18763900900311
 10
5.867131182936301
 20
8.009366960905788
 10
5.867131182936301
 20
7.87071092349676
 10
5.867131182936301
 20
7.751862891431878
  0
LWPOLYLINE
  5
E4
100
AcDbEntity
  8
USP-GEO
100
AcDbPolyline
 90
        8
 70
   128
 43
0.0
 10
5.867131182936301
 20
7.49435882195797
 10
5.867131182936301
 20
7.593398848678704
 10
5.867131182936301
 20
7.692438875399439
 10
5.867131182936301
 20
7.751862891431878
 10
5.966171209657037
 20
7.751862891431878
 10
5.966171209657037
 20
7.692438875399439
 10
5.966171209657037
 20
7.593398848678704
 10
5.966171209657037
 20
7.49435882195797
  0
LWPOLYLINE
  5
E5
100
AcDbEntity
  8
USP-GEO
100
AcDbPolyline
 90
        4
 70
   128
 43
0.0
 10
5.966171209657037
 20
7.176440336184413
 10
5.966171209657037
 20
7.49435882195797
 10
5.867131182936301
 20
7.49435882195797
 10
5.867131182936301
 20
7.176440336184413
  0
LWPOLYLINE
  5
E6
100
AcDbEntity
  8
USP-GEO
100
AcDbPolyline
 90
        8
 70
   128
 43
0.0
 10
5.966171209657037
 20
6.918936266710502
 10
5.966171209657037
 20
6.978360282742944
 10
5.966171209657037
 20
7.077400309463678
 10
5.966171209657037
 20
7.176440336184413
 10
5.867131182936301
 20
7.176440336184413
 10
5.867131182936301
 20
7.077400309463678
 10
5.867131182936301
 20
6.978360282742944
 10
5.867131182936301
 20
6.918936266710502
  0
LWPOLYLINE
  5
E7
100
AcDbEntity
  8
USP-GEO
100
AcDbPolyline
 90
        5
 70
   128
 43
0.0
 10
6.124635252410211
 20
7.097208314807824
 10
6.144443257754357
 20
7.05759230411953
 10
6.124635252410211
 20
7.017976293431237
 10
6.104827247066065
 20
6.978360282742944
 10
6.045403231033624
 20
6.978360282742944
  0
LWPOLYLINE
  5
E8
100
AcDbEntity
  8
USP-GEO
100
AcDbPolyline
 90
        2
 70
   129
 43
0.0
 10
5.966171209657037
 20
6.978360282742944
 10
6.045403231033624
 20
6.978360282742944
  0
LWPOLYLINE
  5
E9
100
AcDbEntity
  8
USP-GEO
100
AcDbPolyline
 90
        4
 70
   128
 43
0.0
 10
5.966171209657037
 20
7.136824325496117
 10
6.045403231033624
 20
7.136824325496117
 10
6.104827247066065
 20
7.136824325496117
 10
6.124635252410211
 20
7.097208314807824
  0
LWPOLYLINE
  5
EA
100
AcDbEntity
  8
USP-GEO
100
AcDbPolyline
 90
        2
 70
   128
 43
0.0
 10
5.966171209657037
 20
7.136824325496117
 10
6.045403231033624
 20
7.136824325496117
  0
LWPOLYLINE
  5
EB
100
AcDbEntity
  8
USP-GEO
100
AcDbPolyline
 90
        2
 70
   128
 43
0.0
 10
6.500987353949003
 20
8.227255019691403
 10
6.32271530585168
 20
8.227255019691403
  0
LWPOLYLINE
  5
EC
100
AcDbEntity
  8
USP-GEO
100
AcDbPolyline
 90
       12
 70
   129
 43
0.0
 10
7.096217914540616
 20
6.105817647333275
 10
7.076409909196467
 20
6.066201636644979
 10
7.056601903852321
 20
6.026585625956686
 10
6.99717788781988
 20
6.026585625956686
 10
6.957561877131588
 20
6.026585625956686
 10
6.917945866443293
 20
6.066201636644979
 10
6.917945866443293
 20
6.105817647333275
 10
6.917945866443293
 20
6.166232063632921
 10
6.957561877131588
 20
6.186040068977069
 10
6.99717788781988
 20
6.205848074321215
 10
7.056601903852321
 20
6.186040068977069
 10
7.076409909196467
 20
6.166232063632921
  0
LWPOLYLINE
  5
ED
100
AcDbEntity
  8
USP-GEO
100
AcDbPolyline
 90
        2
 70
   128
 43
0.0
 10
6.957561877131588
 20
6.186040068977069
 10
6.99717788781988
 20
6.205848074321215
  0
LWPOLYLINE
  5
EE
100
AcDbEntity
  8
USP-GEO
100
AcDbPolyline
 90
       12
 70
   129
 43
0.0
 10
7.571610042800141
 20
5.927545599235951
 10
7.631034058832582
 20
5.907737593891805
 10
7.650842064176728
 20
5.868121583203512
 10
7.670650069520874
 20
5.828505572515217
 10
7.650842064176728
 20
5.788889561826923
 10
7.631034058832582
 20
5.74927355113863
 10
7.571610042800141
 20
5.74927355113863
 10
7.531994032111846
 20
5.74927355113863
 10
7.492378021423554
 20
5.788889561826923
 10
7.492378021423554
 20
5.828505572515217
 10
7.492378021423554
 20
5.868121583203512
 10
7.531994032111846
 20
5.907737593891805
  0
LWPOLYLINE
  5
EF
100
AcDbEntity
  8
USP-GEO
100
AcDbPolyline
 90
       12
 70
   129
 43
0.0
 10
7.096217914540616
 20
7.05759230411953
 10
7.076409909196467
 20
7.017976293431237
 10
7.056601903852321
 20
6.978360282742944
 10
6.99717788781988
 20
6.978360282742944
 10
6.957561877131588
 20
6.978360282742944
 10
6.917945866443293
 20
7.017976293431237
 10
6.917945866443293
 20
7.05759230411953
 10
6.917945866443293
 20
7.097208314807824
 10
6.957561877131588
 20
7.136824325496117
 10
6.99717788781988
 20
7.156632330840265
 10
7.056601903852321
 20
7.136824325496117
 10
7.076409909196467
 20
7.097208314807824
  0
LWPOLYLINE
  5
F0
100
AcDbEntity
  8
USP-GEO
100
AcDbPolyline
 90
        2
 70
   128
 43
0.0
 10
6.957561877131588
 20
7.136824325496117
 10
6.99717788781988
 20
7.156632330840265
  0
LWPOLYLINE
  5
F1
100
AcDbEntity
  8
USP-GEO
100
AcDbPolyline
 90
       12
 70
   129
 43
0.0
 10
7.096217914540616
 20
7.9301349395292
 10
7.076409909196467
 20
7.890518928840906
 10
7.056601903852321
 20
7.850902918152613
 10
6.99717788781988
 20
7.831094912808467
 10
6.957561877131588
 20
7.850902918152613
 10
6.917945866443293
 20
7.890518928840906
 10
6.917945866443293
 20
7.9301349395292
 10
6.917945866443293
 20
7.969750950217495
 10
6.957561877131588
 20
8.009366960905788
 10
6.99717788781988
 20
8.009366960905788
 10
7.056601903852321
 20
8.009366960905788
 10
7.076409909196467
 20
7.969750950217495
  0
LWPOLYLINE
  5
F2
100
AcDbEntity
  8
USP-GEO
100
AcDbPolyline
 90
        2
 70
   128
 43
0.0
 10
6.957561877131588
 20
8.009366960905788
 10
6.99717788781988
 20
8.009366960905788
  0
LWPOLYLINE
  5
F3
100
AcDbEntity
  8
USP-GEO
100
AcDbPolyline
 90
        7
 70
   128
 43
0.0
 10
7.571610042800141
 20
6.958552277398796
 10
7.631034058832582
 20
6.958552277398796
 10
7.650842064176728
 20
6.918936266710502
 10
7.670650069520874
 20
6.879320256022209
 10
7.650842064176728
 20
6.839704245333916
 10
7.631034058832582
 20
6.800088234645622
 10
7.571610042800141
 20
6.780280229301475
  0
LWPOLYLINE
  5
F4
100
AcDbEntity
  8
USP-GEO
100
AcDbPolyline
 90
        2
 70
   128
 43
0.0
 10
7.531994032111846
 20
6.958552277398796
 10
7.571610042800141
 20
6.958552277398796
  0
LWPOLYLINE
  5
F5
100
AcDbEntity
  8
USP-GEO
100
AcDbPolyline
 90
        7
 70
   128
 43
0.0
 10
7.571610042800141
 20
6.780280229301475
 10
7.531994032111846
 20
6.800088234645622
 10
7.492378021423554
 20
6.839704245333916
 10
7.492378021423554
 20
6.879320256022209
 10
7.492378021423554
 20
6.918936266710502
 10
7.531994032111846
 20
6.958552277398796
 10
7.571610042800141
 20
6.958552277398796
  0
LWPOLYLINE
  5
F6
100
AcDbEntity
  8
USP-GEO
100
AcDbPolyline
 90
        2
 70
   128
 43
0.0
 10
8.086618181747958
 20
3.825916232221969
 10
8.086618181747958
 20
4.619226846255051
  0
LWPOLYLINE
  5
F7
100
AcDbEntity
  8
USP-GEO
100
AcDbPolyline
 90
        2
 70
   128
 43
0.0
 10
8.20546621381284
 20
4.936154931761402
 10
8.325304646144928
 20
5.035194958482135
  0
LWPOLYLINE
  5
F8
100
AcDbEntity
  8
USP-GEO
100
AcDbPolyline
 90
       12
 70
   129
 43
0.0
 10
8.225274219156986
 20
5.353113444255694
 10
8.245082224501135
 20
5.293689428223252
 10
8.225274219156986
 20
5.254073417534959
 10
8.20546621381284
 20
5.214457406846664
 10
8.146042197780399
 20
5.214457406846664
 10
8.106426187092107
 20
5.214457406846664
 10
8.086618181747958
 20
5.254073417534959
 10
8.066810176403812
 20
5.293689428223252
 10
8.086618181747958
 20
5.353113444255694
 10
8.106426187092107
 20
5.372921449599839
 10
8.146042197780399
 20
5.392729454943987
 10
8.20546621381284
 20
5.372921449599839
  0
LWPOLYLINE
  5
F9
100
AcDbEntity
  8
USP-GEO
100
AcDbPolyline
 90
        2
 70
   128
 43
0.0
 10
8.463960683553956
 20
5.313497433567398
 10
8.463960683553956
 20
5.610617513729602
  0
LWPOLYLINE
  5
FA
100
AcDbEntity
  8
USP-GEO
100
AcDbPolyline
 90
        2
 70
   128
 43
0.0
 10
8.086618181747958
 20
6.304888101041949
 10
8.086618181747958
 20
6.502968154483419
  0
LWPOLYLINE
  5
FB
100
AcDbEntity
  8
USP-GEO
100
AcDbPolyline
 90
        2
 70
   128
 43
0.0
 10
8.463960683553956
 20
7.176440336184413
 10
8.463960683553956
 20
7.49435882195797
  0
LWPOLYLINE
  5
FC
100
AcDbEntity
  8
USP-GEO
100
AcDbPolyline
 90
        2
 70
   128
 43
0.0
 10
8.20546621381284
 20
6.800088234645622
 10
8.325304646144928
 20
6.918936266710502
  0
LWPOLYLINE
  5
FD
100
AcDbEntity
  8
USP-GEO
100
AcDbPolyline
 90
       12
 70
   129
 43
0.0
 10
8.225274219156986
 20
6.998168288087089
 10
8.245082224501135
 20
7.05759230411953
 10
8.225274219156986
 20
7.097208314807824
 10
8.20546621381284
 20
7.136824325496117
 10
8.146042197780399
 20
7.136824325496117
 10
8.106426187092107
 20
7.136824325496117
 10
8.086618181747958
 20
7.097208314807824
 10
8.066810176403812
 20
7.05759230411953
 10
8.086618181747958
 20
6.998168288087089
 10
8.106426187092107
 20
6.978360282742944
 10
8.146042197780399
 20
6.958552277398796
 10
8.20546621381284
 20
6.978360282742944
  0
LWPOLYLINE
  5
FE
100
AcDbEntity
  8
USP-GEO
100
AcDbPolyline
 90
        2
 70
   128
 43
0.0
 10
8.106426187092107
 20
6.978360282742944
 10
8.086618181747958
 20
6.998168288087089
  0
LWPOLYLINE
  5
FF
100
AcDbEntity
  8
USP-GEO
100
AcDbPolyline
 90
        7
 70
   128
 43
0.0
 10
0.3575344964618505
 20
9.139413665789367
 10
0.3179184857735571
 20
9.139413665789367
 10
0.2783024750852636
 20
9.139413665789367
 10
0.2386864643969702
 20
9.099797655101072
 10
0.2386864643969702
 20
9.060181644412779
 10
0.2386864643969702
 20
9.000757628380339
 10
0.2783024750852636
 20
8.980949623036192
  0
LWPOLYLINE
  5
100
100
AcDbEntity
  8
USP-GEO
100
AcDbPolyline
 90
        7
 70
   128
 43
0.0
 10
0.3575344964618505
 20
9.139413665789367
 10
0.397150507150144
 20
9.099797655101072
 10
0.4169585124942899
 20
9.060181644412779
 10
0.397150507150144
 20
9.000757628380339
 10
0.3575344964618505
 20
8.980949623036192
 10
0.3179184857735571
 20
8.961141617692044
 10
0.2783024750852636
 20
8.980949623036192
  0
LWPOLYLINE
  5
101
100
AcDbEntity
  8
USP-GEO
100
AcDbPolyline
 90
        2
 70
   128
 43
0.0
 10
0.2783024750852636
 20
9.139413665789367
 10
0.3179184857735571
 20
9.139413665789367
  0
LWPOLYLINE
  5
102
100
AcDbEntity
  8
USP-GEO
100
AcDbPolyline
 90
       12
 70
   129
 43
0.0
 10
0.9913906674745511
 20
8.564981510809108
 10
0.9715826621304053
 20
8.604597521497401
 10
0.9319666514421101
 20
8.644213532185695
 10
0.8923506407538148
 20
8.644213532185695
 10
0.8527346300655231
 20
8.644213532185695
 10
0.8131186193772279
 20
8.604597521497401
 10
0.8131186193772279
 20
8.564981510809108
 10
0.8131186193772279
 20
8.505557494776667
 10
0.8527346300655231
 20
8.485749489432521
 10
0.8923506407538148
 20
8.465941484088373
 10
0.9319666514421101
 20
8.485749489432521
 10
0.9715826621304053
 20
8.505557494776667
  0
LWPOLYLINE
  5
103
100
AcDbEntity
  8
USP-GEO
100
AcDbPolyline
 90
        2
 70
   128
 43
0.0
 10
0.9319666514421101
 20
8.644213532185695
 10
0.9715826621304053
 20
8.604597521497401
  0
LWPOLYLINE
  5
104
100
AcDbEntity
  8
USP-GEO
100
AcDbPolyline
 90
        2
 70
   128
 43
0.0
 10
1.962973329604952
 20
8.347093452023491
 10
2.141245377702276
 20
8.347093452023491
  0
LWPOLYLINE
  5
105
100
AcDbEntity
  8
USP-GEO
100
AcDbPolyline
 90
        2
 70
   128
 43
0.0
 10
1.903549313572515
 20
8.307477441335198
 10
1.923357318916661
 20
8.327285446679345
  0
LWPOLYLINE
  5
106
100
AcDbEntity
  8
USP-GEO
100
AcDbPolyline
 90
        2
 70
   128
 43
0.0
 10
1.903549313572515
 20
8.307477441335198
 10
1.923357318916661
 20
8.327285446679345
  0
LWPOLYLINE
  5
107
100
AcDbEntity
  8
USP-GEO
100
AcDbPolyline
 90
        8
 70
   128
 43
0.0
 10
2.418557452520332
 20
8.901717601659605
 10
2.37894144183204
 20
8.921525607003751
 10
2.339325431143745
 20
8.961141617692044
 10
2.339325431143745
 20
9.000757628380339
 10
2.339325431143745
 20
9.040373639068633
 10
2.37894144183204
 20
9.079989649756926
 10
2.418557452520332
 20
9.079989649756926
 10
2.497789473896919
 20
9.079989649756926
  0
LWPOLYLINE
  5
108
100
AcDbEntity
  8
USP-GEO
100
AcDbPolyline
 90
        8
 70
   128
 43
0.0
 10
2.616637505961801
 20
9.060181644412779
 10
2.616637505961801
 20
8.961141617692044
 10
2.616637505961801
 20
8.862101590971311
 10
2.616637505961801
 20
8.80267757493887
 10
2.497789473896919
 20
8.80267757493887
 10
2.497789473896919
 20
8.862101590971311
 10
2.497789473896919
 20
8.961141617692044
 10
2.497789473896919
 20
9.060181644412779
  0
LWPOLYLINE
  5
109
100
AcDbEntity
  8
USP-GEO
100
AcDbPolyline
 90
       10
 70
   128
 43
0.0
 10
2.418557452520332
 20
8.386709462711786
 10
2.398749447176186
 20
8.366901457367639
 10
2.359133436487891
 20
8.347093452023491
 10
2.339325431143745
 20
8.366901457367639
 10
2.319517425799599
 20
8.386709462711786
 10
2.319517425799599
 20
8.42632547340008
 10
2.319517425799599
 20
8.465941484088373
 10
2.339325431143745
 20
8.505557494776667
 10
2.359133436487891
 20
8.505557494776667
 10
2.398749447176186
 20
8.505557494776667
  0
LWPOLYLINE
  5
10A
100
AcDbEntity
  8
USP-GEO
100
AcDbPolyline
 90
        8
 70
   128
 43
0.0
 10
2.497789473896919
 20
8.80267757493887
 10
2.497789473896919
 20
8.683829542873988
 10
2.497789473896919
 20
8.54517350546496
 10
2.497789473896919
 20
8.366901457367639
 10
2.616637505961801
 20
8.366901457367639
 10
2.616637505961801
 20
8.54517350546496
 10
2.616637505961801
 20
8.683829542873988
 10
2.616637505961801
 20
8.80267757493887
  0
LWPOLYLINE
  5
10B
100
AcDbEntity
  8
USP-GEO
100
AcDbPolyline
 90
        4
 70
   128
 43
0.0
 10
2.398749447176186
 20
8.485749489432521
 10
2.398749447176186
 20
8.465941484088373
 10
2.37894144183204
 20
8.42632547340008
 10
2.398749447176186
 20
8.386709462711786
  0
LWPOLYLINE
  5
10C
100
AcDbEntity
  8
USP-GEO
100
AcDbPolyline
 90
        2
 70
   128
 43
0.0
 10
2.398749447176186
 20
8.505557494776667
 10
2.418557452520332
 20
8.465941484088373
  0
LWPOLYLINE
  5
10D
100
AcDbEntity
  8
USP-GEO
100
AcDbPolyline
 90
        3
 70
   128
 43
0.0
 10
2.418557452520332
 20
8.465941484088373
 10
2.418557452520332
 20
8.42632547340008
 10
2.418557452520332
 20
8.386709462711786
  0
LWPOLYLINE
  5
10E
100
AcDbEntity
  8
USP-GEO
100
AcDbPolyline
 90
        2
 70
   129
 43
0.0
 10
2.418557452520332
 20
8.901717601659605
 10
2.497789473896919
 20
8.901717601659605
  0
LWPOLYLINE
  5
10F
100
AcDbEntity
  8
USP-GEO
100
AcDbPolyline
 90
        2
 70
   128
 43
0.0
 10
2.418557452520332
 20
9.079989649756926
 10
2.497789473896919
 20
9.079989649756926
  0
LWPOLYLINE
  5
110
100
AcDbEntity
  8
USP-GEO
100
AcDbPolyline
 90
        4
 70
   129
 43
0.0
 10
2.616637505961801
 20
9.060181644412779
 10
2.616637505961801
 20
9.378100130186336
 10
2.497789473896919
 20
9.378100130186336
 10
2.497789473896919
 20
9.060181644412779
  0
LWPOLYLINE
  5
111
100
AcDbEntity
  8
USP-GEO
100
AcDbPolyline
 90
        2
 70
   129
 43
0.0
 10
5.966171209657037
 20
9.378100130186336
 10
8.463960683553956
 20
9.378100130186336
  0
LWPOLYLINE
  5
112
100
AcDbEntity
  8
USP-GEO
100
AcDbPolyline
 90
        2
 70
   128
 43
0.0
 10
5.966171209657037
 20
9.378100130186336
 10
5.867131182936301
 20
9.378100130186336
  0
LWPOLYLINE
  5
113
100
AcDbEntity
  8
USP-GEO
100
AcDbPolyline
 90
        4
 70
   128
 43
0.0
 10
5.966171209657037
 20
9.060181644412779
 10
5.966171209657037
 20
9.378100130186336
 10
5.867131182936301
 20
9.378100130186336
 10
5.867131182936301
 20
9.060181644412779
  0
LWPOLYLINE
  5
114
100
AcDbEntity
  8
USP-GEO
100
AcDbPolyline
 90
        8
 70
   128
 43
0.0
 10
5.966171209657037
 20
8.80267757493887
 10
5.966171209657037
 20
8.862101590971311
 10
5.966171209657037
 20
8.961141617692044
 10
5.966171209657037
 20
9.060181644412779
 10
5.867131182936301
 20
9.060181644412779
 10
5.867131182936301
 20
8.961141617692044
 10
5.867131182936301
 20
8.862101590971311
 10
5.867131182936301
 20
8.80267757493887
  0
LWPOLYLINE
  5
115
100
AcDbEntity
  8
USP-GEO
100
AcDbPolyline
 90
        8
 70
   128
 43
0.0
 10
5.966171209657037
 20
8.366901457367639
 10
5.966171209657037
 20
8.54517350546496
 10
5.966171209657037
 20
8.683829542873988
 10
5.966171209657037
 20
8.80267757493887
 10
5.867131182936301
 20
8.80267757493887
 10
5.867131182936301
 20
8.683829542873988
 10
5.867131182936301
 20
8.54517350546496
 10
5.867131182936301
 20
8.366901457367639
  0
LWPOLYLINE
  5
116
100
AcDbEntity
  8
USP-GEO
100
AcDbPolyline
 90
        4
 70
   128
 43
0.0
 10
5.867131182936301
 20
9.378100130186336
 10
5.867131182936301
 20
9.060181644412779
 10
5.867131182936301
 20
8.961141617692044
 10
5.867131182936301
 20
8.862101590971311
  0
LWPOLYLINE
  5
117
100
AcDbEntity
  8
USP-GEO
100
AcDbPolyline
 90
        3
 70
   128
 43
0.0
 10
6.124635252410211
 20
9.099797655101072
 10
6.144443257754357
 20
9.060181644412779
 10
6.124635252410211
 20
9.020565633724485
  0
LWPOLYLINE
  5
118
100
AcDbEntity
  8
USP-GEO
100
AcDbPolyline
 90
        2
 70
   128
 43
0.0
 10
6.263291289819239
 20
8.366901457367639
 10
6.283099295163385
 20
8.386709462711786
  0
LWPOLYLINE
  5
119
100
AcDbEntity
  8
USP-GEO
100
AcDbPolyline
 90
        2
 70
   128
 43
0.0
 10
6.263291289819239
 20
8.287669435991052
 10
6.243483284475093
 20
8.327285446679345
  0
LWPOLYLINE
  5
11A
100
AcDbEntity
  8
USP-GEO
100
AcDbPolyline
 90
        2
 70
   129
 43
0.0
 10
6.104827247066065
 20
8.980949623036192
 10
6.124635252410211
 20
9.020565633724485
  0
LWPOLYLINE
  5
11B
100
AcDbEntity
  8
USP-GEO
100
AcDbPolyline
 90
        2
 70
   129
 43
0.0
 10
5.966171209657037
 20
8.980949623036192
 10
6.045403231033624
 20
8.980949623036192
  0
LWPOLYLINE
  5
11C
100
AcDbEntity
  8
USP-GEO
100
AcDbPolyline
 90
        2
 70
   128
 43
0.0
 10
6.104827247066065
 20
8.980949623036192
 10
6.045403231033624
 20
8.980949623036192
  0
LWPOLYLINE
  5
11D
100
AcDbEntity
  8
USP-GEO
100
AcDbPolyline
 90
        2
 70
   128
 43
0.0
 10
6.32271530585168
 20
8.406517468055932
 10
6.500987353949003
 20
8.406517468055932
  0
LWPOLYLINE
  5
11E
100
AcDbEntity
  8
USP-GEO
100
AcDbPolyline
 90
        4
 70
   128
 43
0.0
 10
5.966171209657037
 20
9.139413665789367
 10
6.045403231033624
 20
9.139413665789367
 10
6.104827247066065
 20
9.139413665789367
 10
6.124635252410211
 20
9.099797655101072
  0
LWPOLYLINE
  5
11F
100
AcDbEntity
  8
USP-GEO
100
AcDbPolyline
 90
        2
 70
   128
 43
0.0
 10
5.966171209657037
 20
9.139413665789367
 10
6.045403231033624
 20
9.139413665789367
  0
LWPOLYLINE
  5
120
100
AcDbEntity
  8
USP-GEO
100
AcDbPolyline
 90
        7
 70
   128
 43
0.0
 10
7.571610042800141
 20
8.584789516153254
 10
7.631034058832582
 20
8.584789516153254
 10
7.650842064176728
 20
8.54517350546496
 10
7.670650069520874
 20
8.505557494776667
 10
7.650842064176728
 20
8.446133478744226
 10
7.631034058832582
 20
8.42632547340008
 10
7.571610042800141
 20
8.406517468055932
  0
LWPOLYLINE
  5
121
100
AcDbEntity
  8
USP-GEO
100
AcDbPolyline
 90
        2
 70
   128
 43
0.0
 10
7.531994032111846
 20
8.42632547340008
 10
7.492378021423554
 20
8.446133478744226
  0
LWPOLYLINE
  5
122
100
AcDbEntity
  8
USP-GEO
100
AcDbPolyline
 90
        7
 70
   128
 43
0.0
 10
7.571610042800141
 20
8.406517468055932
 10
7.531994032111846
 20
8.42632547340008
 10
7.492378021423554
 20
8.446133478744226
 10
7.492378021423554
 20
8.505557494776667
 10
7.492378021423554
 20
8.54517350546496
 10
7.531994032111846
 20
8.584789516153254
 10
7.571610042800141
 20
8.584789516153254
  0
LWPOLYLINE
  5
123
100
AcDbEntity
  8
USP-GEO
100
AcDbPolyline
 90
       12
 70
   128
 43
0.0
 10
8.106426187092107
 20
9.139413665789367
 10
8.146042197780399
 20
9.139413665789367
 10
8.20546621381284
 20
9.139413665789367
 10
8.225274219156986
 20
9.099797655101072
 10
8.245082224501135
 20
9.060181644412779
 10
8.225274219156986
 20
9.000757628380339
 10
8.20546621381284
 20
8.980949623036192
 10
8.146042197780399
 20
8.961141617692044
 10
8.106426187092107
 20
8.980949623036192
 10
8.086618181747958
 20
9.000757628380339
 10
8.066810176403812
 20
9.060181644412779
 10
8.086618181747958
 20
9.099797655101072
  0
LWPOLYLINE
  5
124
100
AcDbEntity
  8
USP-GEO
100
AcDbPolyline
 90
        2
 70
   128
 43
0.0
 10
8.20546621381284
 20
8.683829542873988
 10
8.325304646144928
 20
8.80267757493887
  0
LWPOLYLINE
  5
125
100
AcDbEntity
  8
USP-GEO
100
AcDbPolyline
 90
        2
 70
   128
 43
0.0
 10
8.086618181747958
 20
9.099797655101072
 10
8.106426187092107
 20
9.139413665789367
  0
LWPOLYLINE
  5
126
100
AcDbEntity
  8
USP-GEO
100
AcDbPolyline
 90
        2
 70
   128
 43
0.0
 10
8.463960683553956
 20
9.060181644412779
 10
8.463960683553956
 20
9.378100130186336
  0
ENDBLK
  5
128
100
AcDbEntity
  8
0
100
AcDbBlockEnd
  0
BLOCK
  5
190
100
AcDbEntity
  8
0
100
AcDbBlockBegin
  2
THDH210-2_S
 70
     0
 10
0.0
 20
0.0
 30
0.0
  3
THDH210-2_S
  1

  0
LWPOLYLINE
  5
12B
100
AcDbEntity
  8
USP-GEO
100
AcDbPolyline
 90
       88
 70
   129
 43
0.0
 10
0.0
 20
5.115417380125931
 10
0.0
 20
5.035194958482135
 10
0.0
 20
4.936154931761402
 10
0.0
 20
4.777690889008226
 10
0.0
 20
4.619226846255051
 10
0.0
 20
3.825916232221969
 10
0.0
 20
3.350524103962444
 10
0.0
 20
2.874141575435713
 10
0.0
 20
2.477981468552775
 10
0.0
 20
0.812128219110022
 10
0.0
 20
0.7923202137658763
 10
0.0
 20
0.7527042030775811
 10
0.0
 20
0.7130881923892894
 10
0.0990400267207346
 20
0.7130881923892894
 10
0.0990400267207346
 20
0.7527042030775811
 10
0.0990400267207346
 20
0.7923202137658763
 10
0.0990400267207346
 20
0.812128219110022
 10
0.0990400267207346
 20
2.477981468552775
 10
0.0990400267207346
 20
2.874141575435713
 10
0.0990400267207346
 20
3.350524103962444
 10
0.0990400267207346
 20
3.825916232221969
 10
0.0990400267207346
 20
4.619226846255051
 10
0.0990400267207346
 20
4.777690889008226
 10
0.0990400267207346
 20
4.936154931761402
 10
0.0990400267207346
 20
5.035194958482135
 10
0.0990400267207346
 20
5.115417380125931
 10
0.0990400267207346
 20
5.194649401502518
 10
0.0990400267207346
 20
5.313497433567398
 10
0.0990400267207346
 20
5.610617513729602
 10
0.0990400267207346
 20
5.729465545794484
 10
0.0990400267207346
 20
5.808697567171071
 10
0.0990400267207346
 20
5.887929588547658
 10
0.0990400267207346
 20
5.986969615268392
 10
0.0990400267207346
 20
6.145433658021568
 10
0.0990400267207346
 20
6.304888101041949
 10
0.0990400267207346
 20
6.502968154483419
 10
0.0990400267207346
 20
6.661432197236594
 10
0.0990400267207346
 20
6.800088234645622
 10
0.0990400267207346
 20
6.918936266710502
 10
0.0990400267207346
 20
6.978360282742944
 10
0.0990400267207346
 20
7.077400309463678
 10
0.0990400267207346
 20
7.176440336184413
 10
0.0990400267207346
 20
7.49435882195797
 10
0.0990400267207346
 20
7.593398848678704
 10
0.0990400267207346
 20
7.692438875399439
 10
0.0990400267207346
 20
7.751862891431878
 10
0.0990400267207346
 20
7.87071092349676
 10
0.0990400267207346
 20
8.009366960905788
 10
0.0990400267207346
 20
8.18763900900311
 10
0.0990400267207346
 20
8.366901457367639
 10
0.0990400267207346
 20
8.54517350546496
 10
0.0990400267207346
 20
8.683829542873988
 10
0.0990400267207346
 20
8.80267757493887
 10
0.0990400267207346
 20
8.862101590971311
 10
0.0990400267207346
 20
8.961141617692044
 10
0.0990400267207346
 20
9.060181644412779
 10
0.0990400267207346
 20
9.378100130186336
 10
0.0
 20
9.378100130186336
 10
0.0
 20
9.060181644412779
 10
0.0
 20
8.961141617692044
 10
0.0
 20
8.862101590971311
 10
0.0
 20
8.80267757493887
 10
0.0
 20
8.683829542873988
 10
0.0
 20
8.54517350546496
 10
0.0
 20
8.366901457367639
 10
0.0
 20
8.18763900900311
 10
0.0
 20
8.009366960905788
 10
0.0
 20
7.87071092349676
 10
0.0
 20
7.751862891431878
 10
0.0
 20
7.692438875399439
 10
0.0
 20
7.593398848678704
 10
0.0
 20
7.49435882195797
 10
0.0
 20
7.176440336184413
 10
0.0
 20
7.077400309463678
 10
0.0
 20
6.978360282742944
 10
0.0
 20
6.918936266710502
 10
0.0
 20
6.800088234645622
 10
0.0
 20
6.661432197236594
 10
0.0
 20
6.502968154483419
 10
0.0
 20
6.304888101041949
 10
0.0
 20
6.145433658021568
 10
0.0
 20
5.986969615268392
 10
0.0
 20
5.887929588547658
 10
0.0
 20
5.808697567171071
 10
0.0
 20
5.729465545794484
 10
0.0
 20
5.610617513729602
 10
0.0
 20
5.313497433567398
 10
0.0
 20
5.194649401502518
  0
LWPOLYLINE
  5
12C
100
AcDbEntity
  8
USP-GEO
100
AcDbPolyline
 90
        2
 70
   128
 43
0.0
 10
0.0
 20
8.366901457367639
 10
0.0
 20
8.18763900900311
  0
LWPOLYLINE
  5
12D
100
AcDbEntity
  8
USP-GEO
100
AcDbPolyline
 90
       57
 70
   128
 43
0.0
 10
4.221085938837697
 20
0.0
 10
0.2178880587856149
 20
0.0
 10
0.2178880587856149
 20
0.2971200801622054
 10
0.2178880587856149
 20
0.4357761175712334
 10
0.1782720480973214
 20
0.5744321549802614
 10
0.0990400267207346
 20
0.7130881923892894
 10
0.0990400267207346
 20
0.7527042030775811
 10
0.0990400267207346
 20
0.7923202137658763
 10
0.0990400267207346
 20
0.812128219110022
 10
0.0990400267207346
 20
2.477981468552775
 10
0.0990400267207346
 20
2.874141575435713
 10
0.0990400267207346
 20
3.350524103962444
 10
0.0990400267207346
 20
3.825916232221969
 10
0.0990400267207346
 20
4.619226846255051
 10
0.0990400267207346
 20
4.777690889008226
 10
0.0990400267207346
 20
4.936154931761402
 10
0.0990400267207346
 20
5.035194958482135
 10
0.0990400267207346
 20
5.115417380125931
 10
0.0990400267207346
 20
5.194649401502518
 10
0.0990400267207346
 20
5.313497433567398
 10
0.0990400267207346
 20
5.610617513729602
 10
0.0990400267207346
 20
5.729465545794484
 10
0.0990400267207346
 20
5.808697567171071
 10
0.0990400267207346
 20
5.887929588547658
 10
0.0990400267207346
 20
5.986969615268392
 10
0.0990400267207346
 20
6.145433658021568
 10
0.0990400267207346
 20
6.304888101041949
 10
0.0990400267207346
 20
6.502968154483419
 10
0.0990400267207346
 20
6.661432197236594
 10
0.0990400267207346
 20
6.800088234645622
 10
0.0990400267207346
 20
6.918936266710502
 10
0.0990400267207346
 20
6.978360282742944
 10
0.0990400267207346
 20
7.077400309463678
 10
0.0990400267207346
 20
7.176440336184413
 10
0.0990400267207346
 20
7.49435882195797
 10
0.0990400267207346
 20
7.593398848678704
 10
0.0990400267207346
 20
7.692438875399439
 10
0.0990400267207346
 20
7.751862891431878
 10
0.0990400267207346
 20
7.87071092349676
 10
0.0990400267207346
 20
8.009366960905788
 10
0.0990400267207346
 20
8.18763900900311
 10
0.0990400267207346
 20
8.366901457367639
 10
0.0990400267207346
 20
8.54517350546496
 10
0.0990400267207346
 20
8.683829542873988
 10
0.0990400267207346
 20
8.80267757493887
 10
0.0990400267207346
 20
8.862101590971311
 10
0.0990400267207346
 20
8.961141617692044
 10
0.0990400267207346
 20
9.060181644412779
 10
0.0990400267207346
 20
9.378100130186336
 10
1.605438833143104
 20
9.378100130186336
 10
1.605438833143104
 20
9.060181644412779
 10
1.62524683848725
 20
8.961141617692044
 10
1.664862849175545
 20
8.862101590971311
 10
1.744094870552132
 20
8.80267757493887
 10
1.862942902617012
 20
8.683829542873988
 10
1.942174923993601
 20
8.54517350546496
 10
1.981790934681894
 20
8.366901457367639
  0
LWPOLYLINE
  5
12E
100
AcDbEntity
  8
USP-GEO
100
AcDbPolyline
 90
        2
 70
   129
 43
0.0
 10
1.981790934681894
 20
8.366901457367639
 10
1.981790934681894
 20
8.18763900900311
  0
LWPOLYLINE
  5
12F
100
AcDbEntity
  8
USP-GEO
100
AcDbPolyline
 90
       12
 70
   129
 43
0.0
 10
1.229086731604313
 20
8.148022998314816
 10
1.407358779701635
 20
8.088598982282375
 10
1.585630827798956
 20
8.148022998314816
 10
1.704478859863838
 20
8.267861430646904
 10
1.744094870552132
 20
8.42632547340008
 10
1.704478859863838
 20
8.604597521497401
 10
1.585630827798956
 20
8.723445553562282
 10
1.407358779701635
 20
8.763061564250577
 10
1.229086731604313
 20
8.723445553562282
 10
1.109248299272225
 20
8.604597521497401
 10
1.06963228858393
 20
8.42632547340008
 10
1.109248299272225
 20
8.267861430646904
  0
TEXT
  5
130
100
AcDbEntity
  8
USP-TXT
100
AcDbText
 10
-0.7740025845216767
 20
-1.664832421968668
 30
0.0
 40
0.296875
  1
THDH210-2 - SIDE VIEW
 72
     1
 11
2.219486998811656
 21
-1.664832421968668
 31
0.0
100
AcDbText
  0
LWPOLYLINE
  5
131
100
AcDbEntity
  8
USP-GEO
100
AcDbPolyline
 90
        3
 70
   128
 43
0.0
 10
0.2178880587856149
 20
0.2971200801622054
 10
0.2178880587856149
 20
0.0
 10
4.221085938837697
 20
0.0
  0
LWPOLYLINE
  5
132
100
AcDbEntity
  8
USP-GEO
100
AcDbPolyline
 90
        4
 70
   128
 43
0.0
 10
1.981790934681894
 20
3.825916232221969
 10
2.041214950714335
 20
3.350524103962444
 10
2.219486998811657
 20
2.874141575435713
 10
2.496799073629713
 20
2.477981468552775
  0
LWPOLYLINE
  5
133
100
AcDbEntity
  8
USP-GEO
100
AcDbPolyline
 90
        2
 70
   128
 43
0.0
 10
4.161661922805256
 20
0.1188480320648821
 10
0.2971200801622036
 20
0.1188480320648821
  0
LWPOLYLINE
  5
134
100
AcDbEntity
  8
USP-GEO
100
AcDbPolyline
 90
        3
 70
   128
 43
0.0
 10
0.0990400267207346
 20
0.812128219110022
 10
0.0
 20
0.812128219110022
 10
0.0
 20
2.477981468552775
  0
LWPOLYLINE
  5
135
100
AcDbEntity
  8
USP-GEO
100
AcDbPolyline
 90
        4
 70
   129
 43
0.0
 10
1.148864309960519
 20
1.744094870552132
 10
1.030016277895636
 20
1.862942902617014
 10
1.148864309960519
 20
1.982781334949102
 10
1.288510747636754
 20
1.862942902617014
  0
LWPOLYLINE
  5
136
100
AcDbEntity
  8
USP-GEO
100
AcDbPolyline
 90
        2
 70
   129
 43
0.0
 10
1.188480320648812
 20
1.763902875896281
 10
1.148864309960519
 20
1.803518886584573
  0
LWPOLYLINE
  5
137
100
AcDbEntity
  8
USP-GEO
100
AcDbPolyline
 90
       12
 70
   129
 43
0.0
 10
1.229086731604313
 20
1.0111986728187
 10
1.109248299272225
 20
1.130046704883579
 10
1.06963228858393
 20
1.308318752980902
 10
1.109248299272225
 20
1.466782795734076
 10
1.229086731604313
 20
1.585630827798958
 10
1.407358779701635
 20
1.645054843831399
 10
1.585630827798956
 20
1.585630827798958
 10
1.704478859863838
 20
1.466782795734076
 10
1.744094870552132
 20
1.308318752980902
 10
1.704478859863838
 20
1.130046704883579
 10
1.585630827798956
 20
1.0111986728187
 10
1.407358779701635
 20
0.9715826621304053
  0
LWPOLYLINE
  5
138
100
AcDbEntity
  8
USP-GEO
100
AcDbPolyline
 90
        4
 70
   129
 43
0.0
 10
1.288510747636754
 20
1.862942902617014
 10
1.148864309960519
 20
1.744094870552132
 10
1.030016277895636
 20
1.862942902617014
 10
1.148864309960519
 20
1.982781334949102
  0
LWPOLYLINE
  5
139
100
AcDbEntity
  8
USP-GEO
100
AcDbPolyline
 90
        5
 70
   128
 43
0.0
 10
0.0
 20
0.812128219110022
 10
0.0
 20
0.7923202137658763
 10
0.0
 20
0.7527042030775811
 10
0.0
 20
0.7130881923892894
 10
0.0990400267207346
 20
0.7130881923892894
  0
LWPOLYLINE
  5
13A
100
AcDbEntity
  8
USP-GEO
100
AcDbPolyline
 90
        2
 70
   129
 43
0.0
 10
0.0990400267207346
 20
1.645054843831399
 10
0.1782720480973214
 20
1.645054843831399
  0
LWPOLYLINE
  5
13B
100
AcDbEntity
  8
USP-GEO
100
AcDbPolyline
 90
        2
 70
   129
 43
0.0
 10
0.0990400267207346
 20
1.526206811766517
 10
0.1782720480973214
 20
1.526206811766517
  0
LWPOLYLINE
  5
13C
100
AcDbEntity
  8
USP-GEO
100
AcDbPolyline
 90
        2
 70
   129
 43
0.0
 10
0.1782720480973214
 20
1.70447885986384
 10
0.0990400267207346
 20
1.70447885986384
  0
LWPOLYLINE
  5
13D
100
AcDbEntity
  8
USP-GEO
100
AcDbPolyline
 90
        4
 70
   128
 43
0.0
 10
0.1782720480973214
 20
1.70447885986384
 10
0.2376960641297625
 20
1.684670854519694
 10
0.2376960641297625
 20
1.664862849175545
 10
0.1782720480973214
 20
1.645054843831399
  0
LWPOLYLINE
  5
13E
100
AcDbEntity
  8
USP-GEO
100
AcDbPolyline
 90
        3
 70
   128
 43
0.0
 10
0.2376960641297625
 20
1.684670854519694
 10
0.2575040694739101
 20
1.664862849175545
 10
0.277312074818056
 20
1.605438833143104
  0
LWPOLYLINE
  5
13F
100
AcDbEntity
  8
USP-GEO
100
AcDbPolyline
 90
        5
 70
   128
 43
0.0
 10
0.2575040694739101
 20
1.664862849175545
 10
0.277312074818056
 20
1.605438833143104
 10
0.2575040694739101
 20
1.565822822454812
 10
0.2376960641297625
 20
1.546014817110663
 10
0.1782720480973214
 20
1.526206811766517
  0
LWPOLYLINE
  5
140
100
AcDbEntity
  8
USP-GEO
100
AcDbPolyline
 90
        2
 70
   129
 43
0.0
 10
1.148864309960519
 20
1.803518886584573
 10
1.129056304616371
 20
1.763902875896281
  0
LWPOLYLINE
  5
141
100
AcDbEntity
  8
USP-GEO
100
AcDbPolyline
 90
        5
 70
   128
 43
0.0
 10
1.605438833143104
 20
1.248894736948461
 10
1.62524683848725
 20
1.268702742292607
 10
1.62524683848725
 20
1.308318752980902
 10
1.62524683848725
 20
1.347934763669197
 10
1.605438833143104
 20
1.347934763669197
  0
LWPOLYLINE
  5
142
100
AcDbEntity
  8
USP-GEO
100
AcDbPolyline
 90
       12
 70
   129
 43
0.0
 10
1.605438833143104
 20
1.268702742292607
 10
1.62524683848725
 20
1.229086731604315
 10
1.645054843831397
 20
1.229086731604315
 10
1.684670854519691
 20
1.229086731604315
 10
1.704478859863838
 20
1.268702742292607
 10
1.704478859863838
 20
1.308318752980902
 10
1.704478859863838
 20
1.347934763669197
 10
1.684670854519691
 20
1.367742769013343
 10
1.645054843831397
 20
1.387550774357489
 10
1.62524683848725
 20
1.367742769013343
 10
1.605438833143104
 20
1.347934763669197
 10
1.605438833143104
 20
1.308318752980902
  0
LWPOLYLINE
  5
143
100
AcDbEntity
  8
USP-GEO
100
AcDbPolyline
 90
        5
 70
   128
 43
0.0
 10
0.0990400267207346
 20
5.313497433567398
 10
0.0
 20
5.313497433567398
 10
0.0
 20
5.194649401502518
 10
0.0
 20
5.115417380125931
 10
0.0
 20
5.035194958482135
  0
LWPOLYLINE
  5
144
100
AcDbEntity
  8
USP-GEO
100
AcDbPolyline
 90
        7
 70
   128
 43
0.0
 10
0.1782720480973214
 20
5.155033390814224
 10
0.2376960641297625
 20
5.17484139615837
 10
0.2575040694739101
 20
5.194649401502518
 10
0.277312074818056
 20
5.234265412190811
 10
0.2575040694739101
 20
5.293689428223252
 10
0.2376960641297625
 20
5.313497433567398
 10
0.1782720480973214
 20
5.333305438911546
  0
LWPOLYLINE
  5
145
100
AcDbEntity
  8
USP-GEO
100
AcDbPolyline
 90
        7
 70
   128
 43
0.0
 10
1.605438833143104
 20
5.313497433567398
 10
1.62524683848725
 20
5.194649401502518
 10
1.664862849175545
 20
5.115417380125931
 10
1.744094870552132
 20
5.035194958482135
 10
1.862942902617012
 20
4.936154931761402
 10
1.942174923993601
 20
4.777690889008226
 10
1.981790934681894
 20
4.619226846255051
  0
LWPOLYLINE
  5
146
100
AcDbEntity
  8
USP-GEO
100
AcDbPolyline
 90
       12
 70
   129
 43
0.0
 10
1.109248299272225
 20
4.856922910384813
 10
1.229086731604313
 20
4.975770942449695
 10
1.407358779701635
 20
5.015386953137989
 10
1.585630827798956
 20
4.975770942449695
 10
1.704478859863838
 20
4.856922910384813
 10
1.744094870552132
 20
4.678650862287492
 10
1.704478859863838
 20
4.50037881419017
 10
1.585630827798956
 20
4.381530782125288
 10
1.407358779701635
 20
4.341914771436995
 10
1.229086731604313
 20
4.381530782125288
 10
1.109248299272225
 20
4.50037881419017
 10
1.06963228858393
 20
4.678650862287492
  0
LWPOLYLINE
  5
147
100
AcDbEntity
  8
USP-GEO
100
AcDbPolyline
 90
       12
 70
   129
 43
0.0
 10
1.585630827798956
 20
2.141245377702279
 10
1.704478859863838
 20
2.26009340976716
 10
1.744094870552132
 20
2.418557452520333
 10
1.704478859863838
 20
2.596829500617657
 10
1.585630827798956
 20
2.715677532682537
 10
1.407358779701635
 20
2.775101548714978
 10
1.229086731604313
 20
2.715677532682537
 10
1.109248299272225
 20
2.596829500617657
 10
1.06963228858393
 20
2.418557452520333
 10
1.109248299272225
 20
2.26009340976716
 10
1.229086731604313
 20
2.141245377702279
 10
1.407358779701635
 20
2.081821361669838
  0
LWPOLYLINE
  5
148
100
AcDbEntity
  8
USP-GEO
100
AcDbPolyline
 90
       12
 70
   129
 43
0.0
 10
1.06963228858393
 20
3.548604157403913
 10
1.109248299272225
 20
3.390140114650739
 10
1.229086731604313
 20
3.251484077241709
 10
1.407358779701635
 20
3.211868066553416
 10
1.585630827798956
 20
3.251484077241709
 10
1.704478859863838
 20
3.390140114650739
 10
1.744094870552132
 20
3.548604157403913
 10
1.704478859863838
 20
3.726876205501234
 10
1.585630827798956
 20
3.845724237566116
 10
1.407358779701635
 20
3.88534024825441
 10
1.229086731604313
 20
3.845724237566116
 10
1.109248299272225
 20
3.726876205501234
  0
LWPOLYLINE
  5
149
100
AcDbEntity
  8
USP-GEO
100
AcDbPolyline
 90
        5
 70
   128
 43
0.0
 10
0.0990400267207346
 20
2.477981468552775
 10
0.0
 20
2.477981468552775
 10
0.0
 20
2.874141575435713
 10
0.0
 20
3.350524103962444
 10
0.0
 20
3.825916232221969
  0
LWPOLYLINE
  5
14A
100
AcDbEntity
  8
USP-GEO
100
AcDbPolyline
 90
        2
 70
   129
 43
0.0
 10
0.0990400267207346
 20
3.469372136027326
 10
0.1782720480973214
 20
3.469372136027326
  0
LWPOLYLINE
  5
14B
100
AcDbEntity
  8
USP-GEO
100
AcDbPolyline
 90
        2
 70
   129
 43
0.0
 10
0.0990400267207346
 20
3.409948119994885
 10
0.1782720480973214
 20
3.409948119994885
  0
LWPOLYLINE
  5
14C
100
AcDbEntity
  8
USP-GEO
100
AcDbPolyline
 90
        2
 70
   129
 43
0.0
 10
0.1782720480973214
 20
3.56841216274806
 10
0.0990400267207346
 20
3.56841216274806
  0
LWPOLYLINE
  5
14D
100
AcDbEntity
  8
USP-GEO
100
AcDbPolyline
 90
        6
 70
   128
 43
0.0
 10
0.1782720480973214
 20
3.56841216274806
 10
0.2376960641297625
 20
3.56841216274806
 10
0.2575040694739101
 20
3.528796152059767
 10
0.2575040694739101
 20
3.508988146715619
 10
0.2376960641297625
 20
3.469372136027326
 10
0.1782720480973214
 20
3.469372136027326
  0
LWPOLYLINE
  5
14E
100
AcDbEntity
  8
USP-GEO
100
AcDbPolyline
 90
        5
 70
   128
 43
0.0
 10
0.2575040694739101
 20
3.528796152059767
 10
0.277312074818056
 20
3.489180141371472
 10
0.2575040694739101
 20
3.449564130683178
 10
0.2376960641297625
 20
3.409948119994885
 10
0.1782720480973214
 20
3.409948119994885
  0
LWPOLYLINE
  5
14F
100
AcDbEntity
  8
USP-GEO
100
AcDbPolyline
 90
        3
 70
   128
 43
0.0
 10
0.0990400267207346
 20
3.825916232221969
 10
0.0
 20
3.825916232221969
 10
0.0
 20
4.619226846255051
  0
LWPOLYLINE
  5
150
100
AcDbEntity
  8
USP-GEO
100
AcDbPolyline
 90
        2
 70
   129
 43
0.0
 10
0.0990400267207346
 20
5.155033390814224
 10
0.1782720480973214
 20
5.155033390814224
  0
LWPOLYLINE
  5
151
100
AcDbEntity
  8
USP-GEO
100
AcDbPolyline
 90
        6
 70
   128
 43
0.0
 10
0.0990400267207346
 20
5.035194958482135
 10
0.0
 20
5.035194958482135
 10
0.0
 20
4.936154931761402
 10
0.0
 20
4.777690889008226
 10
0.0
 20
4.619226846255051
 10
0.0990400267207346
 20
4.619226846255051
  0
LWPOLYLINE
  5
152
100
AcDbEntity
  8
USP-GEO
100
AcDbPolyline
 90
        4
 70
   129
 43
0.0
 10
1.109248299272225
 20
4.995578947793841
 10
0.9904002672073435
 20
4.856922910384813
 10
0.8517442297983155
 20
4.995578947793841
 10
0.9904002672073435
 20
5.115417380125931
  0
LWPOLYLINE
  5
153
100
AcDbEntity
  8
USP-GEO
100
AcDbPolyline
 90
        2
 70
   129
 43
0.0
 10
1.010208272551491
 20
4.896538921073107
 10
0.9904002672073435
 20
4.936154931761402
  0
LWPOLYLINE
  5
154
100
AcDbEntity
  8
USP-GEO
100
AcDbPolyline
 90
        4
 70
   129
 43
0.0
 10
1.109248299272225
 20
4.995578947793841
 10
0.9904002672073435
 20
4.856922910384813
 10
0.8517442297983155
 20
4.995578947793841
 10
0.9904002672073435
 20
5.115417380125931
  0
LWPOLYLINE
  5
155
100
AcDbEntity
  8
USP-GEO
100
AcDbPolyline
 90
        2
 70
   129
 43
0.0
 10
0.9904002672073435
 20
4.936154931761402
 10
0.95078425651905
 20
4.896538921073107
  0
LWPOLYLINE
  5
156
100
AcDbEntity
  8
USP-GEO
100
AcDbPolyline
 90
        5
 70
   128
 43
0.0
 10
1.605438833143104
 20
3.608028173436354
 10
1.62524683848725
 20
3.588220168092206
 10
1.62524683848725
 20
3.548604157403913
 10
1.62524683848725
 20
3.508988146715619
 10
1.605438833143104
 20
3.508988146715619
  0
LWPOLYLINE
  5
157
100
AcDbEntity
  8
USP-GEO
100
AcDbPolyline
 90
       12
 70
   129
 43
0.0
 10
1.605438833143104
 20
3.508988146715619
 10
1.605438833143104
 20
3.548604157403913
 10
1.605438833143104
 20
3.588220168092206
 10
1.62524683848725
 20
3.6278361787805
 10
1.645054843831397
 20
3.6278361787805
 10
1.684670854519691
 20
3.6278361787805
 10
1.704478859863838
 20
3.588220168092206
 10
1.704478859863838
 20
3.548604157403913
 10
1.704478859863838
 20
3.508988146715619
 10
1.684670854519691
 20
3.489180141371472
 10
1.645054843831397
 20
3.469372136027326
 10
1.62524683848725
 20
3.489180141371472
  0
LWPOLYLINE
  5
158
100
AcDbEntity
  8
USP-GEO
100
AcDbPolyline
 90
        5
 70
   128
 43
0.0
 10
1.605438833143104
 20
2.477981468552775
 10
1.62524683848725
 20
2.458173463208627
 10
1.62524683848725
 20
2.418557452520333
 10
1.62524683848725
 20
2.37894144183204
 10
1.605438833143104
 20
2.37894144183204
  0
LWPOLYLINE
  5
159
100
AcDbEntity
  8
USP-GEO
100
AcDbPolyline
 90
       12
 70
   129
 43
0.0
 10
1.605438833143104
 20
2.458173463208627
 10
1.605438833143104
 20
2.418557452520333
 10
1.605438833143104
 20
2.37894144183204
 10
1.62524683848725
 20
2.359133436487894
 10
1.645054843831397
 20
2.359133436487894
 10
1.684670854519691
 20
2.359133436487894
 10
1.704478859863838
 20
2.37894144183204
 10
1.704478859863838
 20
2.418557452520333
 10
1.704478859863838
 20
2.458173463208627
 10
1.684670854519691
 20
2.497789473896922
 10
1.645054843831397
 20
2.497789473896922
 10
1.62524683848725
 20
2.497789473896922
  0
LWPOLYLINE
  5
15A
100
AcDbEntity
  8
USP-GEO
100
AcDbPolyline
 90
       12
 70
   129
 43
0.0
 10
1.605438833143104
 20
4.639034851599198
 10
1.605438833143104
 20
4.678650862287492
 10
1.605438833143104
 20
4.718266872975785
 10
1.62524683848725
 20
4.738074878319933
 10
1.645054843831397
 20
4.757882883664079
 10
1.684670854519691
 20
4.738074878319933
 10
1.704478859863838
 20
4.718266872975785
 10
1.704478859863838
 20
4.678650862287492
 10
1.704478859863838
 20
4.639034851599198
 10
1.684670854519691
 20
4.619226846255051
 10
1.645054843831397
 20
4.599418840910905
 10
1.62524683848725
 20
4.619226846255051
  0
LWPOLYLINE
  5
15B
100
AcDbEntity
  8
USP-GEO
100
AcDbPolyline
 90
        5
 70
   128
 43
0.0
 10
1.605438833143104
 20
4.738074878319933
 10
1.62524683848725
 20
4.718266872975785
 10
1.62524683848725
 20
4.678650862287492
 10
1.62524683848725
 20
4.639034851599198
 10
1.605438833143104
 20
4.619226846255051
  0
LWPOLYLINE
  5
15C
100
AcDbEntity
  8
USP-GEO
100
AcDbPolyline
 90
        2
 70
   129
 43
0.0
 10
1.981790934681894
 20
4.619226846255051
 10
1.981790934681894
 20
3.825916232221969
  0
LWPOLYLINE
  5
15D
100
AcDbEntity
  8
USP-GEO
100
AcDbPolyline
 90
       12
 70
   129
 43
0.0
 10
1.109248299272225
 20
6.720856213269033
 10
1.229086731604313
 20
6.859512250678061
 10
1.407358779701635
 20
6.899128261366357
 10
1.585630827798956
 20
6.859512250678061
 10
1.704478859863838
 20
6.720856213269033
 10
1.744094870552132
 20
6.56239217051586
 10
1.704478859863838
 20
6.384120122418536
 10
1.585630827798956
 20
6.265272090353656
 10
1.407358779701635
 20
6.225656079665363
 10
1.229086731604313
 20
6.265272090353656
 10
1.109248299272225
 20
6.384120122418536
 10
1.06963228858393
 20
6.56239217051586
  0
LWPOLYLINE
  5
15E
100
AcDbEntity
  8
USP-GEO
100
AcDbPolyline
 90
        5
 70
   128
 43
0.0
 10
0.0990400267207346
 20
6.502968154483419
 10
0.0
 20
6.502968154483419
 10
0.0
 20
6.661432197236594
 10
0.0
 20
6.800088234645622
 10
0.0
 20
6.918936266710502
  0
LWPOLYLINE
  5
15F
100
AcDbEntity
  8
USP-GEO
100
AcDbPolyline
 90
        6
 70
   128
 43
0.0
 10
0.0990400267207346
 20
6.304888101041949
 10
0.0
 20
6.304888101041949
 10
0.0
 20
6.145433658021568
 10
0.0
 20
5.986969615268392
 10
0.0
 20
5.887929588547658
 10
0.0990400267207346
 20
5.887929588547658
  0
LWPOLYLINE
  5
160
100
AcDbEntity
  8
USP-GEO
100
AcDbPolyline
 90
        2
 70
   129
 43
0.0
 10
0.0990400267207346
 20
5.214457406846664
 10
0.1782720480973214
 20
5.214457406846664
  0
LWPOLYLINE
  5
161
100
AcDbEntity
  8
USP-GEO
100
AcDbPolyline
 90
        2
 70
   129
 43
0.0
 10
0.1782720480973214
 20
5.333305438911546
 10
0.0990400267207346
 20
5.333305438911546
  0
LWPOLYLINE
  5
162
100
AcDbEntity
  8
USP-GEO
100
AcDbPolyline
 90
        3
 70
   128
 43
0.0
 10
0.0990400267207346
 20
5.610617513729602
 10
0.0
 20
5.610617513729602
 10
0.0
 20
5.313497433567398
  0
LWPOLYLINE
  5
163
100
AcDbEntity
  8
USP-GEO
100
AcDbPolyline
 90
        4
 70
   128
 43
0.0
 10
0.0
 20
5.610617513729602
 10
0.0
 20
5.729465545794484
 10
0.0
 20
5.808697567171071
 10
0.0
 20
5.887929588547658
  0
LWPOLYLINE
  5
164
100
AcDbEntity
  8
USP-GEO
100
AcDbPolyline
 90
        4
 70
   128
 43
0.0
 10
0.2575040694739101
 20
5.273881422879105
 10
0.2575040694739101
 20
5.254073417534959
 10
0.2376960641297625
 20
5.234265412190811
 10
0.1782720480973214
 20
5.214457406846664
  0
LWPOLYLINE
  5
165
100
AcDbEntity
  8
USP-GEO
100
AcDbPolyline
 90
        2
 70
   128
 43
0.0
 10
0.0
 20
6.502968154483419
 10
0.0
 20
6.304888101041949
  0
LWPOLYLINE
  5
166
100
AcDbEntity
  8
USP-GEO
100
AcDbPolyline
 90
        3
 70
   128
 43
0.0
 10
0.0990400267207346
 20
7.176440336184413
 10
0.0
 20
7.176440336184413
 10
0.0
 20
7.49435882195797
  0
LWPOLYLINE
  5
167
100
AcDbEntity
  8
USP-GEO
100
AcDbPolyline
 90
        2
 70
   129
 43
0.0
 10
0.0990400267207346
 20
6.978360282742944
 10
0.1782720480973214
 20
6.978360282742944
  0
LWPOLYLINE
  5
168
100
AcDbEntity
  8
USP-GEO
100
AcDbPolyline
 90
        2
 70
   129
 43
0.0
 10
0.0990400267207346
 20
6.899128261366357
 10
0.1782720480973214
 20
6.899128261366357
  0
LWPOLYLINE
  5
169
100
AcDbEntity
  8
USP-GEO
100
AcDbPolyline
 90
        2
 70
   129
 43
0.0
 10
0.1782720480973214
 20
7.077400309463678
 10
0.0990400267207346
 20
7.077400309463678
  0
LWPOLYLINE
  5
16A
100
AcDbEntity
  8
USP-GEO
100
AcDbPolyline
 90
        5
 70
   128
 43
0.0
 10
0.0990400267207346
 20
6.918936266710502
 10
0.0
 20
6.918936266710502
 10
0.0
 20
6.978360282742944
 10
0.0
 20
7.077400309463678
 10
0.0
 20
7.176440336184413
  0
LWPOLYLINE
  5
16B
100
AcDbEntity
  8
USP-GEO
100
AcDbPolyline
 90
        4
 70
   128
 43
0.0
 10
0.1782720480973214
 20
6.978360282742944
 10
0.2376960641297625
 20
6.978360282742944
 10
0.2575040694739101
 20
7.017976293431237
 10
0.258494469741116
 20
7.017976293431237
  0
LWPOLYLINE
  5
16C
100
AcDbEntity
  8
USP-GEO
100
AcDbPolyline
 90
        7
 70
   128
 43
0.0
 10
0.1782720480973214
 20
6.899128261366357
 10
0.2376960641297625
 20
6.918936266710502
 10
0.2575040694739101
 20
6.958552277398796
 10
0.277312074818056
 20
6.998168288087089
 10
0.2575040694739101
 20
7.037784298775385
 10
0.2376960641297625
 20
7.077400309463678
 10
0.1782720480973214
 20
7.077400309463678
  0
LWPOLYLINE
  5
16D
100
AcDbEntity
  8
USP-GEO
100
AcDbPolyline
 90
        5
 70
   128
 43
0.0
 10
0.0990400267207346
 20
8.18763900900311
 10
0.0
 20
8.18763900900311
 10
0.0
 20
8.009366960905788
 10
0.0
 20
7.87071092349676
 10
0.0
 20
7.751862891431878
  0
LWPOLYLINE
  5
16E
100
AcDbEntity
  8
USP-GEO
100
AcDbPolyline
 90
        6
 70
   128
 43
0.0
 10
0.0990400267207346
 20
7.751862891431878
 10
0.0
 20
7.751862891431878
 10
0.0
 20
7.692438875399439
 10
0.0
 20
7.593398848678704
 10
0.0
 20
7.49435882195797
 10
0.0990400267207346
 20
7.49435882195797
  0
LWPOLYLINE
  5
16F
100
AcDbEntity
  8
USP-GEO
100
AcDbPolyline
 90
        4
 70
   129
 43
0.0
 10
1.109248299272225
 20
6.859512250678061
 10
0.9904002672073435
 20
6.740664218613181
 10
0.8517442297983155
 20
6.859512250678061
 10
0.9904002672073435
 20
6.998168288087089
  0
LWPOLYLINE
  5
170
100
AcDbEntity
  8
USP-GEO
100
AcDbPolyline
 90
        2
 70
   129
 43
0.0
 10
1.010208272551491
 20
6.780280229301475
 10
0.9904002672073435
 20
6.800088234645622
  0
LWPOLYLINE
  5
171
100
AcDbEntity
  8
USP-GEO
100
AcDbPolyline
 90
        4
 70
   129
 43
0.0
 10
1.109248299272225
 20
6.859512250678061
 10
0.9904002672073435
 20
6.740664218613181
 10
0.8517442297983155
 20
6.859512250678061
 10
0.9904002672073435
 20
6.998168288087089
  0
LWPOLYLINE
  5
172
100
AcDbEntity
  8
USP-GEO
100
AcDbPolyline
 90
        2
 70
   129
 43
0.0
 10
0.9904002672073435
 20
6.800088234645622
 10
0.95078425651905
 20
6.780280229301475
  0
LWPOLYLINE
  5
173
100
AcDbEntity
  8
USP-GEO
100
AcDbPolyline
 90
        7
 70
   128
 43
0.0
 10
1.605438833143104
 20
7.176440336184413
 10
1.62524683848725
 20
7.077400309463678
 10
1.664862849175545
 20
6.978360282742944
 10
1.744094870552132
 20
6.918936266710502
 10
1.862942902617012
 20
6.800088234645622
 10
1.942174923993601
 20
6.661432197236594
 10
1.981790934681894
 20
6.502968154483419
  0
LWPOLYLINE
  5
174
100
AcDbEntity
  8
USP-GEO
100
AcDbPolyline
 90
        7
 70
   128
 43
0.0
 10
1.981790934681894
 20
6.304888101041949
 10
1.942174923993601
 20
6.145433658021568
 10
1.862942902617012
 20
5.986969615268392
 10
1.744094870552132
 20
5.887929588547658
 10
1.664862849175545
 20
5.808697567171071
 10
1.62524683848725
 20
5.729465545794484
 10
1.605438833143104
 20
5.610617513729602
  0
LWPOLYLINE
  5
175
100
AcDbEntity
  8
USP-GEO
100
AcDbPolyline
 90
        2
 70
   129
 43
0.0
 10
1.605438833143104
 20
5.610617513729602
 10
1.605438833143104
 20
5.313497433567398
  0
LWPOLYLINE
  5
176
100
AcDbEntity
  8
USP-GEO
100
AcDbPolyline
 90
        2
 70
   128
 43
0.0
 10
1.62524683848725
 20
5.194649401502518
 10
1.605438833143104
 20
5.313497433567398
  0
LWPOLYLINE
  5
177
100
AcDbEntity
  8
USP-GEO
100
AcDbPolyline
 90
       12
 70
   129
 43
0.0
 10
1.605438833143104
 20
6.602008181204153
 10
1.605438833143104
 20
6.56239217051586
 10
1.605438833143104
 20
6.522776159827566
 10
1.62524683848725
 20
6.483160149139271
 10
1.645054843831397
 20
6.483160149139271
 10
1.684670854519691
 20
6.483160149139271
 10
1.704478859863838
 20
6.522776159827566
 10
1.704478859863838
 20
6.56239217051586
 10
1.704478859863838
 20
6.602008181204153
 10
1.684670854519691
 20
6.621816186548299
 10
1.645054843831397
 20
6.641624191892447
 10
1.62524683848725
 20
6.621816186548299
  0
LWPOLYLINE
  5
178
100
AcDbEntity
  8
USP-GEO
100
AcDbPolyline
 90
        5
 70
   128
 43
0.0
 10
1.605438833143104
 20
6.602008181204153
 10
1.62524683848725
 20
6.602008181204153
 10
1.62524683848725
 20
6.56239217051586
 10
1.62524683848725
 20
6.522776159827566
 10
1.605438833143104
 20
6.502968154483419
  0
LWPOLYLINE
  5
179
100
AcDbEntity
  8
USP-GEO
100
AcDbPolyline
 90
        2
 70
   129
 43
0.0
 10
1.981790934681894
 20
6.502968154483419
 10
1.981790934681894
 20
6.304888101041949
  0
LWPOLYLINE
  5
17A
100
AcDbEntity
  8
USP-GEO
100
AcDbPolyline
 90
        7
 70
   128
 43
0.0
 10
1.981790934681894
 20
8.18763900900311
 10
1.942174923993601
 20
8.009366960905788
 10
1.862942902617012
 20
7.87071092349676
 10
1.744094870552132
 20
7.751862891431878
 10
1.664862849175545
 20
7.692438875399439
 10
1.62524683848725
 20
7.593398848678704
 10
1.605438833143104
 20
7.49435882195797
  0
LWPOLYLINE
  5
17B
100
AcDbEntity
  8
USP-GEO
100
AcDbPolyline
 90
        2
 70
   129
 43
0.0
 10
1.605438833143104
 20
7.49435882195797
 10
1.605438833143104
 20
7.176440336184413
  0
LWPOLYLINE
  5
17C
100
AcDbEntity
  8
USP-GEO
100
AcDbPolyline
 90
        2
 70
   128
 43
0.0
 10
1.62524683848725
 20
7.077400309463678
 10
1.605438833143104
 20
7.176440336184413
  0
LWPOLYLINE
  5
17D
100
AcDbEntity
  8
USP-GEO
100
AcDbPolyline
 90
        2
 70
   129
 43
0.0
 10
2.496799073629713
 20
2.477981468552775
 10
4.023005885396228
 20
0.812128219110022
  0
LWPOLYLINE
  5
17E
100
AcDbEntity
  8
USP-GEO
100
AcDbPolyline
 90
        4
 70
   128
 43
0.0
 10
4.023005885396228
 20
0.812128219110022
 10
4.14185391746111
 20
0.6536641763568483
 10
4.201277933493551
 20
0.4753921282595251
 10
4.221085938837697
 20
0.2971200801622054
  0
LWPOLYLINE
  5
17F
100
AcDbEntity
  8
USP-GEO
100
AcDbPolyline
 90
        2
 70
   129
 43
0.0
 10
4.221085938837697
 20
0.2971200801622054
 10
4.221085938837697
 20
0.0
  0
LWPOLYLINE
  5
180
100
AcDbEntity
  8
USP-GEO
100
AcDbPolyline
 90
        6
 70
   128
 43
0.0
 10
1.62524683848725
 20
8.961141617692044
 10
1.605438833143104
 20
9.060181644412779
 10
1.605438833143104
 20
9.378100130186336
 10
0.0990400267207346
 20
9.378100130186336
 10
0.0
 20
9.378100130186336
 10
0.0
 20
9.060181644412779
  0
LWPOLYLINE
  5
181
100
AcDbEntity
  8
USP-GEO
100
AcDbPolyline
 90
        5
 70
   128
 43
0.0
 10
0.0990400267207346
 20
9.060181644412779
 10
0.0
 20
9.060181644412779
 10
0.0
 20
8.961141617692044
 10
0.0
 20
8.862101590971311
 10
0.0
 20
8.80267757493887
  0
LWPOLYLINE
  5
182
100
AcDbEntity
  8
USP-GEO
100
AcDbPolyline
 90
        5
 70
   128
 43
0.0
 10
0.2575040694739101
 20
8.961141617692044
 10
0.277312074818056
 20
9.000757628380339
 10
0.2575040694739101
 20
9.040373639068633
 10
0.2376960641297625
 20
9.079989649756926
 10
0.1782720480973214
 20
9.079989649756926
  0
LWPOLYLINE
  5
183
100
AcDbEntity
  8
USP-GEO
100
AcDbPolyline
 90
        2
 70
   129
 43
0.0
 10
0.0990400267207346
 20
8.980949623036192
 10
0.1782720480973214
 20
8.980949623036192
  0
LWPOLYLINE
  5
184
100
AcDbEntity
  8
USP-GEO
100
AcDbPolyline
 90
        2
 70
   129
 43
0.0
 10
0.0990400267207346
 20
8.901717601659605
 10
0.1782720480973214
 20
8.901717601659605
  0
LWPOLYLINE
  5
185
100
AcDbEntity
  8
USP-GEO
100
AcDbPolyline
 90
        6
 70
   128
 43
0.0
 10
0.0990400267207346
 20
8.80267757493887
 10
0.0
 20
8.80267757493887
 10
0.0
 20
8.683829542873988
 10
0.0
 20
8.54517350546496
 10
0.0
 20
8.366901457367639
 10
0.0990400267207346
 20
8.366901457367639
  0
LWPOLYLINE
  5
186
100
AcDbEntity
  8
USP-GEO
100
AcDbPolyline
 90
        4
 70
   128
 43
0.0
 10
0.1782720480973214
 20
8.980949623036192
 10
0.2376960641297625
 20
8.980949623036192
 10
0.2575040694739101
 20
9.020565633724485
 10
0.258494469741116
 20
9.020565633724485
  0
LWPOLYLINE
  5
187
100
AcDbEntity
  8
USP-GEO
100
AcDbPolyline
 90
        2
 70
   128
 43
0.0
 10
0.2376960641297625
 20
8.921525607003751
 10
0.1782720480973214
 20
8.901717601659605
  0
LWPOLYLINE
  5
188
100
AcDbEntity
  8
USP-GEO
100
AcDbPolyline
 90
        2
 70
   129
 43
0.0
 10
0.2376960641297625
 20
8.921525607003751
 10
0.2575040694739101
 20
8.961141617692044
  0
LWPOLYLINE
  5
189
100
AcDbEntity
  8
USP-GEO
100
AcDbPolyline
 90
        2
 70
   129
 43
0.0
 10
0.1782720480973214
 20
9.079989649756926
 10
0.0990400267207346
 20
9.079989649756926
  0
LWPOLYLINE
  5
18A
100
AcDbEntity
  8
USP-GEO
100
AcDbPolyline
 90
        4
 70
   129
 43
0.0
 10
1.109248299272225
 20
8.743253558906429
 10
0.9904002672073435
 20
8.624405526841549
 10
0.8517442297983155
 20
8.743253558906429
 10
0.9904002672073435
 20
8.881909596315457
  0
LWPOLYLINE
  5
18B
100
AcDbEntity
  8
USP-GEO
100
AcDbPolyline
 90
        2
 70
   129
 43
0.0
 10
0.9904002672073435
 20
8.683829542873988
 10
0.95078425651905
 20
8.644213532185695
  0
LWPOLYLINE
  5
18C
100
AcDbEntity
  8
USP-GEO
100
AcDbPolyline
 90
        2
 70
   129
 43
0.0
 10
1.010208272551491
 20
8.644213532185695
 10
0.9904002672073435
 20
8.683829542873988
  0
LWPOLYLINE
  5
18D
100
AcDbEntity
  8
USP-GEO
100
AcDbPolyline
 90
        4
 70
   129
 43
0.0
 10
0.9904002672073435
 20
8.624405526841549
 10
0.8517442297983155
 20
8.743253558906429
 10
0.9904002672073435
 20
8.881909596315457
 10
1.109248299272225
 20
8.743253558906429
  0
LWPOLYLINE
  5
18E
100
AcDbEntity
  8
USP-GEO
100
AcDbPolyline
 90
       12
 70
   129
 43
0.0
 10
1.605438833143104
 20
8.465941484088373
 10
1.605438833143104
 20
8.42632547340008
 10
1.605438833143104
 20
8.386709462711786
 10
1.62524683848725
 20
8.366901457367639
 10
1.645054843831397
 20
8.347093452023491
 10
1.684670854519691
 20
8.366901457367639
 10
1.704478859863838
 20
8.386709462711786
 10
1.704478859863838
 20
8.42632547340008
 10
1.704478859863838
 20
8.465941484088373
 10
1.684670854519691
 20
8.505557494776667
 10
1.645054843831397
 20
8.505557494776667
 10
1.62524683848725
 20
8.505557494776667
  0
LWPOLYLINE
  5
18F
100
AcDbEntity
  8
USP-GEO
100
AcDbPolyline
 90
        5
 70
   128
 43
0.0
 10
1.605438833143104
 20
8.485749489432521
 10
1.62524683848725
 20
8.465941484088373
 10
1.62524683848725
 20
8.42632547340008
 10
1.62524683848725
 20
8.386709462711786
 10
1.605438833143104
 20
8.386709462711786
  0
ENDBLK
  5
191
100
AcDbEntity
  8
0
100
AcDbBlockEnd
  0
ENDSEC
  0
SECTION
  2
ENTITIES
  0
INSERT
  5
3
100
AcDbEntity
  8
USP
100
AcDbBlockReference
  2
THDH210-2_T
 10
8.440496214606817
 20
15.62323703497958
 30
0.0
  0
INSERT
  5
34
100
AcDbEntity
  8
USP
100
AcDbBlockReference
  2
THDH210-2_F
 10
8.440496214606817
 20
1.665526069226494
 30
0.0
  0
INSERT
  5
129
100
AcDbEntity
  8
USP
100
AcDbBlockReference
  2
THDH210-2_S
 10
0.6916045239765616
 20
1.665526069226494
 30
0.0
  0
ENDSEC
  0
SECTION
  2
OBJECTS
  0
DICTIONARY
  5
1AA
102
{ACAD_XDICTIONARY
360
1AB
102
}
100
AcDbDictionary
  3
ACAD_GROUP
350
1A8
  3
ACAD_MLINESTYLE
350
1A9
  0
DICTIONARY
  5
9
100
AcDbDictionary
280
     1
  3
ACAD_XREC_ROUNDTRIP
360
A
  0
DICTIONARY
  5
E
100
AcDbDictionary
280
     1
  3
ACAD_XREC_ROUNDTRIP
360
F
  0
DICTIONARY
  5
192
100
AcDbDictionary
280
     1
  3
ACAD_LAYOUTSELFREF
360
193
  0
DICTIONARY
  5
197
100
AcDbDictionary
280
     1
  3
ACAD_LAYOUTSELFREF
360
198
  0
DICTIONARY
  5
1AB
100
AcDbDictionary
280
     1
  3
ACAD_XREC_ROUNDTRIP
360
1AC
  0
DICTIONARY
  5
1A8
102
{ACAD_REACTORS
330
1AA
102
}
100
AcDbDictionary
  0
DICTIONARY
  5
1A9
102
{ACAD_REACTORS
330
1AA
102
}
100
AcDbDictionary
  3
STANDARD
350
1AD
  0
XRECORD
  5
A
102
{ACAD_REACTORS
330
9
102
}
100
AcDbXrecord
102
EXTNAMES
  1
USP-GEO
  2
USP-Geo
  0
XRECORD
  5
F
102
{ACAD_REACTORS
330
E
102
}
100
AcDbXrecord
102
EXTNAMES
  1
USP-TXT
  2
USP-Txt
  0
XRECORD
  5
193
102
{ACAD_REACTORS
330
192
102
}
100
AcDbXrecord
340
18
  0
XRECORD
  5
198
102
{ACAD_REACTORS
330
197
102
}
100
AcDbXrecord
340
15
  0
XRECORD
  5
1AC
102
{ACAD_REACTORS
330
1AB
102
}
100
AcDbXrecord
102
EXTNAMES
  1
ACDBVARIABLEDICTIONARY
  2
AcDbVariableDictionary
  0
MLINESTYLE
  5
1AD
102
{ACAD_REACTORS
330
1A9
102
}
100
AcDbMlineStyle
  2
STANDARD
 70
     0
  3

 62
     0
 51
90.0
 52
90.0
 71
     2
 49
0.5
 62
   256
  6
BYLAYER
 49
-0.5
 62
   256
  6
BYLAYER
  0
ENDSEC
  0
EOF
