  0
SECTION
  2
HEADER
  9
$ACADVER
  1
AC1014
  9
$ACADMAINTVER
 70
     9
  9
$DWGCODEPAGE
  3
ANSI_1252
  9
$INSBASE
 10
0.0
 20
0.0
 30
0.0
  9
$EXTMIN
 10
0.0011515110650819
 20
0.0025757949090703
 30
-1.050183983838884
  9
$EXTMAX
 10
15.56211782055434
 20
15.65895159145829
 30
0.0
  9
$LIMMIN
 10
0.0
 20
0.0
  9
$LIMMAX
 10
12.0
 20
9.0
  9
$ORTHOMODE
 70
     1
  9
$REGENMODE
 70
     1
  9
$FILLMODE
 70
     1
  9
$QTEXTMODE
 70
     0
  9
$MIRRTEXT
 70
     0
  9
$DRAGMODE
 70
     2
  9
$LTSCALE
 40
1.5
  9
$OSMODE
 70
     0
  9
$ATTMODE
 70
     1
  9
$TEXTSIZE
 40
0.75
  9
$TRACEWID
 40
0.05
  9
$TEXTSTYLE
  7
STANDARD
  9
$CLAYER
  8
USP
  9
$CELTYPE
  6
BYLAYER
  9
$CECOLOR
 62
   256
  9
$CELTSCALE
 40
1.0
  9
$DELOBJ
 70
     1
  9
$DISPSILH
 70
     1
  9
$DIMSCALE
 40
3.0
  9
$DIMASZ
 40
0.125
  9
$DIMEXO
 40
0.0625
  9
$DIMDLI
 40
0.37890625
  9
$DIMRND
 40
0.0
  9
$DIMDLE
 40
0.0
  9
$DIMEXE
 40
0.09375
  9
$DIMTP
 40
0.0
  9
$DIMTM
 40
0.0
  9
$DIMTXT
 40
0.109375
  9
$DIMCEN
 40
0.0
  9
$DIMTSZ
 40
0.0
  9
$DIMTOL
 70
     0
  9
$DIMLIM
 70
     0
  9
$DIMTIH
 70
     1
  9
$DIMTOH
 70
     1
  9
$DIMSE1
 70
     0
  9
$DIMSE2
 70
     0
  9
$DIMTAD
 70
     0
  9
$DIMZIN
 70
     8
  9
$DIMBLK
  1

  9
$DIMASO
 70
     1
  9
$DIMSHO
 70
     1
  9
$DIMPOST
  1

  9
$DIMAPOST
  1

  9
$DIMALT
 70
     0
  9
$DIMALTD
 70
     2
  9
$DIMALTF
 40
25.4
  9
$DIMLFAC
 40
1.0
  9
$DIMTOFL
 70
     0
  9
$DIMTVP
 40
0.0
  9
$DIMTIX
 70
     0
  9
$DIMSOXD
 70
     0
  9
$DIMSAH
 70
     0
  9
$DIMBLK1
  1

  9
$DIMBLK2
  1

  9
$DIMSTYLE
  2
STANDARD
  9
$DIMCLRD
 70
     0
  9
$DIMCLRE
 70
     0
  9
$DIMCLRT
 70
   256
  9
$DIMTFAC
 40
1.0
  9
$DIMGAP
 40
0.08984375
  9
$DIMJUST
 70
     0
  9
$DIMSD1
 70
     0
  9
$DIMSD2
 70
     0
  9
$DIMTOLJ
 70
     1
  9
$DIMTZIN
 70
     0
  9
$DIMALTZ
 70
     0
  9
$DIMALTTZ
 70
     0
  9
$DIMFIT
 70
     3
  9
$DIMUPT
 70
     1
  9
$DIMUNIT
 70
     2
  9
$DIMDEC
 70
     3
  9
$DIMTDEC
 70
     3
  9
$DIMALTU
 70
     2
  9
$DIMALTTD
 70
     2
  9
$DIMTXSTY
  7
STANDARD
  9
$DIMAUNIT
 70
     0
  9
$LUNITS
 70
     5
  9
$LUPREC
 70
     6
  9
$SKETCHINC
 40
0.1
  9
$FILLETRAD
 40
0.0
  9
$AUNITS
 70
     0
  9
$AUPREC
 70
     1
  9
$MENU
  1
CUSTOM
  9
$ELEVATION
 40
0.0
  9
$PELEVATION
 40
0.0
  9
$THICKNESS
 40
0.0
  9
$LIMCHECK
 70
     0
  9
$BLIPMODE
 70
     0
  9
$CHAMFERA
 40
0.0
  9
$CHAMFERB
 40
0.0
  9
$CHAMFERC
 40
0.0
  9
$CHAMFERD
 40
0.0
  9
$SKPOLY
 70
     0
  9
$TDCREATE
 40
2451263.663231366
  9
$TDUPDATE
 40
2452768.685430219
  9
$TDINDWG
 40
0.4596342824
  9
$TDUSRTIMER
 40
0.4596342824
  9
$USRTIMER
 70
     1
  9
$ANGBASE
 50
0.0
  9
$ANGDIR
 70
     0
  9
$PDMODE
 70
     0
  9
$PDSIZE
 40
0.0
  9
$PLINEWID
 40
0.0
  9
$COORDS
 70
     2
  9
$SPLFRAME
 70
     0
  9
$SPLINETYPE
 70
     6
  9
$SPLINESEGS
 70
     8
  9
$ATTDIA
 70
     0
  9
$ATTREQ
 70
     0
  9
$HANDLING
 70
     1
  9
$HANDSEED
  5
11B
  9
$SURFTAB1
 70
     6
  9
$SURFTAB2
 70
     6
  9
$SURFTYPE
 70
     6
  9
$SURFU
 70
     6
  9
$SURFV
 70
     6
  9
$UCSNAME
  2

  9
$UCSORG
 10
0.0
 20
0.0
 30
0.0
  9
$UCSXDIR
 10
1.0
 20
0.0
 30
0.0
  9
$UCSYDIR
 10
0.0
 20
1.0
 30
0.0
  9
$PUCSNAME
  2

  9
$PUCSORG
 10
0.0
 20
0.0
 30
0.0
  9
$PUCSXDIR
 10
1.0
 20
0.0
 30
0.0
  9
$PUCSYDIR
 10
0.0
 20
1.0
 30
0.0
  9
$USERI1
 70
     0
  9
$USERI2
 70
     0
  9
$USERI3
 70
     0
  9
$USERI4
 70
     0
  9
$USERI5
 70
     0
  9
$USERR1
 40
0.0
  9
$USERR2
 40
0.0
  9
$USERR3
 40
0.0
  9
$USERR4
 40
0.0
  9
$USERR5
 40
0.0
  9
$WORLDVIEW
 70
     1
  9
$SHADEDGE
 70
     3
  9
$SHADEDIF
 70
    70
  9
$TILEMODE
 70
     1
  9
$MAXACTVP
 70
    16
  9
$PINSBASE
 10
0.0
 20
0.0
 30
0.0
  9
$PLIMCHECK
 70
     0
  9
$PEXTMIN
 10
1.000000000000000E+20
 20
1.000000000000000E+20
 30
1.000000000000000E+20
  9
$PEXTMAX
 10
-1.000000000000000E+20
 20
-1.000000000000000E+20
 30
-1.000000000000000E+20
  9
$PLIMMIN
 10
0.0
 20
0.0
  9
$PLIMMAX
 10
12.0
 20
9.0
  9
$UNITMODE
 70
     0
  9
$VISRETAIN
 70
     0
  9
$PLINEGEN
 70
     0
  9
$PSLTSCALE
 70
     0
  9
$TREEDEPTH
 70
  3020
  9
$PICKSTYLE
 70
     0
  9
$CMLSTYLE
  2
STANDARD
  9
$CMLJUST
 70
     0
  9
$CMLSCALE
 40
1.0
  9
$PROXYGRAPHICS
 70
     1
  9
$MEASUREMENT
 70
     0
  0
ENDSEC
  0
SECTION
  2
CLASSES
  0
CLASS
  1
ACDBDICTIONARYWDFLT
  2
AcDbDictionaryWithDefault
  3
AutoCAD 2000
 90
        0
280
     0
281
     0
  0
CLASS
  1
ACDBPLACEHOLDER
  2
AcDbPlaceHolder
  3
AutoCAD 2000
 90
        0
280
     0
281
     0
  0
CLASS
  1
LAYOUT
  2
AcDbLayout
  3
AutoCAD 2000
 90
        0
280
     0
281
     0
  0
CLASS
  1
DICTIONARYVAR
  2
AcDbDictionaryVar
  3
"AutoCAD"
 90
        0
280
     0
281
     0
  0
CLASS
  1
LONG_TRANSACTION
  2
AcDbLongTransaction
  3
AutoCAD 2000
 90
        0
280
     0
281
     0
  0
CLASS
  1
LWPOLYLINE
  2
AcDbPolyline
  3
"AutoCAD"
 90
        0
280
     0
281
     1
  0
CLASS
  1
HATCH
  2
AcDbHatch
  3
"ACAD_SEDONA"
 90
        0
280
     0
281
     1
  0
CLASS
  1
XRECORD
  2
AcDbXrecord
  3
"<Built In>"
 90
        0
280
     0
281
     0
  0
ENDSEC
  0
SECTION
  2
TABLES
  0
TABLE
  2
VPORT
  5
10B
100
AcDbSymbolTable
 70
     1
  0
VPORT
  5
10C
100
AcDbSymbolTableRecord
100
AcDbViewportTableRecord
  2
*ACTIVE
 70
     0
 10
0.0
 20
0.0
 11
1.0
 21
1.0
 12
-15.36161557487266
 22
17.36790281331251
 13
0.0
 23
0.0
 14
1.0
 24
1.0
 15
0.0
 25
0.0
 16
0.0
 26
0.0
 36
1.0
 17
23.09603071721725
 27
-10.27010416511325
 37
-10.44050274849355
 40
16.94289210015706
 41
1.457627118644067
 42
50.0
 43
10.55307667737539
 44
10.55307667737539
 50
0.0
 51
0.0
 71
     0
 72
   100
 73
     1
 74
     1
 75
     0
 76
     0
 77
     0
 78
     0
  0
ENDTAB
  0
TABLE
  2
LTYPE
  5
106
100
AcDbSymbolTable
 70
     1
  0
LTYPE
  5
107
100
AcDbSymbolTableRecord
100
AcDbLinetypeTableRecord
  2
BYBLOCK
 70
     0
  3

 72
    65
 73
     0
 40
0.0
  0
LTYPE
  5
108
100
AcDbSymbolTableRecord
100
AcDbLinetypeTableRecord
  2
BYLAYER
 70
     0
  3

 72
    65
 73
     0
 40
0.0
  0
LTYPE
  5
5
100
AcDbSymbolTableRecord
100
AcDbLinetypeTableRecord
  2
CONTINUOUS
 70
     0
  3
Solid line
 72
    65
 73
     0
 40
0.0
  0
ENDTAB
  0
TABLE
  2
LAYER
  5
104
100
AcDbSymbolTable
 70
     4
  0
LAYER
  5
3E
100
AcDbSymbolTableRecord
100
AcDbLayerTableRecord
  2
0
 70
     0
 62
     7
  6
CONTINUOUS
  0
LAYER
  5
8
102
{ACAD_XDICTIONARY
360
9
102
}
100
AcDbSymbolTableRecord
100
AcDbLayerTableRecord
  2
USP-GEO
 70
     0
 62
     7
  6
CONTINUOUS
  0
LAYER
  5
10
102
{ACAD_XDICTIONARY
360
11
102
}
100
AcDbSymbolTableRecord
100
AcDbLayerTableRecord
  2
USP-TXT
 70
     0
 62
     7
  6
CONTINUOUS
  0
LAYER
  5
4
100
AcDbSymbolTableRecord
100
AcDbLayerTableRecord
  2
USP
 70
     0
 62
     7
  6
CONTINUOUS
  0
ENDTAB
  0
TABLE
  2
STYLE
  5
105
100
AcDbSymbolTable
 70
     1
  0
STYLE
  5
13
100
AcDbSymbolTableRecord
100
AcDbTextStyleTableRecord
  2
STANDARD
 70
     0
 40
0.0
 41
1.0
 50
0.0
 71
     0
 42
0.75
  3
txt
  4

  0
ENDTAB
  0
TABLE
  2
VIEW
  5
109
100
AcDbSymbolTable
 70
     0
  0
ENDTAB
  0
TABLE
  2
UCS
  5
10A
100
AcDbSymbolTable
 70
     0
  0
ENDTAB
  0
TABLE
  2
APPID
  5
10D
100
AcDbSymbolTable
 70
     1
  0
APPID
  5
10E
100
AcDbSymbolTableRecord
100
AcDbRegAppTableRecord
  2
ACAD
 70
     0
  0
ENDTAB
  0
TABLE
  2
DIMSTYLE
  5
10F
100
AcDbSymbolTable
 70
     1
  0
DIMSTYLE
105
117
100
AcDbSymbolTableRecord
100
AcDbDimStyleTableRecord
  2
STANDARD
 70
     0
  3

  4

  5

  6

  7

 40
1.0
 41
0.18
 42
0.0625
 43
0.38
 44
0.18
 45
0.0
 46
0.0
 47
0.0
 48
0.0
140
0.18
141
0.09
142
0.0
143
25.4
144
1.0
145
0.0
146
1.0
147
0.09
 71
     0
 72
     0
 73
     1
 74
     1
 75
     0
 76
     0
 77
     0
 78
     0
170
     0
171
     2
172
     0
173
     0
174
     0
175
     0
176
     0
177
     0
178
     0
270
     2
271
     4
272
     4
273
     2
274
     2
340
13
275
     0
280
     0
281
     0
282
     0
283
     1
284
     0
285
     0
286
     0
287
     3
288
     0
  0
ENDTAB
  0
TABLE
  2
BLOCK_RECORD
  5
1
100
AcDbSymbolTable
 70
     3
  0
BLOCK_RECORD
  5
2
102
{ACAD_XDICTIONARY
360
FB
102
}
100
AcDbSymbolTableRecord
100
AcDbBlockTableRecord
  2
*MODEL_SPACE
  0
BLOCK_RECORD
  5
FF
102
{ACAD_XDICTIONARY
360
100
102
}
100
AcDbSymbolTableRecord
100
AcDbBlockTableRecord
  2
*PAPER_SPACE
  0
BLOCK_RECORD
  5
6
100
AcDbSymbolTableRecord
100
AcDbBlockTableRecord
  2
THD48_T
  0
BLOCK_RECORD
  5
41
100
AcDbSymbolTableRecord
100
AcDbBlockTableRecord
  2
THD48_F
  0
BLOCK_RECORD
  5
C8
100
AcDbSymbolTableRecord
100
AcDbBlockTableRecord
  2
THD48_S
  0
ENDTAB
  0
ENDSEC
  0
SECTION
  2
BLOCKS
  0
BLOCK
  5
FD
100
AcDbEntity
  8
0
100
AcDbBlockBegin
  2
*MODEL_SPACE
 70
     0
 10
0.0
 20
0.0
 30
0.0
  3
*MODEL_SPACE
  1

  0
ENDBLK
  5
FE
100
AcDbEntity
  8
0
100
AcDbBlockEnd
  0
BLOCK
  5
102
100
AcDbEntity
 67
     1
  8
0
100
AcDbBlockBegin
  2
*PAPER_SPACE
 70
     0
 10
0.0
 20
0.0
 30
0.0
  3
*PAPER_SPACE
  1

  0
ENDBLK
  5
103
100
AcDbEntity
 67
     1
  8
0
100
AcDbBlockEnd
  0
BLOCK
  5
3D
100
AcDbEntity
  8
0
100
AcDbBlockBegin
  2
THD48_T
 70
     0
 10
0.0
 20
0.0
 30
0.0
  3
THD48_T
  1

  0
LWPOLYLINE
  5
7
100
AcDbEntity
  8
USP-GEO
100
AcDbPolyline
 90
       12
 70
   128
 43
0.0
 10
5.768760187366218
 20
1.657815427626101
 10
5.768760187366218
 20
2.096097451612076
 10
5.768760187366218
 20
2.111722479205159
 10
5.768760187366218
 20
2.127347506798242
 10
5.768760187366218
 20
3.128130524135205
 10
7.76954497066049
 20
3.128130524135205
 10
7.76954497066049
 20
3.190630634507536
 10
5.690635049400803
 20
3.190630634507536
 10
5.690635049400803
 20
2.127347506798242
 10
5.690635049400803
 20
2.111722479205159
 10
5.690635049400803
 20
2.096097451612076
 10
5.690635049400803
 20
1.657815427626101
  0
LWPOLYLINE
  5
B
100
AcDbEntity
  8
USP-GEO
100
AcDbPolyline
 90
        6
 70
   129
 43
0.0
 10
5.768760187366218
 20
2.127347506798242
 10
5.768760187366218
 20
3.128130524135205
 10
7.76954497066049
 20
3.128130524135205
 10
7.76954497066049
 20
3.190630634507536
 10
5.690635049400803
 20
3.190630634507536
 10
5.690635049400803
 20
2.127347506798242
  0
LWPOLYLINE
  5
C
100
AcDbEntity
  8
USP-GEO
100
AcDbPolyline
 90
       13
 70
   128
 43
0.0
 10
2.063284893666601
 20
0.0
 10
2.063284893666601
 20
0.0312500551861668
 10
2.063284893666601
 20
1.439065041322939
 10
2.063284893666601
 20
1.548440234474519
 10
2.063284893666601
 20
1.595315317253769
 10
2.063284893666601
 20
1.626565372439934
 10
2.063284893666601
 20
1.642190400033017
 10
2.063284893666601
 20
1.657815427626101
 10
2.063284893666601
 20
2.096097451612076
 10
2.063284893666601
 20
2.111722479205159
 10
2.063284893666601
 20
2.127347506798242
 10
2.063284893666601
 20
3.190630634507536
 10
0.0
 20
3.190630634507536
  0
LWPOLYLINE
  5
D
100
AcDbEntity
  8
USP-GEO
100
AcDbPolyline
 90
       18
 70
   128
 43
0.0
 10
2.000784783294269
 20
0.0
 10
2.000784783294269
 20
0.0312500551861668
 10
2.000784783294269
 20
1.439065041322939
 10
2.000784783294269
 20
1.548440234474519
 10
2.000784783294269
 20
1.595315317253769
 10
2.000784783294269
 20
1.626565372439934
 10
2.000784783294269
 20
1.642190400033017
 10
2.000784783294269
 20
1.657815427626101
 10
2.000784783294269
 20
2.096097451612076
 10
2.000784783294269
 20
2.111722479205159
 10
2.000784783294269
 20
2.127347506798242
 10
2.000784783294269
 20
3.128130524135205
 10
0.0
 20
3.128130524135205
 10
2.000784783294269
 20
3.128130524135205
 10
2.000784783294269
 20
2.127347506798242
 10
2.063284893666601
 20
2.127347506798242
 10
2.063284893666601
 20
3.190630634507536
 10
0.0
 20
3.190630634507536
  0
LWPOLYLINE
  5
E
100
AcDbEntity
  8
USP-GEO
100
AcDbPolyline
 90
        2
 70
   129
 43
0.0
 10
0.0
 20
3.128130524135205
 10
0.0
 20
3.190630634507536
  0
TEXT
  5
F
100
AcDbEntity
  8
USP-TXT
100
AcDbText
 10
1.501959971533703
 20
-1.588162240997842
 30
-1.050183983838884
 40
0.296875
  1
THD48 - TOP VIEW
 72
     1
 11
3.876959971533702
 21
-1.588162240997842
 31
-1.050183983838884
100
AcDbText
  0
LWPOLYLINE
  5
14
100
AcDbEntity
  8
USP-GEO
100
AcDbPolyline
 90
        8
 70
   128
 43
0.0
 10
4.471101645760679
 20
2.909380137832043
 10
4.424226562981431
 20
2.925005165425126
 10
4.392976507795268
 20
2.956255220611291
 10
4.377351480202182
 20
3.003130303390541
 10
3.376568462865222
 20
3.003130303390541
 10
3.376568462865222
 20
2.956255220611291
 10
3.329693380085972
 20
2.925005165425126
 10
3.298443324899807
 20
2.909380137832043
  0
LWPOLYLINE
  5
15
100
AcDbEntity
  8
USP-GEO
100
AcDbPolyline
 90
        2
 70
   129
 43
0.0
 10
4.377351480202182
 20
0.0
 10
3.376568462865222
 20
0.0
  0
LWPOLYLINE
  5
16
100
AcDbEntity
  8
USP-GEO
100
AcDbPolyline
 90
        2
 70
   128
 43
0.0
 10
4.377351480202182
 20
3.003130303390541
 10
3.376568462865222
 20
3.003130303390541
  0
LWPOLYLINE
  5
17
100
AcDbEntity
  8
USP-GEO
100
AcDbPolyline
 90
        2
 70
   129
 43
0.0
 10
3.126568021375893
 20
0.0
 10
2.063284893666601
 20
0.0
  0
LWPOLYLINE
  5
18
100
AcDbEntity
  8
USP-GEO
100
AcDbPolyline
 90
        2
 70
   129
 43
0.0
 10
2.063284893666601
 20
3.003130303390541
 10
3.126568021375893
 20
3.003130303390541
  0
LWPOLYLINE
  5
19
100
AcDbEntity
  8
USP-GEO
100
AcDbPolyline
 90
        4
 70
   128
 43
0.0
 10
2.000784783294269
 20
1.439065041322939
 10
2.000784783294269
 20
0.0312500551861668
 10
2.063284893666601
 20
0.0312500551861668
 10
2.063284893666601
 20
1.439065041322939
  0
LWPOLYLINE
  5
1A
100
AcDbEntity
  8
USP-GEO
100
AcDbPolyline
 90
        2
 70
   128
 43
0.0
 10
2.000784783294269
 20
0.0
 10
2.063284893666601
 20
0.0
  0
LWPOLYLINE
  5
1B
100
AcDbEntity
  8
USP-GEO
100
AcDbPolyline
 90
        2
 70
   128
 43
0.0
 10
2.063284893666601
 20
0.0
 10
2.063284893666601
 20
0.0312500551861668
  0
LWPOLYLINE
  5
1C
100
AcDbEntity
  8
USP-GEO
100
AcDbPolyline
 90
        2
 70
   129
 43
0.0
 10
2.001566034673922
 20
0.0
 10
2.000784783294269
 20
0.0
  0
LWPOLYLINE
  5
1D
100
AcDbEntity
  8
USP-GEO
100
AcDbPolyline
 90
        3
 70
   128
 43
0.0
 10
2.000784783294269
 20
0.0312500551861668
 10
2.000784783294269
 20
0.0
 10
2.063284893666601
 20
0.0
  0
LWPOLYLINE
  5
1E
100
AcDbEntity
  8
USP-GEO
100
AcDbPolyline
 90
        2
 70
   129
 43
0.0
 10
2.064066145046254
 20
0.0
 10
2.063284893666601
 20
0.0
  0
LWPOLYLINE
  5
1F
100
AcDbEntity
  8
USP-GEO
100
AcDbPolyline
 90
        2
 70
   128
 43
0.0
 10
2.000784783294269
 20
1.626565372439934
 10
2.001566034673922
 20
1.626565372439934
  0
LWPOLYLINE
  5
20
100
AcDbEntity
  8
USP-GEO
100
AcDbPolyline
 90
        3
 70
   128
 43
0.0
 10
2.000784783294269
 20
1.657815427626101
 10
2.063284893666601
 20
1.657815427626101
 10
2.063284893666601
 20
2.096097451612076
  0
LWPOLYLINE
  5
21
100
AcDbEntity
  8
USP-GEO
100
AcDbPolyline
 90
        2
 70
   128
 43
0.0
 10
2.063284893666601
 20
2.111722479205159
 10
2.064066145046254
 20
2.111722479205159
  0
LWPOLYLINE
  5
22
100
AcDbEntity
  8
USP-GEO
100
AcDbPolyline
 90
       21
 70
   128
 43
0.0
 10
2.063284893666601
 20
1.657815427626101
 10
2.063284893666601
 20
1.642190400033017
 10
2.063284893666601
 20
1.626565372439934
 10
2.063284893666601
 20
1.595315317253769
 10
2.063284893666601
 20
1.548440234474519
 10
2.063284893666601
 20
1.439065041322939
 10
2.000784783294269
 20
1.439065041322939
 10
2.000784783294269
 20
1.548440234474519
 10
2.000784783294269
 20
1.595315317253769
 10
2.000784783294269
 20
1.626565372439934
 10
2.063284893666601
 20
1.626565372439934
 10
2.000784783294269
 20
1.626565372439934
 10
2.000784783294269
 20
1.642190400033017
 10
2.000784783294269
 20
1.657815427626101
 10
2.000784783294269
 20
2.096097451612076
 10
2.063284893666601
 20
2.096097451612076
 10
2.063284893666601
 20
2.111722479205159
 10
2.063284893666601
 20
2.127347506798242
 10
2.000784783294269
 20
2.127347506798242
 10
2.000784783294269
 20
2.111722479205159
 10
2.000784783294269
 20
2.096097451612076
  0
LWPOLYLINE
  5
23
100
AcDbEntity
  8
USP-GEO
100
AcDbPolyline
 90
        2
 70
   129
 43
0.0
 10
3.298443324899807
 20
0.0781251379654151
 10
3.220318186934392
 20
0.0781251379654151
  0
LWPOLYLINE
  5
24
100
AcDbEntity
  8
USP-GEO
100
AcDbPolyline
 90
        4
 70
   128
 43
0.0
 10
3.126568021375893
 20
0.0
 10
3.142193048968977
 20
0.0468750827792501
 10
3.173443104155143
 20
0.0781251379654151
 10
3.220318186934392
 20
0.0781251379654151
  0
LWPOLYLINE
  5
25
100
AcDbEntity
  8
USP-GEO
100
AcDbPolyline
 90
        4
 70
   128
 43
0.0
 10
3.298443324899807
 20
0.0781251379654151
 10
3.329693380085972
 20
0.0781251379654151
 10
3.376568462865222
 20
0.0468750827792501
 10
3.376568462865222
 20
0.0
  0
LWPOLYLINE
  5
26
100
AcDbEntity
  8
USP-GEO
100
AcDbPolyline
 90
        2
 70
   129
 43
0.0
 10
3.220318186934392
 20
2.909380137832043
 10
3.298443324899807
 20
2.909380137832043
  0
LWPOLYLINE
  5
27
100
AcDbEntity
  8
USP-GEO
100
AcDbPolyline
 90
        4
 70
   128
 43
0.0
 10
3.220318186934392
 20
2.909380137832043
 10
3.173443104155143
 20
2.925005165425126
 10
3.142193048968977
 20
2.956255220611291
 10
3.126568021375893
 20
3.003130303390541
  0
LWPOLYLINE
  5
28
100
AcDbEntity
  8
USP-GEO
100
AcDbPolyline
 90
        2
 70
   129
 43
0.0
 10
4.627351921691509
 20
3.003130303390541
 10
5.690635049400803
 20
3.003130303390541
  0
LWPOLYLINE
  5
29
100
AcDbEntity
  8
USP-GEO
100
AcDbPolyline
 90
        2
 70
   129
 43
0.0
 10
5.690635049400803
 20
0.0
 10
4.627351921691509
 20
0.0
  0
LWPOLYLINE
  5
2A
100
AcDbEntity
  8
USP-GEO
100
AcDbPolyline
 90
        2
 70
   129
 43
0.0
 10
4.533601756133013
 20
0.0781251379654151
 10
4.471101645760679
 20
0.0781251379654151
  0
LWPOLYLINE
  5
2B
100
AcDbEntity
  8
USP-GEO
100
AcDbPolyline
 90
        4
 70
   128
 43
0.0
 10
4.377351480202182
 20
0.0
 10
4.392976507795268
 20
0.0468750827792501
 10
4.424226562981431
 20
0.0781251379654151
 10
4.471101645760679
 20
0.0781251379654151
  0
LWPOLYLINE
  5
2C
100
AcDbEntity
  8
USP-GEO
100
AcDbPolyline
 90
        4
 70
   128
 43
0.0
 10
4.533601756133013
 20
0.0781251379654151
 10
4.580476838912261
 20
0.0781251379654151
 10
4.611726894098428
 20
0.0468750827792501
 10
4.627351921691509
 20
0.0
  0
LWPOLYLINE
  5
2D
100
AcDbEntity
  8
USP-GEO
100
AcDbPolyline
 90
        2
 70
   129
 43
0.0
 10
4.471101645760679
 20
2.909380137832043
 10
4.533601756133013
 20
2.909380137832043
  0
LWPOLYLINE
  5
2E
100
AcDbEntity
  8
USP-GEO
100
AcDbPolyline
 90
        4
 70
   128
 43
0.0
 10
4.627351921691509
 20
3.003130303390541
 10
4.611726894098428
 20
2.956255220611291
 10
4.580476838912261
 20
2.925005165425126
 10
4.533601756133013
 20
2.909380137832043
  0
LWPOLYLINE
  5
2F
100
AcDbEntity
  8
USP-GEO
100
AcDbPolyline
 90
        4
 70
   128
 43
0.0
 10
5.768760187366218
 20
0.0
 10
5.768760187366218
 20
0.0312500551861668
 10
5.768760187366218
 20
1.439065041322939
 10
5.768760187366218
 20
1.548440234474519
  0
LWPOLYLINE
  5
30
100
AcDbEntity
  8
USP-GEO
100
AcDbPolyline
 90
        4
 70
   128
 43
0.0
 10
5.768760187366218
 20
0.0312500551861668
 10
5.768760187366218
 20
1.439065041322939
 10
5.690635049400803
 20
1.439065041322939
 10
5.690635049400803
 20
1.548440234474519
  0
LWPOLYLINE
  5
31
100
AcDbEntity
  8
USP-GEO
100
AcDbPolyline
 90
        4
 70
   128
 43
0.0
 10
5.690635049400803
 20
1.439065041322939
 10
5.690635049400803
 20
0.0312500551861668
 10
5.768760187366218
 20
0.0312500551861668
 10
5.768760187366218
 20
0.0
  0
LWPOLYLINE
  5
32
100
AcDbEntity
  8
USP-GEO
100
AcDbPolyline
 90
        5
 70
   128
 43
0.0
 10
5.690635049400803
 20
1.548440234474519
 10
5.690635049400803
 20
1.439065041322939
 10
5.690635049400803
 20
0.0312500551861668
 10
5.690635049400803
 20
0.0
 10
5.691416300780456
 20
0.0
  0
LWPOLYLINE
  5
33
100
AcDbEntity
  8
USP-GEO
100
AcDbPolyline
 90
        2
 70
   128
 43
0.0
 10
5.690635049400803
 20
0.0
 10
5.768760187366218
 20
0.0
  0
LWPOLYLINE
  5
34
100
AcDbEntity
  8
USP-GEO
100
AcDbPolyline
 90
        2
 70
   128
 43
0.0
 10
5.690635049400803
 20
0.0
 10
5.768760187366218
 20
0.0
  0
LWPOLYLINE
  5
35
100
AcDbEntity
  8
USP-GEO
100
AcDbPolyline
 90
        2
 70
   128
 43
0.0
 10
5.690635049400803
 20
0.0312500551861668
 10
5.690635049400803
 20
0.0
  0
LWPOLYLINE
  5
36
100
AcDbEntity
  8
USP-GEO
100
AcDbPolyline
 90
        2
 70
   129
 43
0.0
 10
5.691416300780456
 20
0.0
 10
5.690635049400803
 20
0.0
  0
LWPOLYLINE
  5
37
100
AcDbEntity
  8
USP-GEO
100
AcDbPolyline
 90
        2
 70
   129
 43
0.0
 10
5.769541438745871
 20
0.0
 10
5.768760187366218
 20
0.0
  0
LWPOLYLINE
  5
38
100
AcDbEntity
  8
USP-GEO
100
AcDbPolyline
 90
        6
 70
   128
 43
0.0
 10
5.690635049400803
 20
2.096097451612076
 10
5.690635049400803
 20
2.111722479205159
 10
5.690635049400803
 20
2.127347506798242
 10
5.768760187366218
 20
2.127347506798242
 10
5.768760187366218
 20
2.111722479205159
 10
5.768760187366218
 20
2.096097451612076
  0
LWPOLYLINE
  5
39
100
AcDbEntity
  8
USP-GEO
100
AcDbPolyline
 90
       20
 70
   128
 43
0.0
 10
5.768760187366218
 20
1.626565372439934
 10
5.768760187366218
 20
1.595315317253769
 10
5.768760187366218
 20
1.626565372439934
 10
5.768760187366218
 20
1.642190400033017
 10
5.768760187366218
 20
1.657815427626101
 10
5.768760187366218
 20
2.096097451612076
 10
5.690635049400803
 20
2.096097451612076
 10
5.690635049400803
 20
1.657815427626101
 10
5.690635049400803
 20
1.642190400033017
 10
5.690635049400803
 20
1.626565372439934
 10
5.691416300780456
 20
1.626565372439934
 10
5.690635049400803
 20
1.626565372439934
 10
5.768760187366218
 20
1.626565372439934
 10
5.768760187366218
 20
1.642190400033017
 10
5.768760187366218
 20
1.657815427626101
 10
5.690635049400803
 20
1.657815427626101
 10
5.690635049400803
 20
1.642190400033017
 10
5.690635049400803
 20
1.626565372439934
 10
5.768760187366218
 20
1.626565372439934
 10
5.769541438745871
 20
1.626565372439934
  0
LWPOLYLINE
  5
3A
100
AcDbEntity
  8
USP-GEO
100
AcDbPolyline
 90
        4
 70
   129
 43
0.0
 10
5.690635049400803
 20
1.626565372439934
 10
5.690635049400803
 20
1.595315317253769
 10
5.690635049400803
 20
1.548440234474519
 10
5.690635049400803
 20
1.595315317253769
  0
LWPOLYLINE
  5
3B
100
AcDbEntity
  8
USP-GEO
100
AcDbPolyline
 90
        2
 70
   128
 43
0.0
 10
5.768760187366218
 20
1.439065041322939
 10
5.768760187366218
 20
1.548440234474519
  0
LWPOLYLINE
  5
3C
100
AcDbEntity
  8
USP-GEO
100
AcDbPolyline
 90
        2
 70
   129
 43
0.0
 10
5.768760187366218
 20
1.595315317253769
 10
5.768760187366218
 20
1.548440234474519
  0
ENDBLK
  5
3F
100
AcDbEntity
  8
0
100
AcDbBlockEnd
  0
BLOCK
  5
C5
100
AcDbEntity
  8
0
100
AcDbBlockBegin
  2
THD48_F
 70
     0
 10
0.0
 20
0.0
 30
0.0
  3
THD48_F
  1

  0
TEXT
  5
42
100
AcDbEntity
  8
USP-TXT
100
AcDbText
 10
1.205084971533703
 20
-1.221194054679548
 30
-1.050183983838884
 40
0.296875
  1
THD48 - FRONT VIEW
 72
     1
 11
3.876959971533702
 21
-1.221194054679548
 31
-1.050183983838884
100
AcDbText
  0
LWPOLYLINE
  5
43
100
AcDbEntity
  8
USP-GEO
100
AcDbPolyline
 90
        2
 70
   129
 43
0.0
 10
7.097668784157921
 20
1.907815869115426
 10
5.768760187366218
 20
0.3281255794547402
  0
LWPOLYLINE
  5
44
100
AcDbEntity
  8
USP-GEO
100
AcDbPolyline
 90
       15
 70
   128
 43
0.0
 10
7.76954497066049
 20
6.990637345145303
 10
7.76954497066049
 20
7.146887621076134
 10
5.768760187366218
 20
7.146887621076134
 10
5.768760187366218
 20
6.990637345145303
 10
5.768760187366218
 20
6.959387289959138
 10
5.768760187366218
 20
6.928137234772973
 10
5.768760187366218
 20
6.896887179586807
 10
5.768760187366218
 20
6.411730072821582
 10
5.768760187366218
 20
6.380480017635415
 10
5.768760187366218
 20
6.364854990042333
 10
5.768760187366218
 20
6.333604934856166
 10
5.768760187366218
 20
6.08360449336684
 10
5.768760187366218
 20
6.052354438180675
 10
5.768760187366218
 20
6.021104382994508
 10
5.768760187366218
 20
5.989854327808343
  0
LWPOLYLINE
  5
45
100
AcDbEntity
  8
USP-GEO
100
AcDbPolyline
 90
       79
 70
   128
 43
0.0
 10
5.768760187366218
 20
6.08360449336684
 10
5.690635049400803
 20
6.08360449336684
 10
5.690635049400803
 20
6.052354438180675
 10
5.690635049400803
 20
6.021104382994508
 10
5.690635049400803
 20
5.989854327808343
 10
5.768760187366218
 20
5.989854327808343
 10
5.768760187366218
 20
5.504697221043118
 10
5.768760187366218
 20
5.473447165856951
 10
5.768760187366218
 20
5.457822138263868
 10
5.768760187366218
 20
5.426572083077703
 10
5.768760187366218
 20
5.114071531216044
 10
5.768760187366218
 20
5.082821476029877
 10
5.768760187366218
 20
5.051571420843712
 10
5.768760187366218
 20
5.020321365657546
 10
5.768760187366218
 20
5.051571420843712
 10
5.768760187366218
 20
5.082821476029877
 10
5.768760187366218
 20
5.114071531216044
 10
5.690635049400803
 20
5.114071531216044
 10
5.690635049400803
 20
5.082821476029877
 10
5.690635049400803
 20
5.051571420843712
 10
5.690635049400803
 20
5.020321365657546
 10
5.690635049400803
 20
4.53516425889232
 10
5.690635049400803
 20
4.503914203706155
 10
5.690635049400803
 20
4.488289176113072
 10
5.690635049400803
 20
4.457039120926905
 10
5.690635049400803
 20
2.376566696907913
 10
5.690635049400803
 20
2.204691393384001
 10
5.690635049400803
 20
2.048441117453172
 10
5.690635049400803
 20
1.907815869115426
 10
5.690635049400803
 20
2.048441117453172
 10
5.690635049400803
 20
2.204691393384001
 10
5.690635049400803
 20
2.376566696907913
 10
5.690635049400803
 20
4.457039120926905
 10
5.690635049400803
 20
4.488289176113072
 10
5.690635049400803
 20
4.503914203706155
 10
5.690635049400803
 20
4.53516425889232
 10
5.690635049400803
 20
5.020321365657546
 10
5.690635049400803
 20
5.051571420843712
 10
5.690635049400803
 20
5.082821476029877
 10
5.690635049400803
 20
5.114071531216044
 10
5.690635049400803
 20
5.426572083077703
 10
5.690635049400803
 20
5.457822138263868
 10
5.690635049400803
 20
5.426572083077703
 10
5.768760187366218
 20
5.426572083077703
 10
5.768760187366218
 20
5.457822138263868
 10
5.768760187366218
 20
5.473447165856951
 10
5.768760187366218
 20
5.504697221043118
 10
5.768760187366218
 20
5.989854327808343
 10
5.768760187366218
 20
6.021104382994508
 10
5.768760187366218
 20
6.052354438180675
 10
5.768760187366218
 20
6.08360449336684
 10
5.768760187366218
 20
6.333604934856166
 10
5.768760187366218
 20
6.364854990042333
 10
5.768760187366218
 20
6.380480017635415
 10
5.768760187366218
 20
6.411730072821582
 10
5.768760187366218
 20
6.896887179586807
 10
5.768760187366218
 20
6.928137234772973
 10
5.768760187366218
 20
6.959387289959138
 10
5.768760187366218
 20
6.990637345145303
 10
5.768760187366218
 20
7.146887621076134
 10
7.76954497066049
 20
7.146887621076134
 10
7.76954497066049
 20
6.990637345145303
 10
7.76954497066049
 20
6.959387289959138
 10
7.753919943067405
 20
6.928137234772973
 10
7.738294915474323
 20
6.896887179586807
 10
7.300794142867999
 20
6.411730072821582
 10
7.285169115274918
 20
6.380480017635415
 10
7.269544087681836
 20
6.364854990042333
 10
7.269544087681836
 20
6.333604934856166
 10
7.269544087681836
 20
6.08360449336684
 10
7.269544087681836
 20
6.052354438180675
 10
7.285169115274918
 20
6.021104382994508
 10
7.300794142867999
 20
5.989854327808343
 10
7.738294915474323
 20
5.504697221043118
 10
7.753919943067405
 20
5.473447165856951
 10
7.76954497066049
 20
5.457822138263868
 10
7.76954497066049
 20
5.426572083077703
 10
7.76954497066049
 20
5.114071531216044
 10
7.76954497066049
 20
5.426572083077703
  0
LWPOLYLINE
  5
46
100
AcDbEntity
  8
USP-GEO
100
AcDbPolyline
 90
       35
 70
   128
 43
0.0
 10
2.063284893666601
 20
0.1250002207446634
 10
2.063284893666601
 20
0.1562502759308284
 10
2.063284893666601
 20
0.1875003311169951
 10
2.063284893666601
 20
0.2031253587100767
 10
2.063284893666601
 20
1.907815869115426
 10
2.063284893666601
 20
2.048441117453172
 10
2.063284893666601
 20
2.204691393384001
 10
2.063284893666601
 20
2.376566696907913
 10
2.063284893666601
 20
4.457039120926905
 10
2.063284893666601
 20
4.488289176113072
 10
2.063284893666601
 20
4.503914203706155
 10
2.063284893666601
 20
4.53516425889232
 10
2.063284893666601
 20
5.020321365657546
 10
2.063284893666601
 20
5.051571420843712
 10
2.063284893666601
 20
5.082821476029877
 10
2.063284893666601
 20
5.114071531216044
 10
2.063284893666601
 20
5.426572083077703
 10
2.063284893666601
 20
5.457822138263868
 10
2.063284893666601
 20
5.473447165856951
 10
2.063284893666601
 20
5.504697221043118
 10
2.063284893666601
 20
5.989854327808343
 10
2.063284893666601
 20
6.021104382994508
 10
2.063284893666601
 20
6.052354438180675
 10
2.063284893666601
 20
6.08360449336684
 10
2.063284893666601
 20
6.333604934856166
 10
2.063284893666601
 20
6.364854990042333
 10
2.063284893666601
 20
6.380480017635415
 10
2.063284893666601
 20
6.411730072821582
 10
2.063284893666601
 20
6.896887179586807
 10
2.063284893666601
 20
6.928137234772973
 10
2.063284893666601
 20
6.959387289959138
 10
2.063284893666601
 20
6.990637345145303
 10
2.063284893666601
 20
7.146887621076134
 10
2.000784783294269
 20
7.146887621076134
 10
0.0
 20
7.146887621076134
  0
LWPOLYLINE
  5
47
100
AcDbEntity
  8
USP-GEO
100
AcDbPolyline
 90
       12
 70
   128
 43
0.0
 10
0.875001545212644
 20
5.676572524567029
 10
0.875001545212644
 20
5.629697441787781
 10
0.875001545212644
 20
5.582822359008531
 10
0.8437514900264773
 20
5.551572303822366
 10
0.796876407247229
 20
5.535947276229283
 10
0.7500013244679807
 20
5.551572303822366
 10
0.7187512692818139
 20
5.582822359008531
 10
0.7031262416887305
 20
5.629697441787781
 10
0.7187512692818139
 20
5.676572524567029
 10
0.7500013244679807
 20
5.707822579753194
 10
0.796876407247229
 20
5.723447607346278
 10
0.8437514900264773
 20
5.707822579753194
  0
LWPOLYLINE
  5
48
100
AcDbEntity
  8
USP-GEO
100
AcDbPolyline
 90
       12
 70
   129
 43
0.0
 10
0.7031262416887305
 20
3.002349052010885
 10
0.7187512692818139
 20
3.049224134790133
 10
0.7500013244679807
 20
3.0804741899763
 10
0.796876407247229
 20
3.096099217569383
 10
0.8437514900264773
 20
3.0804741899763
 10
0.875001545212644
 20
3.049224134790133
 10
0.875001545212644
 20
3.002349052010885
 10
0.875001545212644
 20
2.955473969231636
 10
0.8437514900264773
 20
2.924223914045469
 10
0.796876407247229
 20
2.908598886452388
 10
0.7500013244679807
 20
2.924223914045469
 10
0.7187512692818139
 20
2.955473969231636
  0
LWPOLYLINE
  5
49
100
AcDbEntity
  8
USP-GEO
100
AcDbPolyline
 90
       12
 70
   129
 43
0.0
 10
0.7031262416887305
 20
3.878131848603183
 10
0.7187512692818139
 20
3.925006931382432
 10
0.7500013244679807
 20
3.956256986568599
 10
0.796876407247229
 20
3.97188201416168
 10
0.8437514900264773
 20
3.956256986568599
 10
0.875001545212644
 20
3.925006931382432
 10
0.875001545212644
 20
3.878131848603183
 10
0.875001545212644
 20
3.831256765823935
 10
0.8437514900264773
 20
3.800006710637768
 10
0.796876407247229
 20
3.784381683044685
 10
0.7500013244679807
 20
3.800006710637768
 10
0.7187512692818139
 20
3.831256765823935
  0
LWPOLYLINE
  5
4A
100
AcDbEntity
  8
USP-GEO
100
AcDbPolyline
 90
       12
 70
   129
 43
0.0
 10
0.7031262416887305
 20
4.753914645195482
 10
0.7187512692818139
 20
4.800789727974731
 10
0.7500013244679807
 20
4.832039783160897
 10
0.796876407247229
 20
4.847664810753979
 10
0.8437514900264773
 20
4.832039783160897
 10
0.875001545212644
 20
4.800789727974731
 10
0.875001545212644
 20
4.753914645195482
 10
0.875001545212644
 20
4.707039562416232
 10
0.8437514900264773
 20
4.675789507230067
 10
0.796876407247229
 20
4.660164479636984
 10
0.7500013244679807
 20
4.675789507230067
 10
0.7187512692818139
 20
4.707039562416232
  0
LWPOLYLINE
  5
4B
100
AcDbEntity
  8
USP-GEO
100
AcDbPolyline
 90
       12
 70
   128
 43
0.0
 10
0.875001545212644
 20
6.552355321159327
 10
0.875001545212644
 20
6.505480238380079
 10
0.875001545212644
 20
6.45860515560083
 10
0.8437514900264773
 20
6.427355100414665
 10
0.796876407247229
 20
6.411730072821582
 10
0.7500013244679807
 20
6.427355100414665
 10
0.7187512692818139
 20
6.45860515560083
 10
0.7031262416887305
 20
6.505480238380079
 10
0.7187512692818139
 20
6.552355321159327
 10
0.7500013244679807
 20
6.583605376345493
 10
0.796876407247229
 20
6.599230403938577
 10
0.8437514900264773
 20
6.583605376345493
  0
LWPOLYLINE
  5
4C
100
AcDbEntity
  8
USP-GEO
100
AcDbPolyline
 90
       34
 70
   128
 43
0.0
 10
2.000784783294269
 20
0.1250002207446634
 10
2.000784783294269
 20
0.1562502759308284
 10
2.000784783294269
 20
0.1875003311169951
 10
2.000784783294269
 20
0.2031253587100767
 10
2.000784783294269
 20
1.907815869115426
 10
2.000784783294269
 20
2.048441117453172
 10
2.000784783294269
 20
2.204691393384001
 10
2.000784783294269
 20
2.376566696907913
 10
2.000784783294269
 20
4.457039120926905
 10
2.000784783294269
 20
4.488289176113072
 10
2.000784783294269
 20
4.503914203706155
 10
2.000784783294269
 20
4.53516425889232
 10
2.000784783294269
 20
5.020321365657546
 10
2.000784783294269
 20
5.051571420843712
 10
2.000784783294269
 20
5.082821476029877
 10
2.000784783294269
 20
5.114071531216044
 10
2.000784783294269
 20
5.426572083077703
 10
2.000784783294269
 20
5.457822138263868
 10
2.000784783294269
 20
5.473447165856951
 10
2.000784783294269
 20
5.504697221043118
 10
2.000784783294269
 20
5.989854327808343
 10
2.000784783294269
 20
6.021104382994508
 10
2.000784783294269
 20
6.052354438180675
 10
2.000784783294269
 20
6.08360449336684
 10
2.000784783294269
 20
6.333604934856166
 10
2.000784783294269
 20
6.364854990042333
 10
2.000784783294269
 20
6.380480017635415
 10
2.000784783294269
 20
6.411730072821582
 10
2.000784783294269
 20
6.896887179586807
 10
2.000784783294269
 20
6.928137234772973
 10
2.000784783294269
 20
6.959387289959138
 10
2.000784783294269
 20
6.990637345145303
 10
2.000784783294269
 20
7.146887621076134
 10
0.0
 20
7.146887621076134
  0
LWPOLYLINE
  5
4D
100
AcDbEntity
  8
USP-GEO
100
AcDbPolyline
 90
        2
 70
   129
 43
0.0
 10
2.000784783294269
 20
0.3281255794547402
 10
0.6718761865025656
 20
1.907815869115426
  0
LWPOLYLINE
  5
4E
100
AcDbEntity
  8
USP-GEO
100
AcDbPolyline
 90
        2
 70
   128
 43
0.0
 10
0.8437514900264773
 20
4.675789507230067
 10
0.796876407247229
 20
4.660164479636984
  0
LWPOLYLINE
  5
4F
100
AcDbEntity
  8
USP-GEO
100
AcDbPolyline
 90
       12
 70
   128
 43
0.0
 10
0.6718761865025656
 20
1.907815869115426
 10
0.5781260209440671
 20
2.048441117453172
 10
0.5156259105717354
 20
2.204691393384001
 10
0.5000008829786538
 20
2.376566696907913
 10
0.5000008829786538
 20
4.457039120926905
 10
0.4843758553855704
 20
4.488289176113072
 10
0.4843758553855704
 20
4.503914203706155
 10
0.468750827792487
 20
4.53516425889232
 10
0.031250055186165
 20
5.020321365657546
 10
0.0
 20
5.051571420843712
 10
0.0
 20
5.082821476029877
 10
0.0
 20
5.114071531216044
  0
LWPOLYLINE
  5
50
100
AcDbEntity
  8
USP-GEO
100
AcDbPolyline
 90
        2
 70
   128
 43
0.0
 10
0.5000008829786538
 20
4.457039120926905
 10
0.5000008829786538
 20
2.376566696907913
  0
LWPOLYLINE
  5
51
100
AcDbEntity
  8
USP-GEO
100
AcDbPolyline
 90
        2
 70
   129
 43
0.0
 10
0.031250055186165
 20
5.504697221043118
 10
0.468750827792487
 20
5.989854327808343
  0
LWPOLYLINE
  5
52
100
AcDbEntity
  8
USP-GEO
100
AcDbPolyline
 90
        2
 70
   129
 43
0.0
 10
0.468750827792487
 20
6.411730072821582
 10
0.031250055186165
 20
6.896887179586807
  0
LWPOLYLINE
  5
53
100
AcDbEntity
  8
USP-GEO
100
AcDbPolyline
 90
        2
 70
   128
 43
0.0
 10
0.031250055186165
 20
5.020321365657546
 10
0.468750827792487
 20
4.53516425889232
  0
LWPOLYLINE
  5
54
100
AcDbEntity
  8
USP-GEO
100
AcDbPolyline
 90
        2
 70
   129
 43
0.0
 10
0.0
 20
5.114071531216044
 10
0.0
 20
5.426572083077703
  0
LWPOLYLINE
  5
55
100
AcDbEntity
  8
USP-GEO
100
AcDbPolyline
 90
        4
 70
   128
 43
0.0
 10
0.0
 20
5.426572083077703
 10
0.0
 20
5.457822138263868
 10
0.0
 20
5.473447165856951
 10
0.031250055186165
 20
5.504697221043118
  0
LWPOLYLINE
  5
56
100
AcDbEntity
  8
USP-GEO
100
AcDbPolyline
 90
        2
 70
   129
 43
0.0
 10
0.0
 20
6.990637345145303
 10
0.0
 20
7.146887621076134
  0
LWPOLYLINE
  5
57
100
AcDbEntity
  8
USP-GEO
100
AcDbPolyline
 90
        4
 70
   128
 43
0.0
 10
0.031250055186165
 20
6.896887179586807
 10
0.0
 20
6.928137234772973
 10
0.0
 20
6.959387289959138
 10
0.0
 20
6.990637345145303
  0
LWPOLYLINE
  5
58
100
AcDbEntity
  8
USP-GEO
100
AcDbPolyline
 90
        8
 70
   128
 43
0.0
 10
0.468750827792487
 20
6.411730072821582
 10
0.4843758553855704
 20
6.380480017635415
 10
0.4843758553855704
 20
6.364854990042333
 10
0.5000008829786538
 20
6.333604934856166
 10
0.5000008829786538
 20
6.08360449336684
 10
0.4843758553855704
 20
6.052354438180675
 10
0.4843758553855704
 20
6.021104382994508
 10
0.468750827792487
 20
5.989854327808343
  0
LWPOLYLINE
  5
59
100
AcDbEntity
  8
USP-GEO
100
AcDbPolyline
 90
        3
 70
   128
 43
0.0
 10
0.4843758553855704
 20
6.364854990042333
 10
0.5000008829786538
 20
6.333604934856166
 10
0.5000008829786538
 20
6.08360449336684
  0
LWPOLYLINE
  5
5A
100
AcDbEntity
  8
USP-GEO
100
AcDbPolyline
 90
       12
 70
   129
 43
0.0
 10
0.2500004414893269
 20
5.067196448436794
 10
0.2187503863031601
 20
5.098446503622961
 10
0.2031253587100767
 20
5.145321586402209
 10
0.2187503863031601
 20
5.192196669181457
 10
0.2500004414893269
 20
5.223446724367624
 10
0.2968755242685752
 20
5.223446724367624
 10
0.3437506070478236
 20
5.223446724367624
 10
0.3750006622339903
 20
5.192196669181457
 10
0.3906256898270719
 20
5.145321586402209
 10
0.3750006622339903
 20
5.098446503622961
 10
0.3437506070478236
 20
5.067196448436794
 10
0.2968755242685752
 20
5.051571420843712
  0
LWPOLYLINE
  5
5B
100
AcDbEntity
  8
USP-GEO
100
AcDbPolyline
 90
        2
 70
   128
 43
0.0
 10
0.3437506070478236
 20
5.223446724367624
 10
0.3750006622339903
 20
5.192196669181457
  0
LWPOLYLINE
  5
5C
100
AcDbEntity
  8
USP-GEO
100
AcDbPolyline
 90
       12
 70
   128
 43
0.0
 10
0.3437506070478236
 20
6.975012317552222
 10
0.2968755242685752
 20
6.975012317552222
 10
0.2500004414893269
 20
6.975012317552222
 10
0.2187503863031601
 20
6.943762262366055
 10
0.2031253587100767
 20
6.896887179586807
 10
0.2187503863031601
 20
6.850012096807558
 10
0.2500004414893269
 20
6.818762041621392
 10
0.2968755242685752
 20
6.80313701402831
 10
0.3437506070478236
 20
6.818762041621392
 10
0.3750006622339903
 20
6.850012096807558
 10
0.3906256898270719
 20
6.896887179586807
 10
0.3750006622339903
 20
6.943762262366055
  0
LWPOLYLINE
  5
5D
100
AcDbEntity
  8
USP-GEO
100
AcDbPolyline
 90
        2
 70
   129
 43
0.0
 10
0.3750006622339903
 20
6.943762262366055
 10
0.3437506070478236
 20
6.975012317552222
  0
LWPOLYLINE
  5
5E
100
AcDbEntity
  8
USP-GEO
100
AcDbPolyline
 90
        5
 70
   128
 43
0.0
 10
4.377351480202182
 20
0.0781251379654133
 10
3.376568462865222
 20
0.0781251379654133
 10
3.329693380085972
 20
0.0781251379654133
 10
3.298443324899807
 20
0.0781251379654133
 10
3.298443324899807
 20
0.0
  0
LWPOLYLINE
  5
5F
100
AcDbEntity
  8
USP-GEO
100
AcDbPolyline
 90
       11
 70
   128
 43
0.0
 10
4.627351921691509
 20
0.0781251379654133
 10
5.690635049400803
 20
0.0781251379654133
 10
4.627351921691509
 20
0.0781251379654133
 10
4.611726894098428
 20
0.0781251379654133
 10
4.580476838912261
 20
0.0781251379654133
 10
4.533601756133013
 20
0.0781251379654133
 10
4.471101645760679
 20
0.0781251379654133
 10
4.424226562981431
 20
0.0781251379654133
 10
4.392976507795268
 20
0.0781251379654133
 10
4.377351480202182
 20
0.0781251379654133
 10
3.376568462865222
 20
0.0781251379654133
  0
LWPOLYLINE
  5
60
100
AcDbEntity
  8
USP-GEO
100
AcDbPolyline
 90
       38
 70
   128
 43
0.0
 10
4.533601756133013
 20
0.0
 10
4.533601756133013
 20
0.0781251379654133
 10
4.580476838912261
 20
0.0781251379654133
 10
4.611726894098428
 20
0.0781251379654133
 10
4.627351921691509
 20
0.0781251379654133
 10
4.627351921691509
 20
0.0
 10
4.611726894098428
 20
0.0
 10
4.580476838912261
 20
0.0
 10
4.533601756133013
 20
0.0
 10
4.471101645760679
 20
0.0
 10
4.424226562981431
 20
0.0
 10
4.392976507795268
 20
0.0
 10
4.377351480202182
 20
0.0
 10
3.376568462865222
 20
0.0
 10
3.329693380085972
 20
0.0
 10
3.298443324899807
 20
0.0
 10
3.220318186934392
 20
0.0
 10
3.173443104155143
 20
0.0
 10
3.142193048968977
 20
0.0
 10
3.126568021375893
 20
0.0
 10
2.000784783294269
 20
0.0
 10
3.126568021375893
 20
0.0
 10
3.142193048968977
 20
0.0
 10
3.173443104155143
 20
0.0
 10
3.220318186934392
 20
0.0
 10
3.298443324899807
 20
0.0
 10
3.329693380085972
 20
0.0
 10
3.376568462865222
 20
0.0
 10
4.377351480202182
 20
0.0
 10
4.392976507795268
 20
0.0
 10
4.424226562981431
 20
0.0
 10
4.471101645760679
 20
0.0
 10
4.533601756133013
 20
0.0
 10
4.580476838912261
 20
0.0
 10
4.611726894098428
 20
0.0
 10
4.627351921691509
 20
0.0
 10
5.768760187366218
 20
0.0
 10
5.768760187366218
 20
0.1250002207446634
  0
LWPOLYLINE
  5
61
100
AcDbEntity
  8
USP-GEO
100
AcDbPolyline
 90
        4
 70
   128
 43
0.0
 10
2.000784783294269
 20
1.907815869115426
 10
2.000784783294269
 20
0.2031253587100767
 10
2.063284893666601
 20
0.2031253587100767
 10
2.063284893666601
 20
1.907815869115426
  0
LWPOLYLINE
  5
62
100
AcDbEntity
  8
USP-GEO
100
AcDbPolyline
 90
        9
 70
   128
 43
0.0
 10
3.126568021375893
 20
0.0781251379654133
 10
2.063284893666601
 20
0.0781251379654133
 10
3.126568021375893
 20
0.0781251379654133
 10
3.142193048968977
 20
0.0781251379654133
 10
3.173443104155143
 20
0.0781251379654133
 10
3.220318186934392
 20
0.0781251379654133
 10
3.298443324899807
 20
0.0781251379654133
 10
3.329693380085972
 20
0.0781251379654133
 10
3.376568462865222
 20
0.0781251379654133
  0
LWPOLYLINE
  5
63
100
AcDbEntity
  8
USP-GEO
100
AcDbPolyline
 90
        2
 70
   129
 43
0.0
 10
2.000784783294269
 20
0.0
 10
2.000784783294269
 20
0.1250002207446634
  0
LWPOLYLINE
  5
64
100
AcDbEntity
  8
USP-GEO
100
AcDbPolyline
 90
        2
 70
   129
 43
0.0
 10
2.063284893666601
 20
0.1250002207446634
 10
2.063284893666601
 20
0.0781251379654133
  0
LWPOLYLINE
  5
65
100
AcDbEntity
  8
USP-GEO
100
AcDbPolyline
 90
        8
 70
   128
 43
0.0
 10
2.000784783294269
 20
0.2031253587100767
 10
2.000784783294269
 20
0.1875003311169951
 10
2.000784783294269
 20
0.1562502759308284
 10
2.000784783294269
 20
0.1250002207446634
 10
2.063284893666601
 20
0.1250002207446634
 10
2.063284893666601
 20
0.1562502759308284
 10
2.063284893666601
 20
0.1875003311169951
 10
2.063284893666601
 20
0.2031253587100767
  0
LWPOLYLINE
  5
66
100
AcDbEntity
  8
USP-GEO
100
AcDbPolyline
 90
        3
 70
   128
 43
0.0
 10
3.220318186934392
 20
0.0
 10
3.220318186934392
 20
0.0781251379654133
 10
3.298443324899807
 20
0.0781251379654133
  0
LWPOLYLINE
  5
67
100
AcDbEntity
  8
USP-GEO
100
AcDbPolyline
 90
        5
 70
   128
 43
0.0
 10
3.220318186934392
 20
0.0781251379654133
 10
3.173443104155143
 20
0.0781251379654133
 10
3.142193048968977
 20
0.0781251379654133
 10
3.126568021375893
 20
0.0781251379654133
 10
3.126568021375893
 20
0.0
  0
LWPOLYLINE
  5
68
100
AcDbEntity
  8
USP-GEO
100
AcDbPolyline
 90
        3
 70
   128
 43
0.0
 10
3.376568462865222
 20
0.0781251379654133
 10
3.376568462865222
 20
0.0
 10
3.377349714244875
 20
0.0
  0
LWPOLYLINE
  5
69
100
AcDbEntity
  8
USP-GEO
100
AcDbPolyline
 90
        2
 70
   129
 43
0.0
 10
3.377349714244875
 20
0.0781251379654133
 10
3.376568462865222
 20
0.0781251379654133
  0
LWPOLYLINE
  5
6A
100
AcDbEntity
  8
USP-GEO
100
AcDbPolyline
 90
        8
 70
   128
 43
0.0
 10
2.000784783294269
 20
4.53516425889232
 10
2.000784783294269
 20
4.503914203706155
 10
2.000784783294269
 20
4.488289176113072
 10
2.000784783294269
 20
4.457039120926905
 10
2.063284893666601
 20
4.457039120926905
 10
2.063284893666601
 20
4.488289176113072
 10
2.063284893666601
 20
4.503914203706155
 10
2.063284893666601
 20
4.53516425889232
  0
LWPOLYLINE
  5
6B
100
AcDbEntity
  8
USP-GEO
100
AcDbPolyline
 90
       12
 70
   129
 43
0.0
 10
1.407033734757117
 20
1.500783900315616
 10
1.4226587623502
 20
1.547658983094864
 10
1.453908817536365
 20
1.578909038281029
 10
1.500783900315614
 20
1.594534065874112
 10
1.532033955501781
 20
1.578909038281029
 10
1.578909038281029
 20
1.547658983094864
 10
1.578909038281029
 20
1.500783900315616
 10
1.578909038281029
 20
1.453908817536365
 10
1.532033955501781
 20
1.4226587623502
 10
1.500783900315614
 20
1.407033734757117
 10
1.453908817536365
 20
1.4226587623502
 10
1.4226587623502
 20
1.453908817536365
  0
LWPOLYLINE
  5
6C
100
AcDbEntity
  8
USP-GEO
100
AcDbPolyline
 90
       12
 70
   129
 43
0.0
 10
1.407033734757117
 20
2.376566696907913
 10
1.4226587623502
 20
2.423441779687163
 10
1.453908817536365
 20
2.454691834873328
 10
1.500783900315614
 20
2.471098113846064
 10
1.532033955501781
 20
2.454691834873328
 10
1.578909038281029
 20
2.423441779687163
 10
1.578909038281029
 20
2.376566696907913
 10
1.578909038281029
 20
2.329691614128664
 10
1.532033955501781
 20
2.298441558942499
 10
1.500783900315614
 20
2.282816531349416
 10
1.453908817536365
 20
2.298441558942499
 10
1.4226587623502
 20
2.329691614128664
  0
LWPOLYLINE
  5
6D
100
AcDbEntity
  8
USP-GEO
100
AcDbPolyline
 90
       12
 70
   129
 43
0.0
 10
1.407033734757117
 20
3.252349493500211
 10
1.4226587623502
 20
3.300005827659115
 10
1.453908817536365
 20
3.331255882845281
 10
1.500783900315614
 20
3.346880910438363
 10
1.532033955501781
 20
3.331255882845281
 10
1.578909038281029
 20
3.300005827659115
 10
1.578909038281029
 20
3.252349493500211
 10
1.578909038281029
 20
3.205474410720963
 10
1.532033955501781
 20
3.174224355534796
 10
1.500783900315614
 20
3.158599327941715
 10
1.453908817536365
 20
3.174224355534796
 10
1.4226587623502
 20
3.205474410720963
  0
LWPOLYLINE
  5
6E
100
AcDbEntity
  8
USP-GEO
100
AcDbPolyline
 90
       12
 70
   129
 43
0.0
 10
1.407033734757117
 20
4.128913541472165
 10
1.4226587623502
 20
4.175788624251413
 10
1.453908817536365
 20
4.207038679437578
 10
1.500783900315614
 20
4.222663707030662
 10
1.532033955501781
 20
4.207038679437578
 10
1.578909038281029
 20
4.175788624251413
 10
1.578909038281029
 20
4.128913541472165
 10
1.578909038281029
 20
4.081257207313262
 10
1.532033955501781
 20
4.050007152127095
 10
1.500783900315614
 20
4.034382124534012
 10
1.453908817536365
 20
4.050007152127095
 10
1.4226587623502
 20
4.081257207313262
  0
LWPOLYLINE
  5
6F
100
AcDbEntity
  8
USP-GEO
100
AcDbPolyline
 90
        2
 70
   128
 43
0.0
 10
1.532033955501781
 20
1.578909038281029
 10
1.578909038281029
 20
1.547658983094864
  0
LWPOLYLINE
  5
70
100
AcDbEntity
  8
USP-GEO
100
AcDbPolyline
 90
        2
 70
   128
 43
0.0
 10
1.532033955501781
 20
4.207038679437578
 10
1.578909038281029
 20
4.175788624251413
  0
LWPOLYLINE
  5
71
100
AcDbEntity
  8
USP-GEO
100
AcDbPolyline
 90
        2
 70
   128
 43
0.0
 10
1.532033955501781
 20
3.331255882845281
 10
1.578909038281029
 20
3.300005827659115
  0
LWPOLYLINE
  5
72
100
AcDbEntity
  8
USP-GEO
100
AcDbPolyline
 90
        2
 70
   128
 43
0.0
 10
1.532033955501781
 20
2.454691834873328
 10
1.578909038281029
 20
2.423441779687163
  0
LWPOLYLINE
  5
73
100
AcDbEntity
  8
USP-GEO
100
AcDbPolyline
 90
        2
 70
   128
 43
0.0
 10
0.8437514900264773
 20
3.0804741899763
 10
0.875001545212644
 20
3.049224134790133
  0
LWPOLYLINE
  5
74
100
AcDbEntity
  8
USP-GEO
100
AcDbPolyline
 90
        2
 70
   128
 43
0.0
 10
0.8437514900264773
 20
3.956256986568599
 10
0.875001545212644
 20
3.925006931382432
  0
LWPOLYLINE
  5
75
100
AcDbEntity
  8
USP-GEO
100
AcDbPolyline
 90
        2
 70
   128
 43
0.0
 10
2.000784783294269
 20
4.457039120926905
 10
2.000784783294269
 20
2.376566696907913
  0
LWPOLYLINE
  5
76
100
AcDbEntity
  8
USP-GEO
100
AcDbPolyline
 90
        2
 70
   128
 43
0.0
 10
2.063284893666601
 20
2.376566696907913
 10
2.063284893666601
 20
4.457039120926905
  0
LWPOLYLINE
  5
77
100
AcDbEntity
  8
USP-GEO
100
AcDbPolyline
 90
        8
 70
   129
 43
0.0
 10
2.000784783294269
 20
2.048441117453172
 10
2.000784783294269
 20
2.204691393384001
 10
2.000784783294269
 20
2.376566696907913
 10
2.063284893666601
 20
2.376566696907913
 10
2.063284893666601
 20
2.204691393384001
 10
2.063284893666601
 20
2.048441117453172
 10
2.063284893666601
 20
1.907815869115426
 10
2.000784783294269
 20
1.907815869115426
  0
LWPOLYLINE
  5
78
100
AcDbEntity
  8
USP-GEO
100
AcDbPolyline
 90
       12
 70
   128
 43
0.0
 10
1.578909038281029
 20
5.927354217436011
 10
1.578909038281029
 20
5.880479134656761
 10
1.578909038281029
 20
5.833604051877513
 10
1.532033955501781
 20
5.802353996691348
 10
1.500783900315614
 20
5.786728969098264
 10
1.453908817536365
 20
5.802353996691348
 10
1.4226587623502
 20
5.833604051877513
 10
1.407033734757117
 20
5.880479134656761
 10
1.4226587623502
 20
5.927354217436011
 10
1.453908817536365
 20
5.958604272622176
 10
1.500783900315614
 20
5.974229300215259
 10
1.532033955501781
 20
5.958604272622176
  0
LWPOLYLINE
  5
79
100
AcDbEntity
  8
USP-GEO
100
AcDbPolyline
 90
        2
 70
   129
 43
0.0
 10
1.578909038281029
 20
5.927354217436011
 10
1.532033955501781
 20
5.958604272622176
  0
LWPOLYLINE
  5
7A
100
AcDbEntity
  8
USP-GEO
100
AcDbPolyline
 90
        2
 70
   129
 43
0.0
 10
1.578909038281029
 20
6.80313701402831
 10
1.532033955501781
 20
6.834387069214475
  0
LWPOLYLINE
  5
7B
100
AcDbEntity
  8
USP-GEO
100
AcDbPolyline
 90
       12
 70
   129
 43
0.0
 10
1.4226587623502
 20
4.957821255285214
 10
1.407033734757117
 20
5.004696338064462
 10
1.4226587623502
 20
5.051571420843712
 10
1.453908817536365
 20
5.082821476029877
 10
1.500783900315614
 20
5.098446503622961
 10
1.532033955501781
 20
5.082821476029877
 10
1.578909038281029
 20
5.051571420843712
 10
1.578909038281029
 20
5.004696338064462
 10
1.578909038281029
 20
4.957821255285214
 10
1.532033955501781
 20
4.925789948719394
 10
1.500783900315614
 20
4.910164921126311
 10
1.453908817536365
 20
4.925789948719394
  0
LWPOLYLINE
  5
7C
100
AcDbEntity
  8
USP-GEO
100
AcDbPolyline
 90
       12
 70
   128
 43
0.0
 10
1.578909038281029
 20
6.80313701402831
 10
1.578909038281029
 20
6.75626193124906
 10
1.578909038281029
 20
6.709386848469812
 10
1.532033955501781
 20
6.678136793283646
 10
1.500783900315614
 20
6.662511765690562
 10
1.453908817536365
 20
6.678136793283646
 10
1.4226587623502
 20
6.709386848469812
 10
1.407033734757117
 20
6.75626193124906
 10
1.4226587623502
 20
6.80313701402831
 10
1.453908817536365
 20
6.834387069214475
 10
1.500783900315614
 20
6.850012096807558
 10
1.532033955501781
 20
6.834387069214475
  0
LWPOLYLINE
  5
7D
100
AcDbEntity
  8
USP-GEO
100
AcDbPolyline
 90
        2
 70
   128
 43
0.0
 10
1.532033955501781
 20
5.082821476029877
 10
1.578909038281029
 20
5.051571420843712
  0
LWPOLYLINE
  5
7E
100
AcDbEntity
  8
USP-GEO
100
AcDbPolyline
 90
        2
 70
   129
 43
0.0
 10
0.875001545212644
 20
5.676572524567029
 10
0.8437514900264773
 20
5.707822579753194
  0
LWPOLYLINE
  5
7F
100
AcDbEntity
  8
USP-GEO
100
AcDbPolyline
 90
        2
 70
   129
 43
0.0
 10
0.875001545212644
 20
6.552355321159327
 10
0.8437514900264773
 20
6.583605376345493
  0
LWPOLYLINE
  5
80
100
AcDbEntity
  8
USP-GEO
100
AcDbPolyline
 90
        9
 70
   128
 43
0.0
 10
2.063284893666601
 20
6.990637345145303
 10
2.063284893666601
 20
6.959387289959138
 10
2.063284893666601
 20
6.928137234772973
 10
2.063284893666601
 20
6.896887179586807
 10
2.000784783294269
 20
6.896887179586807
 10
2.000784783294269
 20
6.411730072821582
 10
2.000784783294269
 20
6.380480017635415
 10
2.000784783294269
 20
6.364854990042333
 10
2.000784783294269
 20
6.333604934856166
  0
LWPOLYLINE
  5
81
100
AcDbEntity
  8
USP-GEO
100
AcDbPolyline
 90
        3
 70
   128
 43
0.0
 10
2.000784783294269
 20
6.411730072821582
 10
2.063284893666601
 20
6.411730072821582
 10
2.063284893666601
 20
6.896887179586807
  0
LWPOLYLINE
  5
82
100
AcDbEntity
  8
USP-GEO
100
AcDbPolyline
 90
        4
 70
   129
 43
0.0
 10
2.063284893666601
 20
5.504697221043118
 10
2.063284893666601
 20
5.989854327808343
 10
2.000784783294269
 20
5.989854327808343
 10
2.000784783294269
 20
5.504697221043118
  0
LWPOLYLINE
  5
83
100
AcDbEntity
  8
USP-GEO
100
AcDbPolyline
 90
        2
 70
   128
 43
0.0
 10
2.000784783294269
 20
5.426572083077703
 10
2.000784783294269
 20
5.114071531216044
  0
LWPOLYLINE
  5
84
100
AcDbEntity
  8
USP-GEO
100
AcDbPolyline
 90
        2
 70
   128
 43
0.0
 10
2.063284893666601
 20
5.114071531216044
 10
2.063284893666601
 20
5.426572083077703
  0
LWPOLYLINE
  5
85
100
AcDbEntity
  8
USP-GEO
100
AcDbPolyline
 90
        8
 70
   128
 43
0.0
 10
2.063284893666601
 20
5.504697221043118
 10
2.063284893666601
 20
5.473447165856951
 10
2.063284893666601
 20
5.457822138263868
 10
2.063284893666601
 20
5.426572083077703
 10
2.000784783294269
 20
5.426572083077703
 10
2.000784783294269
 20
5.457822138263868
 10
2.000784783294269
 20
5.473447165856951
 10
2.000784783294269
 20
5.504697221043118
  0
LWPOLYLINE
  5
86
100
AcDbEntity
  8
USP-GEO
100
AcDbPolyline
 90
        4
 70
   128
 43
0.0
 10
2.000784783294269
 20
5.020321365657546
 10
2.000784783294269
 20
4.53516425889232
 10
2.063284893666601
 20
4.53516425889232
 10
2.063284893666601
 20
5.020321365657546
  0
LWPOLYLINE
  5
87
100
AcDbEntity
  8
USP-GEO
100
AcDbPolyline
 90
        8
 70
   129
 43
0.0
 10
2.000784783294269
 20
5.114071531216044
 10
2.063284893666601
 20
5.114071531216044
 10
2.063284893666601
 20
5.082821476029877
 10
2.063284893666601
 20
5.051571420843712
 10
2.063284893666601
 20
5.020321365657546
 10
2.000784783294269
 20
5.020321365657546
 10
2.000784783294269
 20
5.051571420843712
 10
2.000784783294269
 20
5.082821476029877
  0
LWPOLYLINE
  5
88
100
AcDbEntity
  8
USP-GEO
100
AcDbPolyline
 90
        4
 70
   128
 43
0.0
 10
2.000784783294269
 20
6.08360449336684
 10
2.000784783294269
 20
6.052354438180675
 10
2.000784783294269
 20
6.021104382994508
 10
2.000784783294269
 20
5.989854327808343
  0
LWPOLYLINE
  5
89
100
AcDbEntity
  8
USP-GEO
100
AcDbPolyline
 90
        4
 70
   128
 43
0.0
 10
2.063284893666601
 20
6.08360449336684
 10
2.063284893666601
 20
6.052354438180675
 10
2.063284893666601
 20
6.021104382994508
 10
2.063284893666601
 20
5.989854327808343
  0
LWPOLYLINE
  5
8A
100
AcDbEntity
  8
USP-GEO
100
AcDbPolyline
 90
        4
 70
   129
 43
0.0
 10
2.063284893666601
 20
6.333604934856166
 10
2.000784783294269
 20
6.333604934856166
 10
2.000784783294269
 20
6.08360449336684
 10
2.063284893666601
 20
6.08360449336684
  0
LWPOLYLINE
  5
8B
100
AcDbEntity
  8
USP-GEO
100
AcDbPolyline
 90
        4
 70
   128
 43
0.0
 10
2.063284893666601
 20
6.333604934856166
 10
2.063284893666601
 20
6.364854990042333
 10
2.063284893666601
 20
6.380480017635415
 10
2.063284893666601
 20
6.411730072821582
  0
LWPOLYLINE
  5
8C
100
AcDbEntity
  8
USP-GEO
100
AcDbPolyline
 90
        4
 70
   128
 43
0.0
 10
2.000784783294269
 20
6.990637345145303
 10
2.000784783294269
 20
6.959387289959138
 10
2.000784783294269
 20
6.928137234772973
 10
2.000784783294269
 20
6.896887179586807
  0
LWPOLYLINE
  5
8D
100
AcDbEntity
  8
USP-GEO
100
AcDbPolyline
 90
        4
 70
   129
 43
0.0
 10
2.063284893666601
 20
6.990637345145303
 10
2.063284893666601
 20
7.146887621076134
 10
2.000784783294269
 20
7.146887621076134
 10
2.000784783294269
 20
6.990637345145303
  0
LWPOLYLINE
  5
8E
100
AcDbEntity
  8
USP-GEO
100
AcDbPolyline
 90
       14
 70
   128
 43
0.0
 10
4.627351921691509
 20
0.0
 10
5.768760187366218
 20
0.0
 10
5.768760187366218
 20
0.1250002207446634
 10
5.768760187366218
 20
0.1562502759308284
 10
5.768760187366218
 20
0.1875003311169951
 10
5.768760187366218
 20
0.2031253587100767
 10
5.768760187366218
 20
1.907815869115426
 10
5.768760187366218
 20
2.048441117453172
 10
5.768760187366218
 20
2.204691393384001
 10
5.768760187366218
 20
2.376566696907913
 10
5.768760187366218
 20
4.457039120926905
 10
5.768760187366218
 20
4.488289176113072
 10
5.768760187366218
 20
4.503914203706155
 10
5.768760187366218
 20
4.53516425889232
  0
LWPOLYLINE
  5
8F
100
AcDbEntity
  8
USP-GEO
100
AcDbPolyline
 90
        4
 70
   129
 43
0.0
 10
5.768760187366218
 20
1.907815869115426
 10
5.690635049400803
 20
1.907815869115426
 10
5.690635049400803
 20
0.2031253587100767
 10
5.768760187366218
 20
0.2031253587100767
  0
LWPOLYLINE
  5
90
100
AcDbEntity
  8
USP-GEO
100
AcDbPolyline
 90
       10
 70
   128
 43
0.0
 10
5.690635049400803
 20
1.907815869115426
 10
5.690635049400803
 20
0.2031253587100767
 10
5.690635049400803
 20
0.1875003311169951
 10
5.690635049400803
 20
0.1562502759308284
 10
5.690635049400803
 20
0.1250002207446634
 10
5.690635049400803
 20
0.0781251379654133
 10
5.690635049400803
 20
0.1250002207446634
 10
5.690635049400803
 20
0.1562502759308284
 10
5.690635049400803
 20
0.1875003311169951
 10
5.690635049400803
 20
0.2031253587100767
  0
LWPOLYLINE
  5
91
100
AcDbEntity
  8
USP-GEO
100
AcDbPolyline
 90
        3
 70
   128
 43
0.0
 10
4.471101645760679
 20
0.0
 10
4.471101645760679
 20
0.0781251379654133
 10
4.533601756133013
 20
0.0781251379654133
  0
LWPOLYLINE
  5
92
100
AcDbEntity
  8
USP-GEO
100
AcDbPolyline
 90
        5
 70
   128
 43
0.0
 10
4.471101645760679
 20
0.0781251379654133
 10
4.424226562981431
 20
0.0781251379654133
 10
4.392976507795268
 20
0.0781251379654133
 10
4.377351480202182
 20
0.0781251379654133
 10
4.377351480202182
 20
0.0
  0
LWPOLYLINE
  5
93
100
AcDbEntity
  8
USP-GEO
100
AcDbPolyline
 90
        5
 70
   128
 43
0.0
 10
5.690635049400803
 20
0.1250002207446634
 10
5.768760187366218
 20
0.1250002207446634
 10
5.768760187366218
 20
0.1562502759308284
 10
5.768760187366218
 20
0.1875003311169951
 10
5.768760187366218
 20
0.2031253587100767
  0
LWPOLYLINE
  5
94
100
AcDbEntity
  8
USP-GEO
100
AcDbPolyline
 90
        5
 70
   128
 43
0.0
 10
5.768760187366218
 20
4.457039120926905
 10
5.768760187366218
 20
4.488289176113072
 10
5.768760187366218
 20
4.503914203706155
 10
5.768760187366218
 20
4.53516425889232
 10
5.690635049400803
 20
4.53516425889232
  0
LWPOLYLINE
  5
95
100
AcDbEntity
  8
USP-GEO
100
AcDbPolyline
 90
        6
 70
   128
 43
0.0
 10
5.690635049400803
 20
4.457039120926905
 10
5.768760187366218
 20
4.457039120926905
 10
5.768760187366218
 20
2.376566696907913
 10
5.768760187366218
 20
2.204691393384001
 10
5.768760187366218
 20
2.048441117453172
 10
5.768760187366218
 20
1.907815869115426
  0
LWPOLYLINE
  5
96
100
AcDbEntity
  8
USP-GEO
100
AcDbPolyline
 90
        2
 70
   128
 43
0.0
 10
5.768760187366218
 20
2.376566696907913
 10
5.690635049400803
 20
2.376566696907913
  0
LWPOLYLINE
  5
97
100
AcDbEntity
  8
USP-GEO
100
AcDbPolyline
 90
        2
 70
   129
 43
0.0
 10
6.31563615312412
 20
2.454691834873328
 10
6.268761070344872
 20
2.471098113846064
  0
LWPOLYLINE
  5
98
100
AcDbEntity
  8
USP-GEO
100
AcDbPolyline
 90
       12
 70
   128
 43
0.0
 10
6.31563615312412
 20
2.454691834873328
 10
6.346886208310287
 20
2.423441779687163
 10
6.362511235903369
 20
2.376566696907913
 10
6.346886208310287
 20
2.329691614128664
 10
6.31563615312412
 20
2.298441558942499
 10
6.268761070344872
 20
2.282816531349416
 10
6.221885987565624
 20
2.298441558942499
 10
6.190635932379457
 20
2.329691614128664
 10
6.175010904786375
 20
2.376566696907913
 10
6.190635932379457
 20
2.423441779687163
 10
6.221885987565624
 20
2.454691834873328
 10
6.268761070344872
 20
2.471098113846064
  0
LWPOLYLINE
  5
99
100
AcDbEntity
  8
USP-GEO
100
AcDbPolyline
 90
       12
 70
   128
 43
0.0
 10
6.31563615312412
 20
1.578909038281029
 10
6.346886208310287
 20
1.547658983094864
 10
6.362511235903369
 20
1.500783900315616
 10
6.346886208310287
 20
1.453908817536365
 10
6.31563615312412
 20
1.4226587623502
 10
6.268761070344872
 20
1.407033734757117
 10
6.221885987565624
 20
1.4226587623502
 10
6.190635932379457
 20
1.453908817536365
 10
6.175010904786375
 20
1.500783900315616
 10
6.190635932379457
 20
1.547658983094864
 10
6.221885987565624
 20
1.578909038281029
 10
6.268761070344872
 20
1.594534065874112
  0
LWPOLYLINE
  5
9A
100
AcDbEntity
  8
USP-GEO
100
AcDbPolyline
 90
        2
 70
   129
 43
0.0
 10
6.31563615312412
 20
1.578909038281029
 10
6.268761070344872
 20
1.594534065874112
  0
LWPOLYLINE
  5
9B
100
AcDbEntity
  8
USP-GEO
100
AcDbPolyline
 90
        2
 70
   129
 43
0.0
 10
6.31563615312412
 20
3.331255882845281
 10
6.268761070344872
 20
3.346880910438363
  0
LWPOLYLINE
  5
9C
100
AcDbEntity
  8
USP-GEO
100
AcDbPolyline
 90
       12
 70
   128
 43
0.0
 10
6.31563615312412
 20
3.331255882845281
 10
6.346886208310287
 20
3.300005827659115
 10
6.362511235903369
 20
3.252349493500211
 10
6.346886208310287
 20
3.205474410720963
 10
6.31563615312412
 20
3.174224355534796
 10
6.268761070344872
 20
3.158599327941715
 10
6.221885987565624
 20
3.174224355534796
 10
6.190635932379457
 20
3.205474410720963
 10
6.175010904786375
 20
3.252349493500211
 10
6.190635932379457
 20
3.300005827659115
 10
6.221885987565624
 20
3.331255882845281
 10
6.268761070344872
 20
3.346880910438363
  0
LWPOLYLINE
  5
9D
100
AcDbEntity
  8
USP-GEO
100
AcDbPolyline
 90
        2
 70
   129
 43
0.0
 10
6.31563615312412
 20
4.207038679437578
 10
6.268761070344872
 20
4.222663707030662
  0
LWPOLYLINE
  5
9E
100
AcDbEntity
  8
USP-GEO
100
AcDbPolyline
 90
       12
 70
   128
 43
0.0
 10
6.31563615312412
 20
4.207038679437578
 10
6.346886208310287
 20
4.175788624251413
 10
6.362511235903369
 20
4.128913541472165
 10
6.346886208310287
 20
4.081257207313262
 10
6.31563615312412
 20
4.050007152127095
 10
6.268761070344872
 20
4.034382124534012
 10
6.221885987565624
 20
4.050007152127095
 10
6.190635932379457
 20
4.081257207313262
 10
6.175010904786375
 20
4.128913541472165
 10
6.190635932379457
 20
4.175788624251413
 10
6.221885987565624
 20
4.207038679437578
 10
6.268761070344872
 20
4.222663707030662
  0
LWPOLYLINE
  5
9F
100
AcDbEntity
  8
USP-GEO
100
AcDbPolyline
 90
        2
 70
   128
 43
0.0
 10
5.768760187366218
 20
5.020321365657546
 10
5.690635049400803
 20
5.020321365657546
  0
LWPOLYLINE
  5
A0
100
AcDbEntity
  8
USP-GEO
100
AcDbPolyline
 90
        5
 70
   128
 43
0.0
 10
5.768760187366218
 20
6.990637345145303
 10
5.690635049400803
 20
6.990637345145303
 10
5.690635049400803
 20
6.959387289959138
 10
5.690635049400803
 20
6.928137234772973
 10
5.690635049400803
 20
6.896887179586807
  0
LWPOLYLINE
  5
A1
100
AcDbEntity
  8
USP-GEO
100
AcDbPolyline
 90
        3
 70
   128
 43
0.0
 10
5.768760187366218
 20
6.896887179586807
 10
5.690635049400803
 20
6.896887179586807
 10
5.690635049400803
 20
6.411730072821582
  0
LWPOLYLINE
  5
A2
100
AcDbEntity
  8
USP-GEO
100
AcDbPolyline
 90
        5
 70
   128
 43
0.0
 10
5.768760187366218
 20
6.411730072821582
 10
5.690635049400803
 20
6.411730072821582
 10
5.690635049400803
 20
6.380480017635415
 10
5.690635049400803
 20
6.364854990042333
 10
5.690635049400803
 20
6.333604934856166
  0
LWPOLYLINE
  5
A3
100
AcDbEntity
  8
USP-GEO
100
AcDbPolyline
 90
        3
 70
   128
 43
0.0
 10
5.768760187366218
 20
6.333604934856166
 10
5.690635049400803
 20
6.333604934856166
 10
5.690635049400803
 20
6.08360449336684
  0
LWPOLYLINE
  5
A4
100
AcDbEntity
  8
USP-GEO
100
AcDbPolyline
 90
       22
 70
   128
 43
0.0
 10
5.768760187366218
 20
5.504697221043118
 10
5.690635049400803
 20
5.504697221043118
 10
5.690635049400803
 20
5.473447165856951
 10
5.690635049400803
 20
5.457822138263868
 10
5.690635049400803
 20
5.473447165856951
 10
5.690635049400803
 20
5.504697221043118
 10
5.690635049400803
 20
5.989854327808343
 10
5.690635049400803
 20
6.021104382994508
 10
5.690635049400803
 20
6.052354438180675
 10
5.690635049400803
 20
6.08360449336684
 10
5.690635049400803
 20
6.333604934856166
 10
5.690635049400803
 20
6.364854990042333
 10
5.690635049400803
 20
6.380480017635415
 10
5.690635049400803
 20
6.411730072821582
 10
5.690635049400803
 20
6.896887179586807
 10
5.690635049400803
 20
6.928137234772973
 10
5.690635049400803
 20
6.959387289959138
 10
5.690635049400803
 20
6.990637345145303
 10
5.690635049400803
 20
7.146887621076134
 10
5.768760187366218
 20
7.146887621076134
 10
5.690635049400803
 20
7.146887621076134
 10
5.690635049400803
 20
6.990637345145303
  0
LWPOLYLINE
  5
A5
100
AcDbEntity
  8
USP-GEO
100
AcDbPolyline
 90
        2
 70
   128
 43
0.0
 10
5.690635049400803
 20
5.989854327808343
 10
5.690635049400803
 20
5.504697221043118
  0
LWPOLYLINE
  5
A6
100
AcDbEntity
  8
USP-GEO
100
AcDbPolyline
 90
        2
 70
   128
 43
0.0
 10
5.690635049400803
 20
5.426572083077703
 10
5.690635049400803
 20
5.114071531216044
  0
LWPOLYLINE
  5
A7
100
AcDbEntity
  8
USP-GEO
100
AcDbPolyline
 90
        2
 70
   128
 43
0.0
 10
5.768760187366218
 20
5.114071531216044
 10
5.768760187366218
 20
5.426572083077703
  0
LWPOLYLINE
  5
A8
100
AcDbEntity
  8
USP-GEO
100
AcDbPolyline
 90
        2
 70
   129
 43
0.0
 10
5.768760187366218
 20
5.020321365657546
 10
5.768760187366218
 20
4.53516425889232
  0
LWPOLYLINE
  5
A9
100
AcDbEntity
  8
USP-GEO
100
AcDbPolyline
 90
       12
 70
   128
 43
0.0
 10
6.31563615312412
 20
5.082821476029877
 10
6.346886208310287
 20
5.051571420843712
 10
6.362511235903369
 20
5.004696338064462
 10
6.346886208310287
 20
4.957821255285214
 10
6.31563615312412
 20
4.925789948719394
 10
6.268761070344872
 20
4.910164921126311
 10
6.221885987565624
 20
4.925789948719394
 10
6.190635932379457
 20
4.957821255285214
 10
6.175010904786375
 20
5.004696338064462
 10
6.190635932379457
 20
5.051571420843712
 10
6.221885987565624
 20
5.082821476029877
 10
6.268761070344872
 20
5.098446503622961
  0
LWPOLYLINE
  5
AA
100
AcDbEntity
  8
USP-GEO
100
AcDbPolyline
 90
        2
 70
   129
 43
0.0
 10
6.31563615312412
 20
5.082821476029877
 10
6.268761070344872
 20
5.098446503622961
  0
LWPOLYLINE
  5
AB
100
AcDbEntity
  8
USP-GEO
100
AcDbPolyline
 90
       12
 70
   129
 43
0.0
 10
6.175010904786375
 20
5.880479134656761
 10
6.190635932379457
 20
5.927354217436011
 10
6.221885987565624
 20
5.958604272622176
 10
6.268761070344872
 20
5.974229300215259
 10
6.31563615312412
 20
5.958604272622176
 10
6.346886208310287
 20
5.927354217436011
 10
6.362511235903369
 20
5.880479134656761
 10
6.346886208310287
 20
5.833604051877513
 10
6.31563615312412
 20
5.802353996691348
 10
6.268761070344872
 20
5.786728969098264
 10
6.221885987565624
 20
5.802353996691348
 10
6.190635932379457
 20
5.833604051877513
  0
LWPOLYLINE
  5
AC
100
AcDbEntity
  8
USP-GEO
100
AcDbPolyline
 90
        2
 70
   128
 43
0.0
 10
6.268761070344872
 20
5.974229300215259
 10
6.31563615312412
 20
5.958604272622176
  0
LWPOLYLINE
  5
AD
100
AcDbEntity
  8
USP-GEO
100
AcDbPolyline
 90
       12
 70
   129
 43
0.0
 10
6.268761070344872
 20
6.850012096807558
 10
6.31563615312412
 20
6.834387069214475
 10
6.346886208310287
 20
6.80313701402831
 10
6.362511235903369
 20
6.75626193124906
 10
6.346886208310287
 20
6.709386848469812
 10
6.31563615312412
 20
6.678136793283646
 10
6.268761070344872
 20
6.662511765690562
 10
6.221885987565624
 20
6.678136793283646
 10
6.190635932379457
 20
6.709386848469812
 10
6.175010904786375
 20
6.75626193124906
 10
6.190635932379457
 20
6.80313701402831
 10
6.221885987565624
 20
6.834387069214475
  0
LWPOLYLINE
  5
AE
100
AcDbEntity
  8
USP-GEO
100
AcDbPolyline
 90
        2
 70
   128
 43
0.0
 10
6.268761070344872
 20
6.850012096807558
 10
6.31563615312412
 20
6.834387069214475
  0
LWPOLYLINE
  5
AF
100
AcDbEntity
  8
USP-GEO
100
AcDbPolyline
 90
        4
 70
   128
 43
0.0
 10
7.300794142867999
 20
4.53516425889232
 10
7.285169115274918
 20
4.503914203706155
 10
7.269544087681836
 20
4.488289176113072
 10
7.269544087681836
 20
4.457039120926905
  0
LWPOLYLINE
  5
B0
100
AcDbEntity
  8
USP-GEO
100
AcDbPolyline
 90
        4
 70
   128
 43
0.0
 10
7.269544087681836
 20
2.376566696907913
 10
7.253919060088751
 20
2.204691393384001
 10
7.191418949716421
 20
2.048441117453172
 10
7.097668784157921
 20
1.907815869115426
  0
LWPOLYLINE
  5
B1
100
AcDbEntity
  8
USP-GEO
100
AcDbPolyline
 90
       12
 70
   128
 43
0.0
 10
7.019543646192506
 20
3.0804741899763
 10
7.050793701378673
 20
3.049224134790133
 10
7.066418728971758
 20
3.002349052010885
 10
7.050793701378673
 20
2.955473969231636
 10
7.019543646192506
 20
2.924223914045469
 10
6.972668563413257
 20
2.908598886452388
 10
6.925793480634009
 20
2.924223914045469
 10
6.894543425447842
 20
2.955473969231636
 10
6.878918397854761
 20
3.002349052010885
 10
6.894543425447842
 20
3.049224134790133
 10
6.925793480634009
 20
3.0804741899763
 10
6.972668563413257
 20
3.096099217569383
  0
LWPOLYLINE
  5
B2
100
AcDbEntity
  8
USP-GEO
100
AcDbPolyline
 90
        2
 70
   129
 43
0.0
 10
7.019543646192506
 20
3.0804741899763
 10
6.972668563413257
 20
3.096099217569383
  0
LWPOLYLINE
  5
B3
100
AcDbEntity
  8
USP-GEO
100
AcDbPolyline
 90
        2
 70
   129
 43
0.0
 10
7.019543646192506
 20
3.956256986568599
 10
6.972668563413257
 20
3.97188201416168
  0
LWPOLYLINE
  5
B4
100
AcDbEntity
  8
USP-GEO
100
AcDbPolyline
 90
       12
 70
   128
 43
0.0
 10
7.019543646192506
 20
3.956256986568599
 10
7.050793701378673
 20
3.925006931382432
 10
7.066418728971758
 20
3.878131848603183
 10
7.050793701378673
 20
3.831256765823935
 10
7.019543646192506
 20
3.800006710637768
 10
6.972668563413257
 20
3.784381683044685
 10
6.925793480634009
 20
3.800006710637768
 10
6.894543425447842
 20
3.831256765823935
 10
6.878918397854761
 20
3.878131848603183
 10
6.894543425447842
 20
3.925006931382432
 10
6.925793480634009
 20
3.956256986568599
 10
6.972668563413257
 20
3.97188201416168
  0
LWPOLYLINE
  5
B5
100
AcDbEntity
  8
USP-GEO
100
AcDbPolyline
 90
        2
 70
   129
 43
0.0
 10
7.269544087681836
 20
4.457039120926905
 10
7.269544087681836
 20
2.376566696907913
  0
LWPOLYLINE
  5
B6
100
AcDbEntity
  8
USP-GEO
100
AcDbPolyline
 90
       12
 70
   129
 43
0.0
 10
6.894543425447842
 20
6.552355321159327
 10
6.925793480634009
 20
6.583605376345493
 10
6.972668563413257
 20
6.599230403938577
 10
7.019543646192506
 20
6.583605376345493
 10
7.050793701378673
 20
6.552355321159327
 10
7.066418728971758
 20
6.505480238380079
 10
7.050793701378673
 20
6.45860515560083
 10
7.019543646192506
 20
6.427355100414665
 10
6.972668563413257
 20
6.411730072821582
 10
6.925793480634009
 20
6.427355100414665
 10
6.894543425447842
 20
6.45860515560083
 10
6.878918397854761
 20
6.505480238380079
  0
LWPOLYLINE
  5
B7
100
AcDbEntity
  8
USP-GEO
100
AcDbPolyline
 90
       12
 70
   128
 43
0.0
 10
7.019543646192506
 20
4.832039783160897
 10
7.050793701378673
 20
4.800789727974731
 10
7.066418728971758
 20
4.753914645195482
 10
7.050793701378673
 20
4.707039562416232
 10
7.019543646192506
 20
4.675789507230067
 10
6.972668563413257
 20
4.660164479636984
 10
6.925793480634009
 20
4.675789507230067
 10
6.894543425447842
 20
4.707039562416232
 10
6.878918397854761
 20
4.753914645195482
 10
6.894543425447842
 20
4.800789727974731
 10
6.925793480634009
 20
4.832039783160897
 10
6.972668563413257
 20
4.847664810753979
  0
LWPOLYLINE
  5
B8
100
AcDbEntity
  8
USP-GEO
100
AcDbPolyline
 90
        2
 70
   129
 43
0.0
 10
7.019543646192506
 20
4.832039783160897
 10
6.972668563413257
 20
4.847664810753979
  0
LWPOLYLINE
  5
B9
100
AcDbEntity
  8
USP-GEO
100
AcDbPolyline
 90
       12
 70
   129
 43
0.0
 10
6.878918397854761
 20
5.629697441787781
 10
6.894543425447842
 20
5.676572524567029
 10
6.925793480634009
 20
5.707822579753194
 10
6.972668563413257
 20
5.723447607346278
 10
7.019543646192506
 20
5.707822579753194
 10
7.050793701378673
 20
5.676572524567029
 10
7.066418728971758
 20
5.629697441787781
 10
7.050793701378673
 20
5.582822359008531
 10
7.019543646192506
 20
5.551572303822366
 10
6.972668563413257
 20
5.535947276229283
 10
6.925793480634009
 20
5.551572303822366
 10
6.894543425447842
 20
5.582822359008531
  0
LWPOLYLINE
  5
BA
100
AcDbEntity
  8
USP-GEO
100
AcDbPolyline
 90
        2
 70
   128
 43
0.0
 10
6.972668563413257
 20
5.723447607346278
 10
7.019543646192506
 20
5.707822579753194
  0
LWPOLYLINE
  5
BB
100
AcDbEntity
  8
USP-GEO
100
AcDbPolyline
 90
        2
 70
   128
 43
0.0
 10
6.972668563413257
 20
6.599230403938577
 10
7.019543646192506
 20
6.583605376345493
  0
LWPOLYLINE
  5
BC
100
AcDbEntity
  8
USP-GEO
100
AcDbPolyline
 90
        2
 70
   128
 43
0.0
 10
7.300794142867999
 20
6.411730072821582
 10
7.738294915474323
 20
6.896887179586807
  0
LWPOLYLINE
  5
BD
100
AcDbEntity
  8
USP-GEO
100
AcDbPolyline
 90
        2
 70
   129
 43
0.0
 10
7.738294915474323
 20
5.020321365657546
 10
7.300794142867999
 20
4.53516425889232
  0
LWPOLYLINE
  5
BE
100
AcDbEntity
  8
USP-GEO
100
AcDbPolyline
 90
        2
 70
   128
 43
0.0
 10
7.738294915474323
 20
5.504697221043118
 10
7.300794142867999
 20
5.989854327808343
  0
LWPOLYLINE
  5
BF
100
AcDbEntity
  8
USP-GEO
100
AcDbPolyline
 90
        2
 70
   129
 43
0.0
 10
7.519544529171163
 20
5.223446724367624
 10
7.472669446391911
 20
5.223446724367624
  0
LWPOLYLINE
  5
C0
100
AcDbEntity
  8
USP-GEO
100
AcDbPolyline
 90
       12
 70
   128
 43
0.0
 10
7.472669446391911
 20
5.223446724367624
 10
7.425794363612663
 20
5.223446724367624
 10
7.3945443084265
 20
5.192196669181457
 10
7.378919280833414
 20
5.145321586402209
 10
7.3945443084265
 20
5.098446503622961
 10
7.425794363612663
 20
5.067196448436794
 10
7.472669446391911
 20
5.051571420843712
 10
7.519544529171163
 20
5.067196448436794
 10
7.550794584357326
 20
5.098446503622961
 10
7.566419611950411
 20
5.145321586402209
 10
7.550794584357326
 20
5.192196669181457
 10
7.519544529171163
 20
5.223446724367624
  0
LWPOLYLINE
  5
C1
100
AcDbEntity
  8
USP-GEO
100
AcDbPolyline
 90
        2
 70
   128
 43
0.0
 10
7.269544087681836
 20
6.08360449336684
 10
7.269544087681836
 20
6.333604934856166
  0
LWPOLYLINE
  5
C2
100
AcDbEntity
  8
USP-GEO
100
AcDbPolyline
 90
        4
 70
   128
 43
0.0
 10
7.76954497066049
 20
5.114071531216044
 10
7.76954497066049
 20
5.082821476029877
 10
7.753919943067405
 20
5.051571420843712
 10
7.738294915474323
 20
5.020321365657546
  0
LWPOLYLINE
  5
C3
100
AcDbEntity
  8
USP-GEO
100
AcDbPolyline
 90
       12
 70
   129
 43
0.0
 10
7.3945443084265
 20
6.943762262366055
 10
7.378919280833414
 20
6.896887179586807
 10
7.3945443084265
 20
6.850012096807558
 10
7.425794363612663
 20
6.818762041621392
 10
7.472669446391911
 20
6.80313701402831
 10
7.519544529171163
 20
6.818762041621392
 10
7.550794584357326
 20
6.850012096807558
 10
7.566419611950411
 20
6.896887179586807
 10
7.550794584357326
 20
6.943762262366055
 10
7.519544529171163
 20
6.975012317552222
 10
7.472669446391911
 20
6.975012317552222
 10
7.425794363612663
 20
6.975012317552222
  0
LWPOLYLINE
  5
C4
100
AcDbEntity
  8
USP-GEO
100
AcDbPolyline
 90
        2
 70
   128
 43
0.0
 10
7.472669446391911
 20
6.975012317552222
 10
7.519544529171163
 20
6.975012317552222
  0
ENDBLK
  5
C6
100
AcDbEntity
  8
0
100
AcDbBlockEnd
  0
BLOCK
  5
F9
100
AcDbEntity
  8
0
100
AcDbBlockBegin
  2
THD48_S
 70
     0
 10
0.0
 20
0.0
 30
0.0
  3
THD48_S
  1

  0
TEXT
  5
C9
100
AcDbEntity
  8
USP-TXT
100
AcDbText
 10
-0.8648466068151066
 20
-1.221194054679548
 30
-1.050183983838884
 40
0.296875
  1
THD48 - SIDE VIEW
 72
     1
 11
1.609111726518226
 21
-1.221194054679548
 31
-1.050183983838884
100
AcDbText
  0
LWPOLYLINE
  5
CA
100
AcDbEntity
  8
USP-GEO
100
AcDbPolyline
 90
        2
 70
   128
 43
0.0
 10
3.174224355534798
 20
0.2031253587100767
 10
1.751565593184596
 20
1.907815869115426
  0
LWPOLYLINE
  5
CB
100
AcDbEntity
  8
USP-GEO
100
AcDbPolyline
 90
       26
 70
   128
 43
0.0
 10
3.205474410720963
 20
0.1250002207446634
 10
3.205474410720963
 20
0.0
 10
0.2031253587100785
 20
0.0
 10
0.2031253587100785
 20
0.1250002207446634
 10
0.2031253587100785
 20
0.0
 10
3.205474410720963
 20
0.0
 10
3.205474410720963
 20
0.1250002207446634
 10
3.205474410720963
 20
0.1562502759308284
 10
3.189849383127882
 20
0.1875003311169951
 10
3.174224355534798
 20
0.2031253587100767
 10
1.751565593184596
 20
1.907815869115426
 10
1.657034176246445
 20
2.048441117453172
 10
1.594534065874113
 20
2.204691393384001
 10
1.57890903828103
 20
2.376566696907913
 10
1.57890903828103
 20
4.457039120926905
 10
1.57890903828103
 20
4.488289176113072
 10
1.563284010687947
 20
4.503914203706155
 10
1.547658983094864
 20
4.53516425889232
 10
1.110158210488542
 20
5.020321365657546
 10
1.094533182895459
 20
5.051571420843712
 10
1.078908155302376
 20
5.082821476029877
 10
1.078908155302376
 20
5.114071531216044
 10
1.078908155302376
 20
5.426572083077703
 10
1.078908155302376
 20
5.457822138263868
 10
1.094533182895459
 20
5.473447165856951
 10
1.078908155302376
 20
5.457822138263868
  0
LWPOLYLINE
  5
CC
100
AcDbEntity
  8
USP-GEO
100
AcDbPolyline
 90
        2
 70
   128
 43
0.0
 10
3.205474410720963
 20
0.0781251379654133
 10
0.2031253587100785
 20
0.0781251379654133
  0
LWPOLYLINE
  5
CD
100
AcDbEntity
  8
USP-GEO
100
AcDbPolyline
 90
       17
 70
   128
 43
0.0
 10
0.0781251379654142
 20
5.114071531216044
 10
0.0781251379654142
 20
5.082821476029877
 10
0.0781251379654142
 20
5.051571420843712
 10
0.0781251379654142
 20
5.020321365657546
 10
0.0781251379654142
 20
4.53516425889232
 10
0.0781251379654142
 20
4.503914203706155
 10
0.0781251379654142
 20
4.488289176113072
 10
0.0781251379654142
 20
4.457039120926905
 10
0.0781251379654142
 20
2.376566696907913
 10
0.0781251379654142
 20
2.204691393384001
 10
0.0781251379654142
 20
2.048441117453172
 10
0.0781251379654142
 20
1.907815869115426
 10
0.0781251379654142
 20
0.3281255794547402
 10
0.1718753035239127
 20
0.2031253587100767
 10
0.1875003311169951
 20
0.1875003311169951
 10
0.2031253587100785
 20
0.1562502759308284
 10
0.2031253587100785
 20
0.1250002207446634
  0
LWPOLYLINE
  5
CE
100
AcDbEntity
  8
USP-GEO
100
AcDbPolyline
 90
        3
 70
   128
 43
0.0
 10
0.0781251379654142
 20
0.3281255794547402
 10
0.0781251379654142
 20
1.907815869115426
 10
0.0
 20
1.907815869115426
  0
LWPOLYLINE
  5
CF
100
AcDbEntity
  8
USP-GEO
100
AcDbPolyline
 90
        2
 70
   129
 43
0.0
 10
0.0
 20
0.3281255794547402
 10
0.0
 20
1.907815869115426
  0
LWPOLYLINE
  5
D0
100
AcDbEntity
  8
USP-GEO
100
AcDbPolyline
 90
        2
 70
   129
 43
0.0
 10
0.0781251379654142
 20
0.3281255794547402
 10
0.0
 20
0.3281255794547402
  0
LWPOLYLINE
  5
D1
100
AcDbEntity
  8
USP-GEO
100
AcDbPolyline
 90
        2
 70
   128
 43
0.0
 10
0.0781251379654142
 20
0.3281255794547402
 10
0.1718753035239127
 20
0.2031253587100767
  0
LWPOLYLINE
  5
D2
100
AcDbEntity
  8
USP-GEO
100
AcDbPolyline
 90
        2
 70
   129
 43
0.0
 10
0.0781251379654142
 20
7.146887621076134
 10
1.078908155302376
 20
7.146887621076134
  0
LWPOLYLINE
  5
D3
100
AcDbEntity
  8
USP-GEO
100
AcDbPolyline
 90
       12
 70
   129
 43
0.0
 10
0.6882824654753037
 20
6.725011876062894
 10
0.6726574378822204
 20
6.771886958842143
 10
0.6882824654753037
 20
6.818762041621392
 10
0.7195325206614696
 20
6.850012096807558
 10
0.7664076034407179
 20
6.850012096807558
 10
0.8132826862199671
 20
6.850012096807558
 10
0.8445327414061329
 20
6.818762041621392
 10
0.8601577689992154
 20
6.771886958842143
 10
0.8445327414061329
 20
6.725011876062894
 10
0.8132826862199671
 20
6.693761820876728
 10
0.7664076034407179
 20
6.678136793283646
 10
0.7195325206614696
 20
6.693761820876728
  0
LWPOLYLINE
  5
D4
100
AcDbEntity
  8
USP-GEO
100
AcDbPolyline
 90
       12
 70
   129
 43
0.0
 10
0.6882824654753037
 20
1.469533845129449
 10
0.6726574378822204
 20
1.516408927908697
 10
0.6882824654753037
 20
1.563284010687947
 10
0.7195325206614696
 20
1.594534065874112
 10
0.7664076034407179
 20
1.594534065874112
 10
0.8132826862199671
 20
1.594534065874112
 10
0.8445327414061329
 20
1.563284010687947
 10
0.8601577689992154
 20
1.516408927908697
 10
0.8445327414061329
 20
1.469533845129449
 10
0.8132826862199671
 20
1.438283789943282
 10
0.7664076034407179
 20
1.4226587623502
 10
0.7195325206614696
 20
1.438283789943282
  0
LWPOLYLINE
  5
D5
100
AcDbEntity
  8
USP-GEO
100
AcDbPolyline
 90
       12
 70
   129
 43
0.0
 10
0.6882824654753037
 20
3.221099438314046
 10
0.6726574378822204
 20
3.267974521093295
 10
0.6882824654753037
 20
3.315630855252198
 10
0.7195325206614696
 20
3.346880910438363
 10
0.7664076034407179
 20
3.346880910438363
 10
0.8132826862199671
 20
3.346880910438363
 10
0.8445327414061329
 20
3.315630855252198
 10
0.8601577689992154
 20
3.267974521093295
 10
0.8445327414061329
 20
3.221099438314046
 10
0.8132826862199671
 20
3.18984938312788
 10
0.7664076034407179
 20
3.174224355534796
 10
0.7195325206614696
 20
3.18984938312788
  0
LWPOLYLINE
  5
D6
100
AcDbEntity
  8
USP-GEO
100
AcDbPolyline
 90
       12
 70
   129
 43
0.0
 10
0.6882824654753037
 20
5.067196448436794
 10
0.6726574378822204
 20
5.020321365657546
 10
0.6882824654753037
 20
4.973446282878297
 10
0.7195325206614696
 20
4.941414976312477
 10
0.7664076034407179
 20
4.925789948719394
 10
0.8132826862199671
 20
4.941414976312477
 10
0.8445327414061329
 20
4.973446282878297
 10
0.8601577689992154
 20
5.020321365657546
 10
0.8445327414061329
 20
5.067196448436794
 10
0.8132826862199671
 20
5.098446503622961
 10
0.7664076034407179
 20
5.098446503622961
 10
0.7195325206614696
 20
5.098446503622961
  0
LWPOLYLINE
  5
D7
100
AcDbEntity
  8
USP-GEO
100
AcDbPolyline
 90
        2
 70
   128
 43
0.0
 10
0.7664076034407179
 20
6.678136793283646
 10
0.7195325206614696
 20
6.693761820876728
  0
LWPOLYLINE
  5
D8
100
AcDbEntity
  8
USP-GEO
100
AcDbPolyline
 90
        2
 70
   128
 43
0.0
 10
0.7664076034407179
 20
1.4226587623502
 10
0.7195325206614696
 20
1.438283789943282
  0
LWPOLYLINE
  5
D9
100
AcDbEntity
  8
USP-GEO
100
AcDbPolyline
 90
        2
 70
   128
 43
0.0
 10
0.7664076034407179
 20
4.925789948719394
 10
0.7195325206614696
 20
4.941414976312477
  0
LWPOLYLINE
  5
DA
100
AcDbEntity
  8
USP-GEO
100
AcDbPolyline
 90
        2
 70
   128
 43
0.0
 10
0.7664076034407179
 20
3.174224355534796
 10
0.7195325206614696
 20
3.18984938312788
  0
LWPOLYLINE
  5
DB
100
AcDbEntity
  8
USP-GEO
100
AcDbPolyline
 90
       42
 70
   128
 43
0.0
 10
0.0
 20
1.907815869115426
 10
0.0
 20
2.048441117453172
 10
0.0
 20
2.204691393384001
 10
0.0
 20
2.376566696907913
 10
0.0
 20
4.457039120926905
 10
0.0
 20
4.488289176113072
 10
0.0
 20
4.503914203706155
 10
0.0
 20
4.53516425889232
 10
0.0
 20
5.020321365657546
 10
0.0
 20
5.051571420843712
 10
0.0
 20
5.082821476029877
 10
0.0
 20
5.114071531216044
 10
0.0
 20
5.426572083077703
 10
0.0
 20
5.457822138263868
 10
0.0
 20
5.473447165856951
 10
0.0
 20
5.504697221043118
 10
0.0
 20
5.989854327808343
 10
0.0
 20
6.021104382994508
 10
0.0
 20
6.052354438180675
 10
0.0
 20
6.08360449336684
 10
0.0
 20
6.333604934856166
 10
0.0
 20
6.364854990042333
 10
0.0
 20
6.380480017635415
 10
0.0
 20
6.411730072821582
 10
0.0
 20
6.896887179586807
 10
0.0
 20
6.928137234772973
 10
0.0
 20
6.959387289959138
 10
0.0
 20
6.990637345145303
 10
0.0
 20
7.146887621076134
 10
0.0781251379654142
 20
7.146887621076134
 10
0.0781251379654142
 20
6.990637345145303
 10
0.0781251379654142
 20
6.959387289959138
 10
0.0781251379654142
 20
6.928137234772973
 10
0.0781251379654142
 20
6.896887179586807
 10
0.0781251379654142
 20
6.411730072821582
 10
0.0781251379654142
 20
6.380480017635415
 10
0.0781251379654142
 20
6.364854990042333
 10
0.0781251379654142
 20
6.333604934856166
 10
0.0781251379654142
 20
6.08360449336684
 10
0.0781251379654142
 20
6.052354438180675
 10
0.0781251379654142
 20
6.021104382994508
 10
0.0781251379654142
 20
5.989854327808343
  0
LWPOLYLINE
  5
DC
100
AcDbEntity
  8
USP-GEO
100
AcDbPolyline
 90
        8
 70
   128
 43
0.0
 10
0.0781251379654142
 20
4.457039120926905
 10
0.0781251379654142
 20
4.488289176113072
 10
0.0781251379654142
 20
4.503914203706155
 10
0.0781251379654142
 20
4.53516425889232
 10
0.0
 20
4.53516425889232
 10
0.0
 20
4.503914203706155
 10
0.0
 20
4.488289176113072
 10
0.0
 20
4.457039120926905
  0
LWPOLYLINE
  5
DD
100
AcDbEntity
  8
USP-GEO
100
AcDbPolyline
 90
        4
 70
   128
 43
0.0
 10
0.0781251379654142
 20
2.376566696907913
 10
0.0781251379654142
 20
4.457039120926905
 10
0.0
 20
4.457039120926905
 10
0.0
 20
2.376566696907913
  0
LWPOLYLINE
  5
DE
100
AcDbEntity
  8
USP-GEO
100
AcDbPolyline
 90
        8
 70
   128
 43
0.0
 10
0.0
 20
1.907815869115426
 10
0.0
 20
2.048441117453172
 10
0.0
 20
2.204691393384001
 10
0.0
 20
2.376566696907913
 10
0.0781251379654142
 20
2.376566696907913
 10
0.0781251379654142
 20
2.204691393384001
 10
0.0781251379654142
 20
2.048441117453172
 10
0.0781251379654142
 20
1.907815869115426
  0
LWPOLYLINE
  5
DF
100
AcDbEntity
  8
USP-GEO
100
AcDbPolyline
 90
        6
 70
   128
 43
0.0
 10
0.0781251379654142
 20
5.426572083077703
 10
0.0781251379654142
 20
5.457822138263868
 10
0.0781251379654142
 20
5.473447165856951
 10
0.0781251379654142
 20
5.504697221043118
 10
0.0781251379654142
 20
5.989854327808343
 10
0.0
 20
5.989854327808343
  0
LWPOLYLINE
  5
E0
100
AcDbEntity
  8
USP-GEO
100
AcDbPolyline
 90
        5
 70
   128
 43
0.0
 10
0.0781251379654142
 20
5.504697221043118
 10
0.0
 20
5.504697221043118
 10
0.0
 20
5.473447165856951
 10
0.0
 20
5.457822138263868
 10
0.0
 20
5.426572083077703
  0
LWPOLYLINE
  5
E1
100
AcDbEntity
  8
USP-GEO
100
AcDbPolyline
 90
        3
 70
   128
 43
0.0
 10
0.0781251379654142
 20
5.426572083077703
 10
0.0
 20
5.426572083077703
 10
0.0
 20
5.114071531216044
  0
LWPOLYLINE
  5
E2
100
AcDbEntity
  8
USP-GEO
100
AcDbPolyline
 90
        3
 70
   128
 43
0.0
 10
0.0781251379654142
 20
7.146887621076134
 10
0.0
 20
7.146887621076134
 10
0.0
 20
6.990637345145303
  0
LWPOLYLINE
  5
E3
100
AcDbEntity
  8
USP-GEO
100
AcDbPolyline
 90
        6
 70
   128
 43
0.0
 10
0.0781251379654142
 20
6.990637345145303
 10
0.0
 20
6.990637345145303
 10
0.0
 20
6.959387289959138
 10
0.0
 20
6.928137234772973
 10
0.0
 20
6.896887179586807
 10
0.0781251379654142
 20
6.896887179586807
  0
LWPOLYLINE
  5
E4
100
AcDbEntity
  8
USP-GEO
100
AcDbPolyline
 90
        3
 70
   128
 43
0.0
 10
0.0781251379654142
 20
6.411730072821582
 10
0.0
 20
6.411730072821582
 10
0.0
 20
6.896887179586807
  0
LWPOLYLINE
  5
E5
100
AcDbEntity
  8
USP-GEO
100
AcDbPolyline
 90
        3
 70
   128
 43
0.0
 10
0.0781251379654142
 20
6.333604934856166
 10
0.0
 20
6.333604934856166
 10
0.0
 20
6.08360449336684
  0
LWPOLYLINE
  5
E6
100
AcDbEntity
  8
USP-GEO
100
AcDbPolyline
 90
        6
 70
   128
 43
0.0
 10
0.0781251379654142
 20
6.08360449336684
 10
0.0
 20
6.08360449336684
 10
0.0
 20
6.052354438180675
 10
0.0
 20
6.021104382994508
 10
0.0
 20
5.989854327808343
 10
0.0
 20
5.504697221043118
  0
LWPOLYLINE
  5
E7
100
AcDbEntity
  8
USP-GEO
100
AcDbPolyline
 90
        8
 70
   128
 43
0.0
 10
0.0
 20
5.020321365657546
 10
0.0
 20
5.051571420843712
 10
0.0
 20
5.082821476029877
 10
0.0
 20
5.114071531216044
 10
0.0781251379654142
 20
5.114071531216044
 10
0.0781251379654142
 20
5.082821476029877
 10
0.0781251379654142
 20
5.051571420843712
 10
0.0781251379654142
 20
5.020321365657546
  0
LWPOLYLINE
  5
E8
100
AcDbEntity
  8
USP-GEO
100
AcDbPolyline
 90
        4
 70
   128
 43
0.0
 10
0.0781251379654142
 20
4.53516425889232
 10
0.0781251379654142
 20
5.020321365657546
 10
0.0
 20
5.020321365657546
 10
0.0
 20
4.53516425889232
  0
LWPOLYLINE
  5
E9
100
AcDbEntity
  8
USP-GEO
100
AcDbPolyline
 90
        4
 70
   128
 43
0.0
 10
0.0
 20
6.333604934856166
 10
0.0
 20
6.364854990042333
 10
0.0
 20
6.380480017635415
 10
0.0
 20
6.411730072821582
  0
LWPOLYLINE
  5
EA
100
AcDbEntity
  8
USP-GEO
100
AcDbPolyline
 90
       17
 70
   128
 43
0.0
 10
0.0781251379654142
 20
5.426572083077703
 10
0.0781251379654142
 20
5.457822138263868
 10
0.0781251379654142
 20
5.473447165856951
 10
0.0781251379654142
 20
5.504697221043118
 10
0.0781251379654142
 20
5.989854327808343
 10
0.0781251379654142
 20
6.021104382994508
 10
0.0781251379654142
 20
6.052354438180675
 10
0.0781251379654142
 20
6.08360449336684
 10
0.0781251379654142
 20
6.333604934856166
 10
0.0781251379654142
 20
6.364854990042333
 10
0.0781251379654142
 20
6.380480017635415
 10
0.0781251379654142
 20
6.411730072821582
 10
0.0781251379654142
 20
6.896887179586807
 10
0.0781251379654142
 20
6.928137234772973
 10
0.0781251379654142
 20
6.959387289959138
 10
0.0781251379654142
 20
6.990637345145303
 10
0.0781251379654142
 20
7.146887621076134
  0
LWPOLYLINE
  5
EB
100
AcDbEntity
  8
USP-GEO
100
AcDbPolyline
 90
        2
 70
   129
 43
0.0
 10
0.0781251379654142
 20
5.426572083077703
 10
0.0781251379654142
 20
5.114071531216044
  0
LWPOLYLINE
  5
EC
100
AcDbEntity
  8
USP-GEO
100
AcDbPolyline
 90
       12
 70
   129
 43
0.0
 10
0.1875003311169951
 20
6.75626193124906
 10
0.1718753035239127
 20
6.834387069214475
 10
0.1875003311169951
 20
6.912512207179888
 10
0.2500004414893269
 20
6.959387289959138
 10
0.328125579454742
 20
6.990637345145303
 10
0.4062507174201562
 20
6.959387289959138
 10
0.4695320791721418
 20
6.912512207179888
 10
0.4851571067652252
 20
6.834387069214475
 10
0.4695320791721418
 20
6.75626193124906
 10
0.4062507174201562
 20
6.693761820876728
 10
0.328125579454742
 20
6.678136793283646
 10
0.2500004414893269
 20
6.693761820876728
  0
LWPOLYLINE
  5
ED
100
AcDbEntity
  8
USP-GEO
100
AcDbPolyline
 90
        2
 70
   128
 43
0.0
 10
0.2500004414893269
 20
6.959387289959138
 10
0.328125579454742
 20
6.990637345145303
  0
LWPOLYLINE
  5
EE
100
AcDbEntity
  8
USP-GEO
100
AcDbPolyline
 90
       12
 70
   129
 43
0.0
 10
1.188283348453957
 20
4.472664148519989
 10
1.219533403640123
 20
4.441414093333824
 10
1.266408486419371
 20
4.42578906574074
 10
1.31328356919862
 20
4.441414093333824
 10
1.344533624384786
 20
4.472664148519989
 10
1.360158651977869
 20
4.519539231299237
 10
1.344533624384786
 20
4.566414314078487
 10
1.31328356919862
 20
4.597664369264652
 10
1.266408486419371
 20
4.597664369264652
 10
1.219533403640123
 20
4.597664369264652
 10
1.188283348453957
 20
4.566414314078487
 10
1.172658320860874
 20
4.519539231299237
  0
LWPOLYLINE
  5
EF
100
AcDbEntity
  8
USP-GEO
100
AcDbPolyline
 90
       12
 70
   129
 43
0.0
 10
1.219533403640123
 20
0.9382829069646287
 10
1.188283348453957
 20
0.9695329621507955
 10
1.172658320860874
 20
1.016408044930043
 10
1.188283348453957
 20
1.063283127709292
 10
1.219533403640123
 20
1.094533182895458
 10
1.266408486419371
 20
1.094533182895458
 10
1.31328356919862
 20
1.094533182895458
 10
1.344533624384786
 20
1.063283127709292
 10
1.360158651977869
 20
1.016408044930043
 10
1.344533624384786
 20
0.9695329621507955
 10
1.31328356919862
 20
0.9382829069646287
 10
1.266408486419371
 20
0.9226578793715471
  0
LWPOLYLINE
  5
F0
100
AcDbEntity
  8
USP-GEO
100
AcDbPolyline
 90
       12
 70
   129
 43
0.0
 10
1.188283348453957
 20
2.721098555335393
 10
1.219533403640123
 20
2.689848500149226
 10
1.266408486419371
 20
2.674223472556143
 10
1.31328356919862
 20
2.689848500149226
 10
1.344533624384786
 20
2.721098555335393
 10
1.360158651977869
 20
2.767973638114641
 10
1.344533624384786
 20
2.814848720893889
 10
1.31328356919862
 20
2.846098776080056
 10
1.266408486419371
 20
2.846098776080056
 10
1.219533403640123
 20
2.846098776080056
 10
1.188283348453957
 20
2.814848720893889
 10
1.172658320860874
 20
2.767973638114641
  0
LWPOLYLINE
  5
F1
100
AcDbEntity
  8
USP-GEO
100
AcDbPolyline
 90
        2
 70
   128
 43
0.0
 10
1.57890903828103
 20
2.376566696907913
 10
1.57890903828103
 20
4.457039120926905
  0
LWPOLYLINE
  5
F2
100
AcDbEntity
  8
USP-GEO
100
AcDbPolyline
 90
        2
 70
   128
 43
0.0
 10
1.110158210488542
 20
5.504697221043118
 10
1.547658983094864
 20
5.989854327808343
  0
LWPOLYLINE
  5
F3
100
AcDbEntity
  8
USP-GEO
100
AcDbPolyline
 90
        2
 70
   128
 43
0.0
 10
1.547658983094864
 20
6.411730072821582
 10
1.110158210488542
 20
6.896887179586807
  0
LWPOLYLINE
  5
F4
100
AcDbEntity
  8
USP-GEO
100
AcDbPolyline
 90
       17
 70
   128
 43
0.0
 10
1.078908155302376
 20
6.959387289959138
 10
1.078908155302376
 20
6.990637345145303
 10
1.078908155302376
 20
7.146887621076134
 10
1.078908155302376
 20
6.990637345145303
 10
1.078908155302376
 20
6.959387289959138
 10
1.094533182895459
 20
6.928137234772973
 10
1.110158210488542
 20
6.896887179586807
 10
1.547658983094864
 20
6.411730072821582
 10
1.563284010687947
 20
6.380480017635415
 10
1.57890903828103
 20
6.364854990042333
 10
1.57890903828103
 20
6.333604934856166
 10
1.57890903828103
 20
6.08360449336684
 10
1.57890903828103
 20
6.052354438180675
 10
1.563284010687947
 20
6.021104382994508
 10
1.547658983094864
 20
5.989854327808343
 10
1.110158210488542
 20
5.504697221043118
 10
1.094533182895459
 20
5.473447165856951
  0
LWPOLYLINE
  5
F5
100
AcDbEntity
  8
USP-GEO
100
AcDbPolyline
 90
        2
 70
   128
 43
0.0
 10
1.547658983094864
 20
4.53516425889232
 10
1.110158210488542
 20
5.020321365657546
  0
LWPOLYLINE
  5
F6
100
AcDbEntity
  8
USP-GEO
100
AcDbPolyline
 90
        3
 70
   128
 43
0.0
 10
1.078908155302376
 20
5.082821476029877
 10
1.078908155302376
 20
5.114071531216044
 10
1.078908155302376
 20
5.426572083077703
  0
LWPOLYLINE
  5
F7
100
AcDbEntity
  8
USP-GEO
100
AcDbPolyline
 90
       12
 70
   129
 43
0.0
 10
1.172658320860874
 20
6.271104824483835
 10
1.188283348453957
 20
6.317979907263083
 10
1.219533403640123
 20
6.34922996244925
 10
1.266408486419371
 20
6.34922996244925
 10
1.31328356919862
 20
6.34922996244925
 10
1.344533624384786
 20
6.317979907263083
 10
1.360158651977869
 20
6.271104824483835
 10
1.344533624384786
 20
6.224229741704586
 10
1.31328356919862
 20
6.19297968651842
 10
1.266408486419371
 20
6.177354658925338
 10
1.219533403640123
 20
6.19297968651842
 10
1.188283348453957
 20
6.224229741704586
  0
LWPOLYLINE
  5
F8
100
AcDbEntity
  8
USP-GEO
100
AcDbPolyline
 90
        2
 70
   128
 43
0.0
 10
1.57890903828103
 20
6.08360449336684
 10
1.57890903828103
 20
6.333604934856166
  0
ENDBLK
  5
FA
100
AcDbEntity
  8
0
100
AcDbBlockEnd
  0
ENDSEC
  0
SECTION
  2
ENTITIES
  0
INSERT
  5
3
100
AcDbEntity
  8
USP
100
AcDbBlockReference
  2
THD48_T
 10
7.792572849893854
 20
12.46832095695075
 30
0.0
  0
INSERT
  5
40
100
AcDbEntity
  8
USP
100
AcDbBlockReference
  2
THD48_F
 10
7.792572849893854
 20
1.223769849588618
 30
0.0
  0
INSERT
  5
C7
100
AcDbEntity
  8
USP
100
AcDbBlockReference
  2
THD48_S
 10
0.8659981178801885
 20
1.223769849588618
 30
0.0
  0
ENDSEC
  0
SECTION
  2
OBJECTS
  0
DICTIONARY
  5
113
102
{ACAD_XDICTIONARY
360
114
102
}
100
AcDbDictionary
  3
ACAD_GROUP
350
111
  3
ACAD_MLINESTYLE
350
112
  0
DICTIONARY
  5
9
100
AcDbDictionary
280
     1
  3
ACAD_XREC_ROUNDTRIP
360
A
  0
DICTIONARY
  5
11
100
AcDbDictionary
280
     1
  3
ACAD_XREC_ROUNDTRIP
360
12
  0
DICTIONARY
  5
FB
100
AcDbDictionary
280
     1
  3
ACAD_LAYOUTSELFREF
360
FC
  0
DICTIONARY
  5
100
100
AcDbDictionary
280
     1
  3
ACAD_LAYOUTSELFREF
360
101
  0
DICTIONARY
  5
114
100
AcDbDictionary
280
     1
  3
ACAD_XREC_ROUNDTRIP
360
115
  0
DICTIONARY
  5
111
102
{ACAD_REACTORS
330
113
102
}
100
AcDbDictionary
  0
DICTIONARY
  5
112
102
{ACAD_REACTORS
330
113
102
}
100
AcDbDictionary
  3
STANDARD
350
116
  0
XRECORD
  5
A
102
{ACAD_REACTORS
330
9
102
}
100
AcDbXrecord
102
EXTNAMES
  1
USP-GEO
  2
USP-Geo
  0
XRECORD
  5
12
102
{ACAD_REACTORS
330
11
102
}
100
AcDbXrecord
102
EXTNAMES
  1
USP-TXT
  2
USP-Txt
  0
XRECORD
  5
FC
102
{ACAD_REACTORS
330
FB
102
}
100
AcDbXrecord
340
18
  0
XRECORD
  5
101
102
{ACAD_REACTORS
330
100
102
}
100
AcDbXrecord
340
15
  0
XRECORD
  5
115
102
{ACAD_REACTORS
330
114
102
}
100
AcDbXrecord
102
EXTNAMES
  1
ACDBVARIABLEDICTIONARY
  2
AcDbVariableDictionary
  0
MLINESTYLE
  5
116
102
{ACAD_REACTORS
330
112
102
}
100
AcDbMlineStyle
  2
STANDARD
 70
     0
  3

 62
     0
 51
90.0
 52
90.0
 71
     2
 49
0.5
 62
   256
  6
BYLAYER
 49
-0.5
 62
   256
  6
BYLAYER
  0
ENDSEC
  0
EOF
