  0
SECTION
  2
HEADER
  9
$ACADVER
  1
AC1014
  9
$ACADMAINTVER
 70
     9
  9
$DWGCODEPAGE
  3
ANSI_1252
  9
$INSBASE
 10
0.0
 20
0.0
 30
0.0
  9
$EXTMIN
 10
0.0006300328623396
 20
0.0019625531656047
 30
0.0
  9
$EXTMAX
 10
16.14123352093166
 20
19.26242333308316
 30
0.0
  9
$LIMMIN
 10
0.0
 20
0.0
  9
$LIMMAX
 10
12.0
 20
9.0
  9
$ORTHOMODE
 70
     1
  9
$REGENMODE
 70
     1
  9
$FILLMODE
 70
     1
  9
$QTEXTMODE
 70
     0
  9
$MIRRTEXT
 70
     0
  9
$DRAGMODE
 70
     2
  9
$LTSCALE
 40
1.5
  9
$OSMODE
 70
     0
  9
$ATTMODE
 70
     1
  9
$TEXTSIZE
 40
0.75
  9
$TRACEWID
 40
0.05
  9
$TEXTSTYLE
  7
STANDARD
  9
$CLAYER
  8
USP
  9
$CELTYPE
  6
BYLAYER
  9
$CECOLOR
 62
   256
  9
$CELTSCALE
 40
1.0
  9
$DELOBJ
 70
     1
  9
$DISPSILH
 70
     1
  9
$DIMSCALE
 40
7.0
  9
$DIMASZ
 40
0.125
  9
$DIMEXO
 40
0.0625
  9
$DIMDLI
 40
0.37890625
  9
$DIMRND
 40
0.0
  9
$DIMDLE
 40
0.0
  9
$DIMEXE
 40
0.09375
  9
$DIMTP
 40
0.0
  9
$DIMTM
 40
0.0
  9
$DIMTXT
 40
0.109375
  9
$DIMCEN
 40
0.0
  9
$DIMTSZ
 40
0.0
  9
$DIMTOL
 70
     0
  9
$DIMLIM
 70
     0
  9
$DIMTIH
 70
     1
  9
$DIMTOH
 70
     1
  9
$DIMSE1
 70
     0
  9
$DIMSE2
 70
     0
  9
$DIMTAD
 70
     0
  9
$DIMZIN
 70
     8
  9
$DIMBLK
  1

  9
$DIMASO
 70
     1
  9
$DIMSHO
 70
     1
  9
$DIMPOST
  1

  9
$DIMAPOST
  1

  9
$DIMALT
 70
     0
  9
$DIMALTD
 70
     2
  9
$DIMALTF
 40
25.4
  9
$DIMLFAC
 40
1.0
  9
$DIMTOFL
 70
     0
  9
$DIMTVP
 40
0.0
  9
$DIMTIX
 70
     0
  9
$DIMSOXD
 70
     0
  9
$DIMSAH
 70
     0
  9
$DIMBLK1
  1

  9
$DIMBLK2
  1

  9
$DIMSTYLE
  2
STANDARD
  9
$DIMCLRD
 70
     0
  9
$DIMCLRE
 70
     0
  9
$DIMCLRT
 70
   256
  9
$DIMTFAC
 40
1.0
  9
$DIMGAP
 40
0.08984375
  9
$DIMJUST
 70
     0
  9
$DIMSD1
 70
     0
  9
$DIMSD2
 70
     0
  9
$DIMTOLJ
 70
     1
  9
$DIMTZIN
 70
     0
  9
$DIMALTZ
 70
     0
  9
$DIMALTTZ
 70
     0
  9
$DIMFIT
 70
     3
  9
$DIMUPT
 70
     1
  9
$DIMUNIT
 70
     7
  9
$DIMDEC
 70
     4
  9
$DIMTDEC
 70
     4
  9
$DIMALTU
 70
     2
  9
$DIMALTTD
 70
     2
  9
$DIMTXSTY
  7
STANDARD
  9
$DIMAUNIT
 70
     0
  9
$LUNITS
 70
     5
  9
$LUPREC
 70
     6
  9
$SKETCHINC
 40
0.1
  9
$FILLETRAD
 40
0.0
  9
$AUNITS
 70
     0
  9
$AUPREC
 70
     1
  9
$MENU
  1
CUSTOM
  9
$ELEVATION
 40
0.0
  9
$PELEVATION
 40
0.0
  9
$THICKNESS
 40
0.0
  9
$LIMCHECK
 70
     0
  9
$BLIPMODE
 70
     0
  9
$CHAMFERA
 40
0.0
  9
$CHAMFERB
 40
0.0
  9
$CHAMFERC
 40
0.0
  9
$CHAMFERD
 40
0.0
  9
$SKPOLY
 70
     0
  9
$TDCREATE
 40
2451263.663231366
  9
$TDUPDATE
 40
2452768.683082500
  9
$TDINDWG
 40
0.4432296875
  9
$TDUSRTIMER
 40
0.4432296875
  9
$USRTIMER
 70
     1
  9
$ANGBASE
 50
0.0
  9
$ANGDIR
 70
     0
  9
$PDMODE
 70
     0
  9
$PDSIZE
 40
0.0
  9
$PLINEWID
 40
0.0
  9
$COORDS
 70
     2
  9
$SPLFRAME
 70
     0
  9
$SPLINETYPE
 70
     6
  9
$SPLINESEGS
 70
     8
  9
$ATTDIA
 70
     0
  9
$ATTREQ
 70
     0
  9
$HANDLING
 70
     1
  9
$HANDSEED
  5
16B
  9
$SURFTAB1
 70
     6
  9
$SURFTAB2
 70
     6
  9
$SURFTYPE
 70
     6
  9
$SURFU
 70
     6
  9
$SURFV
 70
     6
  9
$UCSNAME
  2

  9
$UCSORG
 10
0.0
 20
0.0
 30
0.0
  9
$UCSXDIR
 10
1.0
 20
0.0
 30
0.0
  9
$UCSYDIR
 10
0.0
 20
1.0
 30
0.0
  9
$PUCSNAME
  2

  9
$PUCSORG
 10
0.0
 20
0.0
 30
0.0
  9
$PUCSXDIR
 10
1.0
 20
0.0
 30
0.0
  9
$PUCSYDIR
 10
0.0
 20
1.0
 30
0.0
  9
$USERI1
 70
     0
  9
$USERI2
 70
     0
  9
$USERI3
 70
     0
  9
$USERI4
 70
     0
  9
$USERI5
 70
     0
  9
$USERR1
 40
0.0
  9
$USERR2
 40
0.0
  9
$USERR3
 40
0.0
  9
$USERR4
 40
0.0
  9
$USERR5
 40
0.0
  9
$WORLDVIEW
 70
     1
  9
$SHADEDGE
 70
     3
  9
$SHADEDIF
 70
    70
  9
$TILEMODE
 70
     1
  9
$MAXACTVP
 70
    16
  9
$PINSBASE
 10
0.0
 20
0.0
 30
0.0
  9
$PLIMCHECK
 70
     0
  9
$PEXTMIN
 10
1.000000000000000E+20
 20
1.000000000000000E+20
 30
1.000000000000000E+20
  9
$PEXTMAX
 10
-1.000000000000000E+20
 20
-1.000000000000000E+20
 30
-1.000000000000000E+20
  9
$PLIMMIN
 10
0.0
 20
0.0
  9
$PLIMMAX
 10
12.0
 20
9.0
  9
$UNITMODE
 70
     0
  9
$VISRETAIN
 70
     0
  9
$PLINEGEN
 70
     0
  9
$PSLTSCALE
 70
     0
  9
$TREEDEPTH
 70
  3020
  9
$PICKSTYLE
 70
     0
  9
$CMLSTYLE
  2
STANDARD
  9
$CMLJUST
 70
     0
  9
$CMLSCALE
 40
1.0
  9
$PROXYGRAPHICS
 70
     1
  9
$MEASUREMENT
 70
     0
  0
ENDSEC
  0
SECTION
  2
CLASSES
  0
CLASS
  1
ACDBDICTIONARYWDFLT
  2
AcDbDictionaryWithDefault
  3
AutoCAD 2000
 90
        0
280
     0
281
     0
  0
CLASS
  1
ACDBPLACEHOLDER
  2
AcDbPlaceHolder
  3
AutoCAD 2000
 90
        0
280
     0
281
     0
  0
CLASS
  1
LAYOUT
  2
AcDbLayout
  3
AutoCAD 2000
 90
        0
280
     0
281
     0
  0
CLASS
  1
DICTIONARYVAR
  2
AcDbDictionaryVar
  3
"AutoCAD"
 90
        0
280
     0
281
     0
  0
CLASS
  1
LONG_TRANSACTION
  2
AcDbLongTransaction
  3
AutoCAD 2000
 90
        0
280
     0
281
     0
  0
CLASS
  1
LWPOLYLINE
  2
AcDbPolyline
  3
"AutoCAD"
 90
        0
280
     0
281
     1
  0
CLASS
  1
HATCH
  2
AcDbHatch
  3
"ACAD_SEDONA"
 90
        0
280
     0
281
     1
  0
CLASS
  1
XRECORD
  2
AcDbXrecord
  3
"<Built In>"
 90
        0
280
     0
281
     0
  0
ENDSEC
  0
SECTION
  2
TABLES
  0
TABLE
  2
VPORT
  5
15B
100
AcDbSymbolTable
 70
     1
  0
VPORT
  5
15C
100
AcDbSymbolTableRecord
100
AcDbViewportTableRecord
  2
*ACTIVE
 70
     0
 10
0.0
 20
0.0
 11
1.0
 21
1.0
 12
-13.90915145003363
 22
18.20972918820991
 13
0.0
 23
0.0
 14
1.0
 24
1.0
 15
0.0
 25
0.0
 16
0.0
 26
0.0
 36
1.0
 17
23.09603071721725
 27
-10.27010416511325
 37
-10.44050274849355
 40
20.84680431706551
 41
1.457627118644067
 42
50.0
 43
10.55307667737539
 44
10.55307667737539
 50
0.0
 51
0.0
 71
     0
 72
   100
 73
     1
 74
     1
 75
     0
 76
     0
 77
     0
 78
     0
  0
ENDTAB
  0
TABLE
  2
LTYPE
  5
156
100
AcDbSymbolTable
 70
     1
  0
LTYPE
  5
157
100
AcDbSymbolTableRecord
100
AcDbLinetypeTableRecord
  2
BYBLOCK
 70
     0
  3

 72
    65
 73
     0
 40
0.0
  0
LTYPE
  5
158
100
AcDbSymbolTableRecord
100
AcDbLinetypeTableRecord
  2
BYLAYER
 70
     0
  3

 72
    65
 73
     0
 40
0.0
  0
LTYPE
  5
5
100
AcDbSymbolTableRecord
100
AcDbLinetypeTableRecord
  2
CONTINUOUS
 70
     0
  3
Solid line
 72
    65
 73
     0
 40
0.0
  0
ENDTAB
  0
TABLE
  2
LAYER
  5
154
100
AcDbSymbolTable
 70
     4
  0
LAYER
  5
40
100
AcDbSymbolTableRecord
100
AcDbLayerTableRecord
  2
0
 70
     0
 62
     7
  6
CONTINUOUS
  0
LAYER
  5
D
102
{ACAD_XDICTIONARY
360
E
102
}
100
AcDbSymbolTableRecord
100
AcDbLayerTableRecord
  2
USP-GEO
 70
     0
 62
     7
  6
CONTINUOUS
  0
LAYER
  5
8
102
{ACAD_XDICTIONARY
360
9
102
}
100
AcDbSymbolTableRecord
100
AcDbLayerTableRecord
  2
USP-TXT
 70
     0
 62
     7
  6
CONTINUOUS
  0
LAYER
  5
4
100
AcDbSymbolTableRecord
100
AcDbLayerTableRecord
  2
USP
 70
     0
 62
     7
  6
CONTINUOUS
  0
ENDTAB
  0
TABLE
  2
STYLE
  5
155
100
AcDbSymbolTable
 70
     1
  0
STYLE
  5
B
100
AcDbSymbolTableRecord
100
AcDbTextStyleTableRecord
  2
STANDARD
 70
     0
 40
0.0
 41
1.0
 50
0.0
 71
     0
 42
0.75
  3
txt
  4

  0
ENDTAB
  0
TABLE
  2
VIEW
  5
159
100
AcDbSymbolTable
 70
     0
  0
ENDTAB
  0
TABLE
  2
UCS
  5
15A
100
AcDbSymbolTable
 70
     0
  0
ENDTAB
  0
TABLE
  2
APPID
  5
15D
100
AcDbSymbolTable
 70
     1
  0
APPID
  5
15E
100
AcDbSymbolTableRecord
100
AcDbRegAppTableRecord
  2
ACAD
 70
     0
  0
ENDTAB
  0
TABLE
  2
DIMSTYLE
  5
15F
100
AcDbSymbolTable
 70
     1
  0
DIMSTYLE
105
167
100
AcDbSymbolTableRecord
100
AcDbDimStyleTableRecord
  2
STANDARD
 70
     0
  3

  4

  5

  6

  7

 40
1.0
 41
0.18
 42
0.0625
 43
0.38
 44
0.18
 45
0.0
 46
0.0
 47
0.0
 48
0.0
140
0.18
141
0.09
142
0.0
143
25.4
144
1.0
145
0.0
146
1.0
147
0.09
 71
     0
 72
     0
 73
     1
 74
     1
 75
     0
 76
     0
 77
     0
 78
     0
170
     0
171
     2
172
     0
173
     0
174
     0
175
     0
176
     0
177
     0
178
     0
270
     2
271
     4
272
     4
273
     2
274
     2
340
B
275
     0
280
     0
281
     0
282
     0
283
     1
284
     0
285
     0
286
     0
287
     3
288
     0
  0
ENDTAB
  0
TABLE
  2
BLOCK_RECORD
  5
1
100
AcDbSymbolTable
 70
     3
  0
BLOCK_RECORD
  5
2
102
{ACAD_XDICTIONARY
360
14B
102
}
100
AcDbSymbolTableRecord
100
AcDbBlockTableRecord
  2
*MODEL_SPACE
  0
BLOCK_RECORD
  5
14F
102
{ACAD_XDICTIONARY
360
150
102
}
100
AcDbSymbolTableRecord
100
AcDbBlockTableRecord
  2
*PAPER_SPACE
  0
BLOCK_RECORD
  5
6
100
AcDbSymbolTableRecord
100
AcDbBlockTableRecord
  2
THD410_T
  0
BLOCK_RECORD
  5
43
100
AcDbSymbolTableRecord
100
AcDbBlockTableRecord
  2
THD410_F
  0
BLOCK_RECORD
  5
108
100
AcDbSymbolTableRecord
100
AcDbBlockTableRecord
  2
THD410_S
  0
ENDTAB
  0
ENDSEC
  0
SECTION
  2
BLOCKS
  0
BLOCK
  5
14D
100
AcDbEntity
  8
0
100
AcDbBlockBegin
  2
*MODEL_SPACE
 70
     0
 10
0.0
 20
0.0
 30
0.0
  3
*MODEL_SPACE
  1

  0
ENDBLK
  5
14E
100
AcDbEntity
  8
0
100
AcDbBlockEnd
  0
BLOCK
  5
152
100
AcDbEntity
 67
     1
  8
0
100
AcDbBlockBegin
  2
*PAPER_SPACE
 70
     0
 10
0.0
 20
0.0
 30
0.0
  3
*PAPER_SPACE
  1

  0
ENDBLK
  5
153
100
AcDbEntity
 67
     1
  8
0
100
AcDbBlockEnd
  0
BLOCK
  5
3F
100
AcDbEntity
  8
0
100
AcDbBlockBegin
  2
THD410_T
 70
     0
 10
0.0
 20
0.0
 30
0.0
  3
THD410_T
  1

  0
TEXT
  5
7
100
AcDbEntity
  8
USP-TXT
100
AcDbText
 10
1.455436193948437
 20
-2.353492848461574
 30
0.0
 40
0.296875
  1
THD410 - TOP VIEW
 72
     1
 11
3.904654943948436
 21
-2.353492848461574
 31
0.0
100
AcDbText
  0
LWPOLYLINE
  5
C
100
AcDbEntity
  8
USP-GEO
100
AcDbPolyline
 90
        8
 70
   128
 43
0.0
 10
5.789693925997399
 20
2.116703640220201
 10
5.789693925997399
 20
3.11737961182294
 10
7.791045869202877
 20
3.11737961182294
 10
7.791045869202877
 20
3.194280743166089
 10
5.71279279465425
 20
3.194280743166089
 10
5.71279279465425
 20
2.116703640220201
 10
5.71279279465425
 20
2.097478357384414
 10
5.71279279465425
 20
1.65433558801951
  0
LWPOLYLINE
  5
10
100
AcDbEntity
  8
USP-GEO
100
AcDbPolyline
 90
        7
 70
   128
 43
0.0
 10
5.789693925997399
 20
2.116703640220201
 10
5.789693925997399
 20
3.11737961182294
 10
7.791045869202877
 20
3.11737961182294
 10
7.791045869202877
 20
3.194280743166089
 10
5.71279279465425
 20
3.194280743166089
 10
5.71279279465425
 20
2.116703640220201
 10
5.713754058796039
 20
2.116703640220201
  0
LWPOLYLINE
  5
11
100
AcDbEntity
  8
USP-GEO
100
AcDbPolyline
 90
       11
 70
   128
 43
0.0
 10
2.077291810406835
 20
0.0192252828357873
 10
2.077291810406835
 20
1.442857476825849
 10
2.077291810406835
 20
1.538983891004786
 10
2.077291810406835
 20
1.596659739512148
 10
2.077291810406835
 20
1.615885022347935
 10
2.077291810406835
 20
1.635110305183722
 10
2.077291810406835
 20
1.65433558801951
 10
2.077291810406835
 20
2.097478357384414
 10
2.077291810406835
 20
2.116703640220201
 10
2.077291810406835
 20
3.194280743166089
 10
0.0
 20
3.194280743166089
  0
LWPOLYLINE
  5
12
100
AcDbEntity
  8
USP-GEO
100
AcDbPolyline
 90
       16
 70
   128
 43
0.0
 10
2.000390679063686
 20
0.0192252828357873
 10
2.000390679063686
 20
1.442857476825849
 10
2.000390679063686
 20
1.538983891004786
 10
2.000390679063686
 20
1.596659739512148
 10
2.000390679063686
 20
1.615885022347935
 10
2.000390679063686
 20
1.635110305183722
 10
2.000390679063686
 20
1.65433558801951
 10
2.000390679063686
 20
2.097478357384414
 10
2.000390679063686
 20
2.116703640220201
 10
2.000390679063686
 20
3.11737961182294
 10
0.0
 20
3.11737961182294
 10
2.000390679063686
 20
3.11737961182294
 10
2.000390679063686
 20
2.116703640220201
 10
2.077291810406835
 20
2.116703640220201
 10
2.077291810406835
 20
3.194280743166089
 10
0.0
 20
3.194280743166089
  0
LWPOLYLINE
  5
13
100
AcDbEntity
  8
USP-GEO
100
AcDbPolyline
 90
        2
 70
   129
 43
0.0
 10
0.0
 20
3.11737961182294
 10
0.0
 20
3.194280743166089
  0
LWPOLYLINE
  5
14
100
AcDbEntity
  8
USP-GEO
100
AcDbPolyline
 90
        2
 70
   129
 43
0.0
 10
3.154868913352723
 20
0.0
 10
2.077291810406835
 20
0.0
  0
LWPOLYLINE
  5
15
100
AcDbEntity
  8
USP-GEO
100
AcDbPolyline
 90
        2
 70
   129
 43
0.0
 10
2.077291810406835
 20
3.002027914808213
 10
3.154868913352723
 20
3.002027914808213
  0
LWPOLYLINE
  5
16
100
AcDbEntity
  8
USP-GEO
100
AcDbPolyline
 90
        4
 70
   129
 43
0.0
 10
2.000390679063686
 20
1.442857476825849
 10
2.000390679063686
 20
0.0192252828357873
 10
2.077291810406835
 20
0.0192252828357873
 10
2.077291810406835
 20
1.442857476825849
  0
LWPOLYLINE
  5
17
100
AcDbEntity
  8
USP-GEO
100
AcDbPolyline
 90
        2
 70
   128
 43
0.0
 10
2.000390679063686
 20
0.0192252828357873
 10
2.000390679063686
 20
0.0
  0
LWPOLYLINE
  5
18
100
AcDbEntity
  8
USP-GEO
100
AcDbPolyline
 90
        3
 70
   128
 43
0.0
 10
2.000390679063686
 20
0.0
 10
2.077291810406835
 20
0.0
 10
2.077291810406835
 20
0.0192252828357873
  0
LWPOLYLINE
  5
19
100
AcDbEntity
  8
USP-GEO
100
AcDbPolyline
 90
        2
 70
   129
 43
0.0
 10
2.078253074548625
 20
0.0192252828357873
 10
2.077291810406835
 20
0.0192252828357873
  0
LWPOLYLINE
  5
1A
100
AcDbEntity
  8
USP-GEO
100
AcDbPolyline
 90
        2
 70
   128
 43
0.0
 10
2.000390679063686
 20
0.0192252828357873
 10
2.000390679063686
 20
0.0
  0
LWPOLYLINE
  5
1B
100
AcDbEntity
  8
USP-GEO
100
AcDbPolyline
 90
        2
 70
   129
 43
0.0
 10
2.001351943205476
 20
0.0
 10
2.000390679063686
 20
0.0
  0
LWPOLYLINE
  5
1C
100
AcDbEntity
  8
USP-GEO
100
AcDbPolyline
 90
        3
 70
   128
 43
0.0
 10
2.000390679063686
 20
0.0
 10
2.077291810406835
 20
0.0
 10
2.077291810406835
 20
0.0192252828357873
  0
LWPOLYLINE
  5
1D
100
AcDbEntity
  8
USP-GEO
100
AcDbPolyline
 90
        2
 70
   129
 43
0.0
 10
2.001351943205476
 20
0.0192252828357873
 10
2.000390679063686
 20
0.0192252828357873
  0
LWPOLYLINE
  5
1E
100
AcDbEntity
  8
USP-GEO
100
AcDbPolyline
 90
        6
 70
   128
 43
0.0
 10
2.077291810406835
 20
1.442857476825849
 10
2.077291810406835
 20
1.538983891004786
 10
2.077291810406835
 20
1.596659739512148
 10
2.077291810406835
 20
1.615885022347935
 10
2.077291810406835
 20
1.635110305183722
 10
2.078253074548625
 20
1.635110305183722
  0
LWPOLYLINE
  5
1F
100
AcDbEntity
  8
USP-GEO
100
AcDbPolyline
 90
       10
 70
   128
 43
0.0
 10
2.000390679063686
 20
1.442857476825849
 10
2.000390679063686
 20
1.538983891004786
 10
2.000390679063686
 20
1.596659739512148
 10
2.000390679063686
 20
1.615885022347935
 10
2.077291810406835
 20
1.615885022347935
 10
2.000390679063686
 20
1.615885022347935
 10
2.000390679063686
 20
1.635110305183722
 10
2.000390679063686
 20
1.65433558801951
 10
2.000390679063686
 20
2.097478357384414
 10
2.000390679063686
 20
2.116703640220201
  0
LWPOLYLINE
  5
20
100
AcDbEntity
  8
USP-GEO
100
AcDbPolyline
 90
        2
 70
   128
 43
0.0
 10
2.000390679063686
 20
1.635110305183722
 10
2.001351943205476
 20
1.635110305183722
  0
LWPOLYLINE
  5
21
100
AcDbEntity
  8
USP-GEO
100
AcDbPolyline
 90
        2
 70
   128
 43
0.0
 10
2.077291810406835
 20
1.65433558801951
 10
2.077291810406835
 20
1.635110305183722
  0
LWPOLYLINE
  5
22
100
AcDbEntity
  8
USP-GEO
100
AcDbPolyline
 90
        3
 70
   128
 43
0.0
 10
2.000390679063686
 20
1.65433558801951
 10
2.077291810406835
 20
1.65433558801951
 10
2.077291810406835
 20
2.097478357384414
  0
LWPOLYLINE
  5
23
100
AcDbEntity
  8
USP-GEO
100
AcDbPolyline
 90
        3
 70
   128
 43
0.0
 10
2.000390679063686
 20
2.097478357384414
 10
2.077291810406835
 20
2.097478357384414
 10
2.077291810406835
 20
2.116703640220201
  0
LWPOLYLINE
  5
24
100
AcDbEntity
  8
USP-GEO
100
AcDbPolyline
 90
        2
 70
   129
 43
0.0
 10
2.078253074548625
 20
2.116703640220201
 10
2.077291810406835
 20
2.116703640220201
  0
LWPOLYLINE
  5
25
100
AcDbEntity
  8
USP-GEO
100
AcDbPolyline
 90
        2
 70
   129
 43
0.0
 10
2.001351943205476
 20
2.116703640220201
 10
2.000390679063686
 20
2.116703640220201
  0
LWPOLYLINE
  5
26
100
AcDbEntity
  8
USP-GEO
100
AcDbPolyline
 90
        2
 70
   128
 43
0.0
 10
2.000390679063686
 20
2.116703640220201
 10
2.077291810406835
 20
2.116703640220201
  0
LWPOLYLINE
  5
27
100
AcDbEntity
  8
USP-GEO
100
AcDbPolyline
 90
        2
 70
   129
 43
0.0
 10
4.559275824506999
 20
0.0961264141789364
 10
4.48141342902206
 20
0.0961264141789364
  0
LWPOLYLINE
  5
28
100
AcDbEntity
  8
USP-GEO
100
AcDbPolyline
 90
        2
 70
   129
 43
0.0
 10
4.404512297678911
 20
0.0
 10
3.404797590217961
 20
0.0
  0
LWPOLYLINE
  5
29
100
AcDbEntity
  8
USP-GEO
100
AcDbPolyline
 90
        2
 70
   129
 43
0.0
 10
3.308671176039025
 20
0.0961264141789364
 10
3.231770044695876
 20
0.0961264141789364
  0
LWPOLYLINE
  5
2A
100
AcDbEntity
  8
USP-GEO
100
AcDbPolyline
 90
        4
 70
   128
 43
0.0
 10
3.154868913352723
 20
0.0
 10
3.154868913352723
 20
0.0384505656715746
 10
3.193319479024301
 20
0.0769011313431491
 10
3.231770044695876
 20
0.0961264141789364
  0
LWPOLYLINE
  5
2B
100
AcDbEntity
  8
USP-GEO
100
AcDbPolyline
 90
        4
 70
   128
 43
0.0
 10
3.308671176039025
 20
0.0961264141789364
 10
3.3471217417106
 20
0.0769011313431491
 10
3.385572307382174
 20
0.0384505656715746
 10
3.404797590217961
 20
0.0
  0
LWPOLYLINE
  5
2C
100
AcDbEntity
  8
USP-GEO
100
AcDbPolyline
 90
        4
 70
   128
 43
0.0
 10
4.404512297678911
 20
0.0
 10
4.404512297678911
 20
0.0384505656715746
 10
4.442962863350485
 20
0.0769011313431491
 10
4.48141342902206
 20
0.0961264141789364
  0
LWPOLYLINE
  5
2D
100
AcDbEntity
  8
USP-GEO
100
AcDbPolyline
 90
        2
 70
   129
 43
0.0
 10
5.71279279465425
 20
0.0
 10
4.655402238685939
 20
0.0
  0
LWPOLYLINE
  5
2E
100
AcDbEntity
  8
USP-GEO
100
AcDbPolyline
 90
        4
 70
   128
 43
0.0
 10
4.559275824506999
 20
0.0961264141789364
 10
4.597726390178577
 20
0.0769011313431491
 10
4.636176955850151
 20
0.0384505656715746
 10
4.655402238685939
 20
0.0
  0
LWPOLYLINE
  5
2F
100
AcDbEntity
  8
USP-GEO
100
AcDbPolyline
 90
        2
 70
   128
 43
0.0
 10
5.789693925997399
 20
0.0192252828357873
 10
5.789693925997399
 20
1.442857476825849
  0
LWPOLYLINE
  5
30
100
AcDbEntity
  8
USP-GEO
100
AcDbPolyline
 90
        2
 70
   128
 43
0.0
 10
5.71279279465425
 20
1.442857476825849
 10
5.71279279465425
 20
0.0192252828357873
  0
LWPOLYLINE
  5
31
100
AcDbEntity
  8
USP-GEO
100
AcDbPolyline
 90
       44
 70
   128
 43
0.0
 10
5.789693925997399
 20
1.65433558801951
 10
5.789693925997399
 20
1.635110305183722
 10
5.789693925997399
 20
1.615885022347935
 10
5.789693925997399
 20
1.596659739512148
 10
5.789693925997399
 20
1.538983891004786
 10
5.789693925997399
 20
1.442857476825849
 10
5.789693925997399
 20
0.0192252828357873
 10
5.789693925997399
 20
0.0
 10
5.71279279465425
 20
0.0
 10
5.713754058796039
 20
0.0
 10
5.71279279465425
 20
0.0
 10
5.789693925997399
 20
0.0
 10
5.789693925997399
 20
0.0192252828357873
 10
5.790655190139188
 20
0.0192252828357873
 10
5.789693925997399
 20
0.0192252828357873
 10
5.71279279465425
 20
0.0192252828357873
 10
5.71279279465425
 20
0.0
 10
5.71279279465425
 20
0.0192252828357873
 10
5.71279279465425
 20
1.442857476825849
 10
5.71279279465425
 20
1.538983891004786
 10
5.71279279465425
 20
1.596659739512148
 10
5.71279279465425
 20
1.615885022347935
 10
5.71279279465425
 20
1.635110305183722
 10
5.71279279465425
 20
1.615885022347935
 10
5.71279279465425
 20
1.596659739512148
 10
5.71279279465425
 20
1.538983891004786
 10
5.71279279465425
 20
1.442857476825849
 10
5.789693925997399
 20
1.442857476825849
 10
5.789693925997399
 20
1.538983891004786
 10
5.789693925997399
 20
1.596659739512148
 10
5.789693925997399
 20
1.615885022347935
 10
5.71279279465425
 20
1.615885022347935
 10
5.789693925997399
 20
1.615885022347935
 10
5.789693925997399
 20
1.635110305183722
 10
5.789693925997399
 20
1.65433558801951
 10
5.789693925997399
 20
2.097478357384414
 10
5.789693925997399
 20
2.116703640220201
 10
5.71279279465425
 20
2.116703640220201
 10
5.789693925997399
 20
2.116703640220201
 10
5.789693925997399
 20
2.097478357384414
 10
5.789693925997399
 20
1.65433558801951
 10
5.71279279465425
 20
1.65433558801951
 10
5.71279279465425
 20
2.097478357384414
 10
5.789693925997399
 20
2.097478357384414
  0
LWPOLYLINE
  5
32
100
AcDbEntity
  8
USP-GEO
100
AcDbPolyline
 90
        2
 70
   128
 43
0.0
 10
5.789693925997399
 20
0.0
 10
5.790655190139188
 20
0.0
  0
LWPOLYLINE
  5
33
100
AcDbEntity
  8
USP-GEO
100
AcDbPolyline
 90
        2
 70
   128
 43
0.0
 10
5.789693925997399
 20
1.635110305183722
 10
5.790655190139188
 20
1.635110305183722
  0
LWPOLYLINE
  5
34
100
AcDbEntity
  8
USP-GEO
100
AcDbPolyline
 90
        2
 70
   129
 43
0.0
 10
5.790655190139188
 20
2.116703640220201
 10
5.789693925997399
 20
2.116703640220201
  0
LWPOLYLINE
  5
35
100
AcDbEntity
  8
USP-GEO
100
AcDbPolyline
 90
        2
 70
   128
 43
0.0
 10
5.71279279465425
 20
2.097478357384414
 10
5.71279279465425
 20
2.116703640220201
  0
LWPOLYLINE
  5
36
100
AcDbEntity
  8
USP-GEO
100
AcDbPolyline
 90
        2
 70
   129
 43
0.0
 10
5.71279279465425
 20
1.635110305183722
 10
5.71279279465425
 20
1.65433558801951
  0
LWPOLYLINE
  5
37
100
AcDbEntity
  8
USP-GEO
100
AcDbPolyline
 90
        2
 70
   128
 43
0.0
 10
5.71279279465425
 20
1.635110305183722
 10
5.713754058796039
 20
1.635110305183722
  0
LWPOLYLINE
  5
38
100
AcDbEntity
  8
USP-GEO
100
AcDbPolyline
 90
        2
 70
   129
 43
0.0
 10
4.48141342902206
 20
2.905901500629276
 10
4.559275824506999
 20
2.905901500629276
  0
LWPOLYLINE
  5
39
100
AcDbEntity
  8
USP-GEO
100
AcDbPolyline
 90
        8
 70
   128
 43
0.0
 10
4.48141342902206
 20
2.905901500629276
 10
4.442962863350485
 20
2.925126783465064
 10
4.404512297678911
 20
2.963577349136638
 10
4.404512297678911
 20
3.002027914808213
 10
3.404797590217961
 20
3.002027914808213
 10
3.385572307382174
 20
2.963577349136638
 10
3.3471217417106
 20
2.925126783465064
 10
3.308671176039025
 20
2.905901500629276
  0
LWPOLYLINE
  5
3A
100
AcDbEntity
  8
USP-GEO
100
AcDbPolyline
 90
        2
 70
   128
 43
0.0
 10
4.404512297678911
 20
3.002027914808213
 10
3.404797590217961
 20
3.002027914808213
  0
LWPOLYLINE
  5
3B
100
AcDbEntity
  8
USP-GEO
100
AcDbPolyline
 90
        2
 70
   129
 43
0.0
 10
3.231770044695876
 20
2.905901500629276
 10
3.308671176039025
 20
2.905901500629276
  0
LWPOLYLINE
  5
3C
100
AcDbEntity
  8
USP-GEO
100
AcDbPolyline
 90
        4
 70
   128
 43
0.0
 10
3.231770044695876
 20
2.905901500629276
 10
3.193319479024301
 20
2.925126783465064
 10
3.154868913352723
 20
2.963577349136638
 10
3.154868913352723
 20
3.002027914808213
  0
LWPOLYLINE
  5
3D
100
AcDbEntity
  8
USP-GEO
100
AcDbPolyline
 90
        2
 70
   129
 43
0.0
 10
4.655402238685939
 20
3.002027914808213
 10
5.71279279465425
 20
3.002027914808213
  0
LWPOLYLINE
  5
3E
100
AcDbEntity
  8
USP-GEO
100
AcDbPolyline
 90
        4
 70
   128
 43
0.0
 10
4.655402238685939
 20
3.002027914808213
 10
4.636176955850151
 20
2.963577349136638
 10
4.597726390178577
 20
2.925126783465064
 10
4.559275824506999
 20
2.905901500629276
  0
ENDBLK
  5
41
100
AcDbEntity
  8
0
100
AcDbBlockEnd
  0
BLOCK
  5
105
100
AcDbEntity
  8
0
100
AcDbBlockBegin
  2
THD410_F
 70
     0
 10
0.0
 20
0.0
 30
0.0
  3
THD410_F
  1

  0
TEXT
  5
44
100
AcDbEntity
  8
USP-TXT
100
AcDbText
 10
1.158561193948437
 20
-2.075941717148914
 30
0.0
 40
0.296875
  1
THD410 - FRONT VIEW
 72
     1
 11
3.904654943948436
 21
-2.075941717148914
 31
0.0
100
AcDbText
  0
LWPOLYLINE
  5
45
100
AcDbEntity
  8
USP-GEO
100
AcDbPolyline
 90
       24
 70
   128
 43
0.0
 10
5.789693925997399
 20
6.427012052003753
 10
5.789693925997399
 20
6.90860538704023
 10
5.789693925997399
 20
6.947055952711805
 10
5.789693925997399
 20
6.966281235547592
 10
5.789693925997399
 20
7.004731801219168
 10
5.789693925997399
 20
7.312336326591767
 10
5.789693925997399
 20
7.331561609427554
 10
5.789693925997399
 20
7.37001217509913
 10
5.789693925997399
 20
7.389237457934918
 10
5.789693925997399
 20
7.890056075807182
 10
5.789693925997399
 20
7.909281358642969
 10
5.789693925997399
 20
7.928506641478756
 10
5.789693925997399
 20
7.966957207150331
 10
5.789693925997399
 20
8.216885884015567
 10
5.789693925997399
 20
8.255336449687144
 10
5.789693925997399
 20
8.274561732522931
 10
5.789693925997399
 20
8.293787015358718
 10
5.789693925997399
 20
8.794605633230982
 10
5.789693925997399
 20
8.81383091606677
 10
5.789693925997399
 20
8.852281481738344
 10
5.789693925997399
 20
8.871506764574132
 10
5.789693925997399
 20
9.159886007110944
 10
7.791045869202877
 20
9.159886007110944
 10
7.791045869202877
 20
8.871506764574132
  0
LWPOLYLINE
  5
46
100
AcDbEntity
  8
USP-GEO
100
AcDbPolyline
 90
        2
 70
   129
 43
0.0
 10
7.117199705808525
 20
1.905225529026537
 10
5.789693925997399
 20
0.3268298082083874
  0
LWPOLYLINE
  5
47
100
AcDbEntity
  8
USP-GEO
100
AcDbPolyline
 90
       96
 70
   128
 43
0.0
 10
5.71279279465425
 20
4.54197306995479
 10
5.71279279465425
 20
4.522747787119003
 10
5.71279279465425
 20
4.483335957305639
 10
5.71279279465425
 20
4.464110674469852
 10
5.789693925997399
 20
4.464110674469852
 10
5.789693925997399
 20
4.483335957305639
 10
5.789693925997399
 20
4.522747787119003
 10
5.789693925997399
 20
4.54197306995479
 10
5.789693925997399
 20
5.041830423685265
 10
5.71279279465425
 20
5.041830423685265
 10
5.71279279465425
 20
4.54197306995479
 10
5.789693925997399
 20
4.54197306995479
 10
5.789693925997399
 20
5.041830423685265
 10
5.789693925997399
 20
5.061055706521052
 10
5.789693925997399
 20
5.099506272192629
 10
5.789693925997399
 20
5.118731555028416
 10
5.789693925997399
 20
5.426336080401016
 10
5.71279279465425
 20
5.426336080401016
 10
5.71279279465425
 20
5.118731555028416
 10
5.789693925997399
 20
5.118731555028416
 10
5.789693925997399
 20
5.426336080401016
 10
5.789693925997399
 20
5.464786646072591
 10
5.789693925997399
 20
5.484011928908378
 10
5.789693925997399
 20
5.523423758721742
 10
5.789693925997399
 20
6.004055829616429
 10
5.71279279465425
 20
6.004055829616429
 10
5.71279279465425
 20
5.523423758721742
 10
5.789693925997399
 20
5.523423758721742
 10
5.789693925997399
 20
6.004055829616429
 10
5.789693925997399
 20
6.023281112452217
 10
5.789693925997399
 20
6.061731678123791
 10
5.789693925997399
 20
6.080956960959579
 10
5.789693925997399
 20
6.330885637824817
 10
5.789693925997399
 20
6.369336203496391
 10
5.789693925997399
 20
6.388561486332179
 10
5.789693925997399
 20
6.427012052003753
 10
5.71279279465425
 20
6.427012052003753
 10
5.71279279465425
 20
6.388561486332179
 10
5.71279279465425
 20
6.369336203496391
 10
5.71279279465425
 20
6.330885637824817
 10
5.789693925997399
 20
6.330885637824817
 10
5.789693925997399
 20
6.369336203496391
 10
5.789693925997399
 20
6.388561486332179
 10
5.789693925997399
 20
6.427012052003753
 10
5.789693925997399
 20
6.90860538704023
 10
5.71279279465425
 20
6.90860538704023
 10
5.71279279465425
 20
6.427012052003753
 10
5.71279279465425
 20
6.90860538704023
 10
5.71279279465425
 20
6.947055952711805
 10
5.71279279465425
 20
6.966281235547592
 10
5.71279279465425
 20
7.004731801219168
 10
5.71279279465425
 20
7.312336326591767
 10
5.71279279465425
 20
7.331561609427554
 10
5.71279279465425
 20
7.37001217509913
 10
5.71279279465425
 20
7.389237457934918
 10
5.71279279465425
 20
7.890056075807182
 10
5.71279279465425
 20
7.389237457934918
 10
5.71279279465425
 20
7.37001217509913
 10
5.71279279465425
 20
7.331561609427554
 10
5.71279279465425
 20
7.312336326591767
 10
5.789693925997399
 20
7.312336326591767
 10
5.789693925997399
 20
7.331561609427554
 10
5.789693925997399
 20
7.37001217509913
 10
5.789693925997399
 20
7.389237457934918
 10
5.789693925997399
 20
7.890056075807182
 10
5.789693925997399
 20
7.909281358642969
 10
5.789693925997399
 20
7.928506641478756
 10
5.789693925997399
 20
7.966957207150331
 10
5.789693925997399
 20
8.216885884015567
 10
5.789693925997399
 20
8.255336449687144
 10
5.789693925997399
 20
8.274561732522931
 10
5.789693925997399
 20
8.293787015358718
 10
5.789693925997399
 20
8.794605633230982
 10
5.789693925997399
 20
8.81383091606677
 10
5.789693925997399
 20
8.852281481738344
 10
5.789693925997399
 20
8.871506764574132
 10
5.789693925997399
 20
9.159886007110944
 10
7.791045869202877
 20
9.159886007110944
 10
7.791045869202877
 20
8.871506764574132
 10
7.791045869202877
 20
8.852281481738344
 10
7.771820586367089
 20
8.81383091606677
 10
7.752595303531302
 20
8.794605633230982
 10
7.309452534166398
 20
8.293787015358718
 10
7.290227251330611
 20
8.274561732522931
 10
7.290227251330611
 20
8.255336449687144
 10
7.290227251330611
 20
8.216885884015567
 10
7.290227251330611
 20
7.966957207150331
 10
7.290227251330611
 20
7.928506641478756
 10
7.290227251330611
 20
7.909281358642969
 10
7.309452534166398
 20
7.890056075807182
 10
7.752595303531302
 20
7.389237457934918
 10
7.771820586367089
 20
7.37001217509913
 10
7.791045869202877
 20
7.331561609427554
 10
7.791045869202877
 20
7.312336326591767
 10
7.791045869202877
 20
7.004731801219168
 10
7.791045869202877
 20
7.312336326591767
  0
LWPOLYLINE
  5
48
100
AcDbEntity
  8
USP-GEO
100
AcDbPolyline
 90
       50
 70
   128
 43
0.0
 10
2.000390679063686
 20
0.134576979850511
 10
2.000390679063686
 20
0.1730275455220855
 10
2.000390679063686
 20
0.1922528283578728
 10
2.000390679063686
 20
0.2114781111936601
 10
2.000390679063686
 20
1.905225529026537
 10
2.000390679063686
 20
2.059027791712837
 10
2.000390679063686
 20
2.212830054399137
 10
2.000390679063686
 20
2.385857599921225
 10
2.000390679063686
 20
4.464110674469852
 10
2.000390679063686
 20
4.483335957305639
 10
2.000390679063686
 20
4.522747787119003
 10
2.000390679063686
 20
4.54197306995479
 10
2.000390679063686
 20
5.041830423685265
 10
2.000390679063686
 20
5.061055706521052
 10
2.000390679063686
 20
5.099506272192629
 10
2.000390679063686
 20
5.118731555028416
 10
2.000390679063686
 20
5.426336080401016
 10
2.000390679063686
 20
5.464786646072591
 10
2.000390679063686
 20
5.484011928908378
 10
2.000390679063686
 20
5.523423758721742
 10
2.000390679063686
 20
6.004055829616429
 10
2.000390679063686
 20
6.023281112452217
 10
2.000390679063686
 20
6.061731678123791
 10
2.000390679063686
 20
6.080956960959579
 10
2.000390679063686
 20
6.330885637824817
 10
2.000390679063686
 20
6.369336203496391
 10
2.000390679063686
 20
6.388561486332179
 10
2.000390679063686
 20
6.427012052003753
 10
2.000390679063686
 20
6.90860538704023
 10
2.000390679063686
 20
6.947055952711805
 10
2.000390679063686
 20
6.966281235547592
 10
2.000390679063686
 20
7.004731801219168
 10
2.000390679063686
 20
7.312336326591767
 10
2.000390679063686
 20
7.331561609427554
 10
2.000390679063686
 20
7.37001217509913
 10
2.000390679063686
 20
7.389237457934918
 10
2.000390679063686
 20
7.890056075807182
 10
2.000390679063686
 20
7.909281358642969
 10
2.000390679063686
 20
7.928506641478756
 10
2.000390679063686
 20
7.966957207150331
 10
2.000390679063686
 20
8.216885884015567
 10
2.000390679063686
 20
8.255336449687144
 10
2.000390679063686
 20
8.274561732522931
 10
2.000390679063686
 20
8.293787015358718
 10
2.000390679063686
 20
8.794605633230982
 10
2.000390679063686
 20
8.81383091606677
 10
2.000390679063686
 20
8.852281481738344
 10
2.000390679063686
 20
8.871506764574132
 10
2.000390679063686
 20
9.159886007110944
 10
0.0
 20
9.159886007110944
  0
LWPOLYLINE
  5
49
100
AcDbEntity
  8
USP-GEO
100
AcDbPolyline
 90
        2
 70
   128
 43
0.0
 10
0.4806320708946874
 20
6.004055829616429
 10
0.0384505656715746
 20
5.523423758721742
  0
LWPOLYLINE
  5
4A
100
AcDbEntity
  8
USP-GEO
100
AcDbPolyline
 90
        2
 70
   128
 43
0.0
 10
0.0384505656715746
 20
6.90860538704023
 10
0.4806320708946874
 20
6.427012052003753
  0
LWPOLYLINE
  5
4B
100
AcDbEntity
  8
USP-GEO
100
AcDbPolyline
 90
        2
 70
   128
 43
0.0
 10
0.0384505656715746
 20
5.041830423685265
 10
0.4806320708946874
 20
4.54197306995479
  0
LWPOLYLINE
  5
4C
100
AcDbEntity
  8
USP-GEO
100
AcDbPolyline
 90
       51
 70
   128
 43
0.0
 10
0.0
 20
9.159886007110944
 10
2.000390679063686
 20
9.159886007110944
 10
2.077291810406835
 20
9.159886007110944
 10
2.077291810406835
 20
8.871506764574132
 10
2.077291810406835
 20
8.852281481738344
 10
2.077291810406835
 20
8.81383091606677
 10
2.077291810406835
 20
8.794605633230982
 10
2.077291810406835
 20
8.293787015358718
 10
2.077291810406835
 20
8.274561732522931
 10
2.077291810406835
 20
8.255336449687144
 10
2.077291810406835
 20
8.216885884015567
 10
2.077291810406835
 20
7.966957207150331
 10
2.077291810406835
 20
7.928506641478756
 10
2.077291810406835
 20
7.909281358642969
 10
2.077291810406835
 20
7.890056075807182
 10
2.077291810406835
 20
7.389237457934918
 10
2.077291810406835
 20
7.37001217509913
 10
2.077291810406835
 20
7.331561609427554
 10
2.077291810406835
 20
7.312336326591767
 10
2.077291810406835
 20
7.004731801219168
 10
2.077291810406835
 20
6.966281235547592
 10
2.077291810406835
 20
6.947055952711805
 10
2.077291810406835
 20
6.90860538704023
 10
2.077291810406835
 20
6.427012052003753
 10
2.077291810406835
 20
6.388561486332179
 10
2.077291810406835
 20
6.369336203496391
 10
2.077291810406835
 20
6.330885637824817
 10
2.077291810406835
 20
6.080956960959579
 10
2.077291810406835
 20
6.061731678123791
 10
2.077291810406835
 20
6.023281112452217
 10
2.077291810406835
 20
6.004055829616429
 10
2.077291810406835
 20
5.523423758721742
 10
2.077291810406835
 20
5.484011928908378
 10
2.077291810406835
 20
5.464786646072591
 10
2.077291810406835
 20
5.426336080401016
 10
2.077291810406835
 20
5.118731555028416
 10
2.077291810406835
 20
5.099506272192629
 10
2.077291810406835
 20
5.061055706521052
 10
2.077291810406835
 20
5.041830423685265
 10
2.077291810406835
 20
4.54197306995479
 10
2.077291810406835
 20
4.522747787119003
 10
2.077291810406835
 20
4.483335957305639
 10
2.077291810406835
 20
4.464110674469852
 10
2.077291810406835
 20
2.385857599921225
 10
2.077291810406835
 20
2.212830054399137
 10
2.077291810406835
 20
2.059027791712837
 10
2.077291810406835
 20
1.905225529026537
 10
2.077291810406835
 20
0.2114781111936601
 10
2.077291810406835
 20
0.1922528283578728
 10
2.077291810406835
 20
0.1730275455220855
 10
2.077291810406835
 20
0.134576979850511
  0
LWPOLYLINE
  5
4D
100
AcDbEntity
  8
USP-GEO
100
AcDbPolyline
 90
       28
 70
   128
 43
0.0
 10
0.6921101820883476
 20
1.905225529026537
 10
0.5959837679094111
 20
2.059027791712837
 10
0.5383079194020493
 20
2.212830054399137
 10
0.4998573537304747
 20
2.385857599921225
 10
0.4998573537304747
 20
4.464110674469852
 10
0.4998573537304747
 20
4.483335957305639
 10
0.4998573537304747
 20
4.522747787119003
 10
0.4806320708946874
 20
4.54197306995479
 10
0.0384505656715746
 20
5.041830423685265
 10
0.0192252828357873
 20
5.061055706521052
 10
0.0192252828357873
 20
5.099506272192629
 10
0.0
 20
5.118731555028416
 10
0.0
 20
5.426336080401016
 10
0.0192252828357873
 20
5.464786646072591
 10
0.0192252828357873
 20
5.484011928908378
 10
0.0384505656715746
 20
5.523423758721742
 10
0.4806320708946874
 20
6.004055829616429
 10
0.4998573537304747
 20
6.023281112452217
 10
0.4998573537304747
 20
6.061731678123791
 10
0.4998573537304747
 20
6.080956960959579
 10
0.4998573537304747
 20
6.330885637824817
 10
0.4998573537304747
 20
6.369336203496391
 10
0.4998573537304747
 20
6.388561486332179
 10
0.4806320708946874
 20
6.427012052003753
 10
0.0384505656715746
 20
6.90860538704023
 10
0.0192252828357873
 20
6.947055952711805
 10
0.0192252828357873
 20
6.966281235547592
 10
0.0
 20
7.004731801219168
  0
LWPOLYLINE
  5
4E
100
AcDbEntity
  8
USP-GEO
100
AcDbPolyline
 90
        2
 70
   129
 43
0.0
 10
0.0384505656715746
 20
7.389237457934918
 10
0.4806320708946874
 20
7.890056075807182
  0
LWPOLYLINE
  5
4F
100
AcDbEntity
  8
USP-GEO
100
AcDbPolyline
 90
        2
 70
   129
 43
0.0
 10
0.4806320708946874
 20
8.293787015358718
 10
0.0384505656715746
 20
8.794605633230982
  0
LWPOLYLINE
  5
50
100
AcDbEntity
  8
USP-GEO
100
AcDbPolyline
 90
        2
 70
   128
 43
0.0
 10
0.0
 20
5.426336080401016
 10
0.0
 20
5.118731555028416
  0
LWPOLYLINE
  5
51
100
AcDbEntity
  8
USP-GEO
100
AcDbPolyline
 90
        2
 70
   129
 43
0.0
 10
0.0
 20
7.004731801219168
 10
0.0
 20
7.312336326591767
  0
LWPOLYLINE
  5
52
100
AcDbEntity
  8
USP-GEO
100
AcDbPolyline
 90
        4
 70
   128
 43
0.0
 10
0.0384505656715746
 20
7.389237457934918
 10
0.0192252828357873
 20
7.37001217509913
 10
0.0192252828357873
 20
7.331561609427554
 10
0.0
 20
7.312336326591767
  0
LWPOLYLINE
  5
53
100
AcDbEntity
  8
USP-GEO
100
AcDbPolyline
 90
        2
 70
   129
 43
0.0
 10
0.0
 20
8.871506764574132
 10
0.0
 20
9.159886007110944
  0
LWPOLYLINE
  5
54
100
AcDbEntity
  8
USP-GEO
100
AcDbPolyline
 90
        4
 70
   128
 43
0.0
 10
0.0384505656715746
 20
8.794605633230982
 10
0.0192252828357873
 20
8.81383091606677
 10
0.0192252828357873
 20
8.852281481738344
 10
0.0
 20
8.871506764574132
  0
LWPOLYLINE
  5
55
100
AcDbEntity
  8
USP-GEO
100
AcDbPolyline
 90
       13
 70
   128
 43
0.0
 10
2.000390679063686
 20
8.871506764574132
 10
2.077291810406835
 20
8.871506764574132
 10
2.077291810406835
 20
8.852281481738344
 10
2.077291810406835
 20
8.81383091606677
 10
2.077291810406835
 20
8.794605633230982
 10
2.000390679063686
 20
8.794605633230982
 10
2.000390679063686
 20
8.293787015358718
 10
2.000390679063686
 20
8.274561732522931
 10
2.000390679063686
 20
8.255336449687144
 10
2.000390679063686
 20
8.216885884015567
 10
2.000390679063686
 20
7.966957207150331
 10
2.077291810406835
 20
7.966957207150331
 10
2.077291810406835
 20
8.216885884015567
  0
LWPOLYLINE
  5
56
100
AcDbEntity
  8
USP-GEO
100
AcDbPolyline
 90
       13
 70
   128
 43
0.0
 10
5.71279279465425
 20
7.966957207150331
 10
5.71279279465425
 20
8.216885884015567
 10
5.71279279465425
 20
8.255336449687144
 10
5.71279279465425
 20
8.274561732522931
 10
5.71279279465425
 20
8.293787015358718
 10
5.71279279465425
 20
8.794605633230982
 10
5.71279279465425
 20
8.81383091606677
 10
5.71279279465425
 20
8.852281481738344
 10
5.71279279465425
 20
8.871506764574132
 10
5.71279279465425
 20
9.159886007110944
 10
5.789693925997399
 20
9.159886007110944
 10
5.71279279465425
 20
9.159886007110944
 10
5.71279279465425
 20
8.871506764574132
  0
LWPOLYLINE
  5
57
100
AcDbEntity
  8
USP-GEO
100
AcDbPolyline
 90
        3
 70
   128
 43
0.0
 10
5.789693925997399
 20
8.216885884015567
 10
5.71279279465425
 20
8.216885884015567
 10
5.71279279465425
 20
7.966957207150331
  0
LWPOLYLINE
  5
58
100
AcDbEntity
  8
USP-GEO
100
AcDbPolyline
 90
        8
 70
   128
 43
0.0
 10
0.4806320708946874
 20
8.293787015358718
 10
0.4998573537304747
 20
8.274561732522931
 10
0.4998573537304747
 20
8.255336449687144
 10
0.4998573537304747
 20
8.216885884015567
 10
0.4998573537304747
 20
7.966957207150331
 10
0.4998573537304747
 20
7.928506641478756
 10
0.4998573537304747
 20
7.909281358642969
 10
0.4806320708946874
 20
7.890056075807182
  0
LWPOLYLINE
  5
59
100
AcDbEntity
  8
USP-GEO
100
AcDbPolyline
 90
        2
 70
   128
 43
0.0
 10
0.4998573537304747
 20
8.216885884015567
 10
0.4998573537304747
 20
7.966957207150331
  0
LWPOLYLINE
  5
5A
100
AcDbEntity
  8
USP-GEO
100
AcDbPolyline
 90
       19
 70
   128
 43
0.0
 10
3.154868913352723
 20
0.0
 10
3.154868913352723
 20
0.0769011313431491
 10
2.077291810406835
 20
0.0769011313431491
 10
3.154868913352723
 20
0.0769011313431491
 10
3.193319479024301
 20
0.0769011313431491
 10
3.231770044695876
 20
0.0769011313431491
 10
3.308671176039025
 20
0.0769011313431491
 10
3.3471217417106
 20
0.0769011313431491
 10
3.385572307382174
 20
0.0769011313431491
 10
3.404797590217961
 20
0.0769011313431491
 10
4.404512297678911
 20
0.0769011313431491
 10
4.442962863350485
 20
0.0769011313431491
 10
4.48141342902206
 20
0.0769011313431491
 10
4.559275824506999
 20
0.0769011313431491
 10
4.597726390178577
 20
0.0769011313431491
 10
4.636176955850151
 20
0.0769011313431491
 10
4.655402238685939
 20
0.0769011313431491
 10
5.71279279465425
 20
0.0769011313431491
 10
4.655402238685939
 20
0.0769011313431491
  0
LWPOLYLINE
  5
5B
100
AcDbEntity
  8
USP-GEO
100
AcDbPolyline
 90
       37
 70
   128
 43
0.0
 10
5.71279279465425
 20
0.134576979850511
 10
5.789693925997399
 20
0.134576979850511
 10
5.789693925997399
 20
0.0
 10
4.655402238685939
 20
0.0
 10
4.636176955850151
 20
0.0
 10
4.597726390178577
 20
0.0
 10
4.559275824506999
 20
0.0
 10
4.48141342902206
 20
0.0
 10
4.442962863350485
 20
0.0
 10
4.404512297678911
 20
0.0
 10
3.404797590217961
 20
0.0
 10
3.385572307382174
 20
0.0
 10
3.3471217417106
 20
0.0
 10
3.308671176039025
 20
0.0
 10
3.231770044695876
 20
0.0
 10
3.193319479024301
 20
0.0
 10
3.154868913352723
 20
0.0
 10
2.000390679063686
 20
0.0
 10
3.154868913352723
 20
0.0
 10
3.193319479024301
 20
0.0
 10
3.231770044695876
 20
0.0
 10
3.308671176039025
 20
0.0
 10
3.3471217417106
 20
0.0
 10
3.385572307382174
 20
0.0
 10
3.404797590217961
 20
0.0
 10
4.404512297678911
 20
0.0
 10
4.442962863350485
 20
0.0
 10
4.48141342902206
 20
0.0
 10
4.559275824506999
 20
0.0
 10
4.597726390178577
 20
0.0
 10
4.636176955850151
 20
0.0
 10
4.655402238685939
 20
0.0
 10
4.655402238685939
 20
0.0769011313431491
 10
4.636176955850151
 20
0.0769011313431491
 10
4.597726390178577
 20
0.0769011313431491
 10
4.559275824506999
 20
0.0769011313431491
 10
4.559275824506999
 20
0.0
  0
LWPOLYLINE
  5
5C
100
AcDbEntity
  8
USP-GEO
100
AcDbPolyline
 90
        2
 70
   129
 43
0.0
 10
2.000390679063686
 20
0.3268298082083874
 10
0.6921101820883476
 20
1.905225529026537
  0
LWPOLYLINE
  5
5D
100
AcDbEntity
  8
USP-GEO
100
AcDbPolyline
 90
       12
 70
   129
 43
0.0
 10
0.7113354649241348
 20
3.887352189396228
 10
0.7305607477599257
 20
3.925802755067802
 10
0.7690113134315002
 20
3.964253320739377
 10
0.8074618791030747
 20
3.983478603575164
 10
0.8459124447746493
 20
3.964253320739377
 10
0.8843630104462238
 20
3.925802755067802
 10
0.9035882932820111
 20
3.887352189396228
 10
0.8843630104462238
 20
3.848901623724653
 10
0.8459124447746493
 20
3.810451058053077
 10
0.8074618791030747
 20
3.79122577521729
 10
0.7690113134315002
 20
3.810451058053077
 10
0.7305607477599257
 20
3.848901623724653
  0
LWPOLYLINE
  5
5E
100
AcDbEntity
  8
USP-GEO
100
AcDbPolyline
 90
        2
 70
   128
 43
0.0
 10
0.4998573537304747
 20
4.464110674469852
 10
0.4998573537304747
 20
2.385857599921225
  0
LWPOLYLINE
  5
5F
100
AcDbEntity
  8
USP-GEO
100
AcDbPolyline
 90
        2
 70
   128
 43
0.0
 10
0.8459124447746493
 20
3.098154328987151
 10
0.8843630104462238
 20
3.059703763315576
  0
LWPOLYLINE
  5
60
100
AcDbEntity
  8
USP-GEO
100
AcDbPolyline
 90
       12
 70
   129
 43
0.0
 10
0.8074618791030747
 20
2.925126783465064
 10
0.8459124447746493
 20
2.944352066300851
 10
0.8843630104462238
 20
2.963577349136638
 10
0.9035882932820111
 20
3.021253197644002
 10
0.8843630104462238
 20
3.059703763315576
 10
0.8459124447746493
 20
3.098154328987151
 10
0.8074618791030747
 20
3.098154328987151
 10
0.7690113134315002
 20
3.098154328987151
 10
0.7305607477599257
 20
3.059703763315576
 10
0.7113354649241348
 20
3.021253197644002
 10
0.7305607477599257
 20
2.963577349136638
 10
0.7690113134315002
 20
2.944352066300851
  0
LWPOLYLINE
  5
61
100
AcDbEntity
  8
USP-GEO
100
AcDbPolyline
 90
        2
 70
   128
 43
0.0
 10
0.7690113134315002
 20
2.944352066300851
 10
0.7305607477599257
 20
2.963577349136638
  0
LWPOLYLINE
  5
62
100
AcDbEntity
  8
USP-GEO
100
AcDbPolyline
 90
       12
 70
   129
 43
0.0
 10
1.42363219399006
 20
1.520719872310788
 10
1.42363219399006
 20
1.559170437982363
 10
1.462082759661639
 20
1.597621003653939
 10
1.500533325333213
 20
1.597621003653939
 10
1.558209173840575
 20
1.597621003653939
 10
1.59665973951215
 20
1.559170437982363
 10
1.59665973951215
 20
1.520719872310788
 10
1.59665973951215
 20
1.463044023803426
 10
1.558209173840575
 20
1.443818740967639
 10
1.500533325333213
 20
1.423632193990062
 10
1.462082759661639
 20
1.443818740967639
 10
1.42363219399006
 20
1.463044023803426
  0
LWPOLYLINE
  5
63
100
AcDbEntity
  8
USP-GEO
100
AcDbPolyline
 90
        2
 70
   128
 43
0.0
 10
1.462082759661639
 20
1.443818740967639
 10
1.42363219399006
 20
1.463044023803426
  0
LWPOLYLINE
  5
64
100
AcDbEntity
  8
USP-GEO
100
AcDbPolyline
 90
        2
 70
   128
 43
0.0
 10
1.558209173840575
 20
1.597621003653939
 10
1.59665973951215
 20
1.559170437982363
  0
LWPOLYLINE
  5
65
100
AcDbEntity
  8
USP-GEO
100
AcDbPolyline
 90
       12
 70
   129
 43
0.0
 10
1.42363219399006
 20
2.385857599921225
 10
1.42363219399006
 20
2.424308165592799
 10
1.462082759661639
 20
2.463719995406165
 10
1.500533325333213
 20
2.482945278241952
 10
1.558209173840575
 20
2.463719995406165
 10
1.59665973951215
 20
2.424308165592799
 10
1.59665973951215
 20
2.385857599921225
 10
1.59665973951215
 20
2.34740703424965
 10
1.558209173840575
 20
2.308956468578076
 10
1.500533325333213
 20
2.289731185742288
 10
1.462082759661639
 20
2.308956468578076
 10
1.42363219399006
 20
2.34740703424965
  0
LWPOLYLINE
  5
66
100
AcDbEntity
  8
USP-GEO
100
AcDbPolyline
 90
        2
 70
   128
 43
0.0
 10
1.462082759661639
 20
2.308956468578076
 10
1.42363219399006
 20
2.34740703424965
  0
LWPOLYLINE
  5
67
100
AcDbEntity
  8
USP-GEO
100
AcDbPolyline
 90
        2
 70
   128
 43
0.0
 10
1.558209173840575
 20
2.463719995406165
 10
1.59665973951215
 20
2.424308165592799
  0
LWPOLYLINE
  5
68
100
AcDbEntity
  8
USP-GEO
100
AcDbPolyline
 90
       12
 70
   129
 43
0.0
 10
1.42363219399006
 20
3.271181874509238
 10
1.42363219399006
 20
3.309632440180813
 10
1.462082759661639
 20
3.348083005852389
 10
1.500533325333213
 20
3.348083005852389
 10
1.558209173840575
 20
3.348083005852389
 10
1.59665973951215
 20
3.309632440180813
 10
1.59665973951215
 20
3.271181874509238
 10
1.59665973951215
 20
3.213506026001876
 10
1.558209173840575
 20
3.194280743166089
 10
1.500533325333213
 20
3.175055460330302
 10
1.462082759661639
 20
3.194280743166089
 10
1.42363219399006
 20
3.213506026001876
  0
LWPOLYLINE
  5
69
100
AcDbEntity
  8
USP-GEO
100
AcDbPolyline
 90
        2
 70
   128
 43
0.0
 10
1.462082759661639
 20
3.194280743166089
 10
1.42363219399006
 20
3.213506026001876
  0
LWPOLYLINE
  5
6A
100
AcDbEntity
  8
USP-GEO
100
AcDbPolyline
 90
        2
 70
   128
 43
0.0
 10
1.558209173840575
 20
3.348083005852389
 10
1.59665973951215
 20
3.309632440180813
  0
LWPOLYLINE
  5
6B
100
AcDbEntity
  8
USP-GEO
100
AcDbPolyline
 90
        2
 70
   129
 43
0.0
 10
0.8843630104462238
 20
7.446913306442279
 10
0.8459124447746493
 20
7.466138589278067
  0
LWPOLYLINE
  5
6C
100
AcDbEntity
  8
USP-GEO
100
AcDbPolyline
 90
       12
 70
   129
 43
0.0
 10
0.7113354649241348
 20
4.772676463984241
 10
0.7305607477599257
 20
4.811127029655816
 10
0.7690113134315002
 20
4.84957759532739
 10
0.8074618791030747
 20
4.84957759532739
 10
0.8459124447746493
 20
4.84957759532739
 10
0.8843630104462238
 20
4.811127029655816
 10
0.9035882932820111
 20
4.772676463984241
 10
0.8843630104462238
 20
4.715000615476878
 10
0.8459124447746493
 20
4.69577533264109
 10
0.8074618791030747
 20
4.676550049805303
 10
0.7690113134315002
 20
4.69577533264109
 10
0.7305607477599257
 20
4.715000615476878
  0
LWPOLYLINE
  5
6D
100
AcDbEntity
  8
USP-GEO
100
AcDbPolyline
 90
       12
 70
   129
 43
0.0
 10
0.7113354649241348
 20
5.638775455736467
 10
0.7305607477599257
 20
5.696451304243829
 10
0.7690113134315002
 20
5.715676587079617
 10
0.8074618791030747
 20
5.734901869915404
 10
0.8459124447746493
 20
5.715676587079617
 10
0.8843630104462238
 20
5.696451304243829
 10
0.9035882932820111
 20
5.638775455736467
 10
0.8843630104462238
 20
5.600324890064891
 10
0.8459124447746493
 20
5.561874324393317
 10
0.8074618791030747
 20
5.542649041557529
 10
0.7690113134315002
 20
5.561874324393317
 10
0.7305607477599257
 20
5.600324890064891
  0
LWPOLYLINE
  5
6E
100
AcDbEntity
  8
USP-GEO
100
AcDbPolyline
 90
       12
 70
   129
 43
0.0
 10
0.7113354649241348
 20
6.523138466182691
 10
0.7305607477599257
 20
6.562550295996055
 10
0.7690113134315002
 20
6.60100086166763
 10
0.8074618791030747
 20
6.60100086166763
 10
0.8459124447746493
 20
6.60100086166763
 10
0.8843630104462238
 20
6.562550295996055
 10
0.9035882932820111
 20
6.523138466182691
 10
0.8843630104462238
 20
6.46546261767533
 10
0.8459124447746493
 20
6.44623733483954
 10
0.8074618791030747
 20
6.427012052003753
 10
0.7690113134315002
 20
6.44623733483954
 10
0.7305607477599257
 20
6.46546261767533
  0
LWPOLYLINE
  5
6F
100
AcDbEntity
  8
USP-GEO
100
AcDbPolyline
 90
        6
 70
   128
 43
0.0
 10
0.8843630104462238
 20
7.446913306442279
 10
0.9035882932820111
 20
7.389237457934918
 10
0.8843630104462238
 20
7.350786892263343
 10
0.8459124447746493
 20
7.312336326591767
 10
0.8074618791030747
 20
7.312336326591767
 10
0.7690113134315002
 20
7.312336326591767
  0
LWPOLYLINE
  5
70
100
AcDbEntity
  8
USP-GEO
100
AcDbPolyline
 90
        2
 70
   128
 43
0.0
 10
0.8459124447746493
 20
6.60100086166763
 10
0.8843630104462238
 20
6.562550295996055
  0
LWPOLYLINE
  5
71
100
AcDbEntity
  8
USP-GEO
100
AcDbPolyline
 90
        2
 70
   128
 43
0.0
 10
0.8459124447746493
 20
5.715676587079617
 10
0.8843630104462238
 20
5.696451304243829
  0
LWPOLYLINE
  5
72
100
AcDbEntity
  8
USP-GEO
100
AcDbPolyline
 90
        2
 70
   128
 43
0.0
 10
0.8459124447746493
 20
3.964253320739377
 10
0.8843630104462238
 20
3.925802755067802
  0
LWPOLYLINE
  5
73
100
AcDbEntity
  8
USP-GEO
100
AcDbPolyline
 90
       12
 70
   129
 43
0.0
 10
0.2307033940294492
 20
5.195632686371565
 10
0.2691539597010237
 20
5.23408325204314
 10
0.3076045253726001
 20
5.23408325204314
 10
0.3460550910441746
 20
5.23408325204314
 10
0.3845056567157492
 20
5.195632686371565
 10
0.4037309395515365
 20
5.157182120699991
 10
0.3845056567157492
 20
5.099506272192629
 10
0.3460550910441746
 20
5.080280989356841
 10
0.3076045253726001
 20
5.061055706521052
 10
0.2691539597010237
 20
5.080280989356841
 10
0.2307033940294492
 20
5.099506272192629
 10
0.2114781111936619
 20
5.157182120699991
  0
LWPOLYLINE
  5
74
100
AcDbEntity
  8
USP-GEO
100
AcDbPolyline
 90
        2
 70
   128
 43
0.0
 10
0.2691539597010237
 20
5.080280989356841
 10
0.2307033940294492
 20
5.099506272192629
  0
LWPOLYLINE
  5
75
100
AcDbEntity
  8
USP-GEO
100
AcDbPolyline
 90
        2
 70
   128
 43
0.0
 10
0.3460550910441746
 20
5.23408325204314
 10
0.3845056567157492
 20
5.195632686371565
  0
LWPOLYLINE
  5
76
100
AcDbEntity
  8
USP-GEO
100
AcDbPolyline
 90
        2
 70
   128
 43
0.0
 10
0.4998573537304747
 20
4.522747787119003
 10
0.4998573537304747
 20
4.483335957305639
  0
LWPOLYLINE
  5
77
100
AcDbEntity
  8
USP-GEO
100
AcDbPolyline
 90
        2
 70
   128
 43
0.0
 10
0.8459124447746493
 20
4.69577533264109
 10
0.8074618791030747
 20
4.676550049805303
  0
LWPOLYLINE
  5
78
100
AcDbEntity
  8
USP-GEO
100
AcDbPolyline
 90
        2
 70
   128
 43
0.0
 10
0.7113354649241348
 20
3.887352189396228
 10
0.7305607477599257
 20
3.925802755067802
  0
LWPOLYLINE
  5
79
100
AcDbEntity
  8
USP-GEO
100
AcDbPolyline
 90
        2
 70
   128
 43
0.0
 10
0.7690113134315002
 20
5.561874324393317
 10
0.7305607477599257
 20
5.600324890064891
  0
LWPOLYLINE
  5
7A
100
AcDbEntity
  8
USP-GEO
100
AcDbPolyline
 90
       12
 70
   129
 43
0.0
 10
0.2691539597010237
 20
6.985506518383379
 10
0.2307033940294492
 20
6.947055952711805
 10
0.2114781111936619
 20
6.90860538704023
 10
0.2307033940294492
 20
6.850929538532868
 10
0.2691539597010237
 20
6.831704255697081
 10
0.3076045253726001
 20
6.812478972861292
 10
0.3460550910441746
 20
6.831704255697081
 10
0.3845056567157492
 20
6.850929538532868
 10
0.4037309395515365
 20
6.90860538704023
 10
0.3845056567157492
 20
6.947055952711805
 10
0.3460550910441746
 20
6.985506518383379
 10
0.3076045253726001
 20
6.985506518383379
  0
LWPOLYLINE
  5
7B
100
AcDbEntity
  8
USP-GEO
100
AcDbPolyline
 90
        2
 70
   128
 43
0.0
 10
0.2114781111936619
 20
6.90860538704023
 10
0.2307033940294492
 20
6.947055952711805
  0
LWPOLYLINE
  5
7C
100
AcDbEntity
  8
USP-GEO
100
AcDbPolyline
 90
        2
 70
   128
 43
0.0
 10
0.3460550910441746
 20
6.985506518383379
 10
0.3845056567157492
 20
6.947055952711805
  0
LWPOLYLINE
  5
7D
100
AcDbEntity
  8
USP-GEO
100
AcDbPolyline
 90
        2
 70
   128
 43
0.0
 10
0.4998573537304747
 20
6.330885637824817
 10
0.4998573537304747
 20
6.080956960959579
  0
LWPOLYLINE
  5
7E
100
AcDbEntity
  8
USP-GEO
100
AcDbPolyline
 90
        2
 70
   128
 43
0.0
 10
0.7690113134315002
 20
6.44623733483954
 10
0.7305607477599257
 20
6.46546261767533
  0
LWPOLYLINE
  5
7F
100
AcDbEntity
  8
USP-GEO
100
AcDbPolyline
 90
        6
 70
   128
 43
0.0
 10
0.7305607477599257
 20
7.350786892263343
 10
0.7113354649241348
 20
7.389237457934918
 10
0.7305607477599257
 20
7.446913306442279
 10
0.7690113134315002
 20
7.466138589278067
 10
0.8074618791030747
 20
7.485363872113854
 10
0.8459124447746493
 20
7.466138589278067
  0
LWPOLYLINE
  5
80
100
AcDbEntity
  8
USP-GEO
100
AcDbPolyline
 90
        2
 70
   129
 43
0.0
 10
0.7305607477599257
 20
7.350786892263343
 10
0.7690113134315002
 20
7.312336326591767
  0
LWPOLYLINE
  5
81
100
AcDbEntity
  8
USP-GEO
100
AcDbPolyline
 90
       12
 70
   129
 43
0.0
 10
1.42363219399006
 20
5.850253566930129
 10
1.42363219399006
 20
5.888704132601704
 10
1.42363219399006
 20
5.946379981109068
 10
1.462082759661639
 20
5.965605263944855
 10
1.500533325333213
 20
5.984830546780642
 10
1.558209173840575
 20
5.965605263944855
 10
1.59665973951215
 20
5.946379981109068
 10
1.59665973951215
 20
5.888704132601704
 10
1.59665973951215
 20
5.850253566930129
 10
1.558209173840575
 20
5.811803001258555
 10
1.500533325333213
 20
5.792577718422768
 10
1.462082759661639
 20
5.811803001258555
  0
LWPOLYLINE
  5
82
100
AcDbEntity
  8
USP-GEO
100
AcDbPolyline
 90
        2
 70
   128
 43
0.0
 10
1.558209173840575
 20
5.965605263944855
 10
1.59665973951215
 20
5.946379981109068
  0
LWPOLYLINE
  5
83
100
AcDbEntity
  8
USP-GEO
100
AcDbPolyline
 90
       12
 70
   129
 43
0.0
 10
1.42363219399006
 20
4.137280866261464
 10
1.42363219399006
 20
4.175731431933039
 10
1.462082759661639
 20
4.214181997604615
 10
1.500533325333213
 20
4.233407280440403
 10
1.558209173840575
 20
4.214181997604615
 10
1.59665973951215
 20
4.175731431933039
 10
1.59665973951215
 20
4.137280866261464
 10
1.59665973951215
 20
4.09883030058989
 10
1.558209173840575
 20
4.060379734918315
 10
1.500533325333213
 20
4.041154452082528
 10
1.462082759661639
 20
4.060379734918315
 10
1.42363219399006
 20
4.09883030058989
  0
LWPOLYLINE
  5
84
100
AcDbEntity
  8
USP-GEO
100
AcDbPolyline
 90
        2
 70
   128
 43
0.0
 10
1.42363219399006
 20
4.137280866261464
 10
1.42363219399006
 20
4.175731431933039
  0
LWPOLYLINE
  5
85
100
AcDbEntity
  8
USP-GEO
100
AcDbPolyline
 90
        2
 70
   128
 43
0.0
 10
1.558209173840575
 20
4.214181997604615
 10
1.59665973951215
 20
4.175731431933039
  0
LWPOLYLINE
  5
86
100
AcDbEntity
  8
USP-GEO
100
AcDbPolyline
 90
       12
 70
   129
 43
0.0
 10
1.42363219399006
 20
4.964929292342116
 10
1.42363219399006
 20
5.022605140849478
 10
1.42363219399006
 20
5.061055706521052
 10
1.462082759661639
 20
5.099506272192629
 10
1.500533325333213
 20
5.099506272192629
 10
1.558209173840575
 20
5.099506272192629
 10
1.59665973951215
 20
5.061055706521052
 10
1.59665973951215
 20
5.022605140849478
 10
1.59665973951215
 20
4.964929292342116
 10
1.558209173840575
 20
4.945704009506329
 10
1.500533325333213
 20
4.926478726670541
 10
1.462082759661639
 20
4.945704009506329
  0
LWPOLYLINE
  5
87
100
AcDbEntity
  8
USP-GEO
100
AcDbPolyline
 90
        2
 70
   128
 43
0.0
 10
1.462082759661639
 20
5.811803001258555
 10
1.42363219399006
 20
5.850253566930129
  0
LWPOLYLINE
  5
88
100
AcDbEntity
  8
USP-GEO
100
AcDbPolyline
 90
        2
 70
   128
 43
0.0
 10
1.462082759661639
 20
4.945704009506329
 10
1.42363219399006
 20
4.964929292342116
  0
LWPOLYLINE
  5
89
100
AcDbEntity
  8
USP-GEO
100
AcDbPolyline
 90
        2
 70
   128
 43
0.0
 10
1.558209173840575
 20
5.099506272192629
 10
1.59665973951215
 20
5.061055706521052
  0
LWPOLYLINE
  5
8A
100
AcDbEntity
  8
USP-GEO
100
AcDbPolyline
 90
       12
 70
   129
 43
0.0
 10
1.42363219399006
 20
6.716352558682356
 10
1.42363219399006
 20
6.774028407189717
 10
1.42363219399006
 20
6.812478972861292
 10
1.462082759661639
 20
6.850929538532868
 10
1.500533325333213
 20
6.850929538532868
 10
1.558209173840575
 20
6.850929538532868
 10
1.59665973951215
 20
6.812478972861292
 10
1.59665973951215
 20
6.774028407189717
 10
1.59665973951215
 20
6.716352558682356
 10
1.558209173840575
 20
6.697127275846568
 10
1.500533325333213
 20
6.677901993010781
 10
1.462082759661639
 20
6.697127275846568
  0
LWPOLYLINE
  5
8B
100
AcDbEntity
  8
USP-GEO
100
AcDbPolyline
 90
        2
 70
   128
 43
0.0
 10
1.42363219399006
 20
6.774028407189717
 10
1.42363219399006
 20
6.812478972861292
  0
LWPOLYLINE
  5
8C
100
AcDbEntity
  8
USP-GEO
100
AcDbPolyline
 90
        2
 70
   128
 43
0.0
 10
1.558209173840575
 20
6.850929538532868
 10
1.59665973951215
 20
6.812478972861292
  0
LWPOLYLINE
  5
8D
100
AcDbEntity
  8
USP-GEO
100
AcDbPolyline
 90
        2
 70
   129
 43
0.0
 10
1.42363219399006
 20
7.601676833270369
 10
1.462082759661639
 20
7.563226267598794
  0
LWPOLYLINE
  5
8E
100
AcDbEntity
  8
USP-GEO
100
AcDbPolyline
 90
        6
 70
   128
 43
0.0
 10
1.42363219399006
 20
7.601676833270369
 10
1.42363219399006
 20
7.640127398941944
 10
1.42363219399006
 20
7.697803247449305
 10
1.462082759661639
 20
7.717028530285094
 10
1.500533325333213
 20
7.736253813120882
 10
1.558209173840575
 20
7.717028530285094
  0
LWPOLYLINE
  5
8F
100
AcDbEntity
  8
USP-GEO
100
AcDbPolyline
 90
        2
 70
   129
 43
0.0
 10
1.59665973951215
 20
7.697803247449305
 10
1.558209173840575
 20
7.717028530285094
  0
LWPOLYLINE
  5
90
100
AcDbEntity
  8
USP-GEO
100
AcDbPolyline
 90
        6
 70
   128
 43
0.0
 10
1.59665973951215
 20
7.697803247449305
 10
1.59665973951215
 20
7.640127398941944
 10
1.59665973951215
 20
7.601676833270369
 10
1.558209173840575
 20
7.563226267598794
 10
1.500533325333213
 20
7.563226267598794
 10
1.462082759661639
 20
7.563226267598794
  0
LWPOLYLINE
  5
91
100
AcDbEntity
  8
USP-GEO
100
AcDbPolyline
 90
        4
 70
   128
 43
0.0
 10
2.000390679063686
 20
4.464110674469852
 10
2.000390679063686
 20
2.385857599921225
 10
2.077291810406835
 20
2.385857599921225
 10
2.077291810406835
 20
4.464110674469852
  0
LWPOLYLINE
  5
92
100
AcDbEntity
  8
USP-GEO
100
AcDbPolyline
 90
        4
 70
   129
 43
0.0
 10
2.000390679063686
 20
1.905225529026537
 10
2.000390679063686
 20
0.2114781111936601
 10
2.077291810406835
 20
0.2114781111936601
 10
2.077291810406835
 20
1.905225529026537
  0
LWPOLYLINE
  5
93
100
AcDbEntity
  8
USP-GEO
100
AcDbPolyline
 90
        2
 70
   129
 43
0.0
 10
2.000390679063686
 20
0.0
 10
2.000390679063686
 20
0.134576979850511
  0
LWPOLYLINE
  5
94
100
AcDbEntity
  8
USP-GEO
100
AcDbPolyline
 90
        2
 70
   129
 43
0.0
 10
2.077291810406835
 20
0.134576979850511
 10
2.077291810406835
 20
0.0769011313431491
  0
LWPOLYLINE
  5
95
100
AcDbEntity
  8
USP-GEO
100
AcDbPolyline
 90
        8
 70
   128
 43
0.0
 10
2.000390679063686
 20
0.2114781111936601
 10
2.000390679063686
 20
0.1922528283578728
 10
2.000390679063686
 20
0.1730275455220855
 10
2.000390679063686
 20
0.134576979850511
 10
2.077291810406835
 20
0.134576979850511
 10
2.077291810406835
 20
0.1730275455220855
 10
2.077291810406835
 20
0.1922528283578728
 10
2.077291810406835
 20
0.2114781111936601
  0
LWPOLYLINE
  5
96
100
AcDbEntity
  8
USP-GEO
100
AcDbPolyline
 90
        4
 70
   128
 43
0.0
 10
2.077291810406835
 20
1.905225529026537
 10
2.077291810406835
 20
2.059027791712837
 10
2.077291810406835
 20
2.212830054399137
 10
2.077291810406835
 20
2.385857599921225
  0
LWPOLYLINE
  5
97
100
AcDbEntity
  8
USP-GEO
100
AcDbPolyline
 90
        4
 70
   128
 43
0.0
 10
2.000390679063686
 20
1.905225529026537
 10
2.000390679063686
 20
2.059027791712837
 10
2.000390679063686
 20
2.212830054399137
 10
2.000390679063686
 20
2.385857599921225
  0
LWPOLYLINE
  5
98
100
AcDbEntity
  8
USP-GEO
100
AcDbPolyline
 90
        4
 70
   128
 43
0.0
 10
2.000390679063686
 20
6.004055829616429
 10
2.000390679063686
 20
5.523423758721742
 10
2.077291810406835
 20
5.523423758721742
 10
2.077291810406835
 20
6.004055829616429
  0
LWPOLYLINE
  5
99
100
AcDbEntity
  8
USP-GEO
100
AcDbPolyline
 90
        4
 70
   128
 43
0.0
 10
2.000390679063686
 20
5.041830423685265
 10
2.000390679063686
 20
4.54197306995479
 10
2.077291810406835
 20
4.54197306995479
 10
2.077291810406835
 20
5.041830423685265
  0
LWPOLYLINE
  5
9A
100
AcDbEntity
  8
USP-GEO
100
AcDbPolyline
 90
        8
 70
   128
 43
0.0
 10
2.000390679063686
 20
4.54197306995479
 10
2.000390679063686
 20
4.522747787119003
 10
2.000390679063686
 20
4.483335957305639
 10
2.000390679063686
 20
4.464110674469852
 10
2.077291810406835
 20
4.464110674469852
 10
2.077291810406835
 20
4.483335957305639
 10
2.077291810406835
 20
4.522747787119003
 10
2.077291810406835
 20
4.54197306995479
  0
LWPOLYLINE
  5
9B
100
AcDbEntity
  8
USP-GEO
100
AcDbPolyline
 90
        8
 70
   128
 43
0.0
 10
2.077291810406835
 20
5.523423758721742
 10
2.077291810406835
 20
5.484011928908378
 10
2.077291810406835
 20
5.464786646072591
 10
2.077291810406835
 20
5.426336080401016
 10
2.000390679063686
 20
5.426336080401016
 10
2.000390679063686
 20
5.464786646072591
 10
2.000390679063686
 20
5.484011928908378
 10
2.000390679063686
 20
5.523423758721742
  0
LWPOLYLINE
  5
9C
100
AcDbEntity
  8
USP-GEO
100
AcDbPolyline
 90
        3
 70
   128
 43
0.0
 10
2.077291810406835
 20
5.118731555028416
 10
2.000390679063686
 20
5.118731555028416
 10
2.000390679063686
 20
5.426336080401016
  0
LWPOLYLINE
  5
9D
100
AcDbEntity
  8
USP-GEO
100
AcDbPolyline
 90
        9
 70
   128
 43
0.0
 10
2.000390679063686
 20
5.118731555028416
 10
2.000390679063686
 20
5.099506272192629
 10
2.000390679063686
 20
5.061055706521052
 10
2.000390679063686
 20
5.041830423685265
 10
2.077291810406835
 20
5.041830423685265
 10
2.077291810406835
 20
5.061055706521052
 10
2.077291810406835
 20
5.099506272192629
 10
2.077291810406835
 20
5.118731555028416
 10
2.077291810406835
 20
5.426336080401016
  0
LWPOLYLINE
  5
9E
100
AcDbEntity
  8
USP-GEO
100
AcDbPolyline
 90
        2
 70
   128
 43
0.0
 10
2.000390679063686
 20
7.312336326591767
 10
2.000390679063686
 20
7.004731801219168
  0
LWPOLYLINE
  5
9F
100
AcDbEntity
  8
USP-GEO
100
AcDbPolyline
 90
        2
 70
   128
 43
0.0
 10
2.077291810406835
 20
7.004731801219168
 10
2.077291810406835
 20
7.312336326591767
  0
LWPOLYLINE
  5
A0
100
AcDbEntity
  8
USP-GEO
100
AcDbPolyline
 90
        8
 70
   128
 43
0.0
 10
2.077291810406835
 20
6.080956960959579
 10
2.077291810406835
 20
6.061731678123791
 10
2.077291810406835
 20
6.023281112452217
 10
2.077291810406835
 20
6.004055829616429
 10
2.000390679063686
 20
6.004055829616429
 10
2.000390679063686
 20
6.023281112452217
 10
2.000390679063686
 20
6.061731678123791
 10
2.000390679063686
 20
6.080956960959579
  0
LWPOLYLINE
  5
A1
100
AcDbEntity
  8
USP-GEO
100
AcDbPolyline
 90
        4
 70
   128
 43
0.0
 10
2.000390679063686
 20
6.330885637824817
 10
2.000390679063686
 20
6.080956960959579
 10
2.077291810406835
 20
6.080956960959579
 10
2.077291810406835
 20
6.330885637824817
  0
LWPOLYLINE
  5
A2
100
AcDbEntity
  8
USP-GEO
100
AcDbPolyline
 90
       10
 70
   128
 43
0.0
 10
2.077291810406835
 20
6.427012052003753
 10
2.000390679063686
 20
6.427012052003753
 10
2.000390679063686
 20
6.388561486332179
 10
2.000390679063686
 20
6.369336203496391
 10
2.000390679063686
 20
6.330885637824817
 10
2.077291810406835
 20
6.330885637824817
 10
2.077291810406835
 20
6.369336203496391
 10
2.077291810406835
 20
6.388561486332179
 10
2.077291810406835
 20
6.427012052003753
 10
2.077291810406835
 20
6.90860538704023
  0
LWPOLYLINE
  5
A3
100
AcDbEntity
  8
USP-GEO
100
AcDbPolyline
 90
       10
 70
   128
 43
0.0
 10
2.000390679063686
 20
6.90860538704023
 10
2.077291810406835
 20
6.90860538704023
 10
2.077291810406835
 20
6.947055952711805
 10
2.077291810406835
 20
6.966281235547592
 10
2.077291810406835
 20
7.004731801219168
 10
2.000390679063686
 20
7.004731801219168
 10
2.000390679063686
 20
6.966281235547592
 10
2.000390679063686
 20
6.947055952711805
 10
2.000390679063686
 20
6.90860538704023
 10
2.000390679063686
 20
6.427012052003753
  0
LWPOLYLINE
  5
A4
100
AcDbEntity
  8
USP-GEO
100
AcDbPolyline
 90
       14
 70
   128
 43
0.0
 10
2.000390679063686
 20
7.389237457934918
 10
2.077291810406835
 20
7.389237457934918
 10
2.077291810406835
 20
7.37001217509913
 10
2.077291810406835
 20
7.331561609427554
 10
2.077291810406835
 20
7.312336326591767
 10
2.000390679063686
 20
7.312336326591767
 10
2.000390679063686
 20
7.331561609427554
 10
2.000390679063686
 20
7.37001217509913
 10
2.000390679063686
 20
7.389237457934918
 10
2.000390679063686
 20
7.890056075807182
 10
2.077291810406835
 20
7.890056075807182
 10
2.077291810406835
 20
7.909281358642969
 10
2.077291810406835
 20
7.928506641478756
 10
2.077291810406835
 20
7.966957207150331
  0
LWPOLYLINE
  5
A5
100
AcDbEntity
  8
USP-GEO
100
AcDbPolyline
 90
        2
 70
   128
 43
0.0
 10
2.077291810406835
 20
7.389237457934918
 10
2.077291810406835
 20
7.890056075807182
  0
LWPOLYLINE
  5
A6
100
AcDbEntity
  8
USP-GEO
100
AcDbPolyline
 90
        4
 70
   128
 43
0.0
 10
2.000390679063686
 20
7.966957207150331
 10
2.000390679063686
 20
7.928506641478756
 10
2.000390679063686
 20
7.909281358642969
 10
2.000390679063686
 20
7.890056075807182
  0
LWPOLYLINE
  5
A7
100
AcDbEntity
  8
USP-GEO
100
AcDbPolyline
 90
        3
 70
   128
 43
0.0
 10
4.48141342902206
 20
0.0
 10
4.48141342902206
 20
0.0769011313431491
 10
4.559275824506999
 20
0.0769011313431491
  0
LWPOLYLINE
  5
A8
100
AcDbEntity
  8
USP-GEO
100
AcDbPolyline
 90
        4
 70
   128
 43
0.0
 10
4.404512297678911
 20
0.0
 10
4.404512297678911
 20
0.0769011313431491
 10
3.404797590217961
 20
0.0769011313431491
 10
3.404797590217961
 20
0.0
  0
LWPOLYLINE
  5
A9
100
AcDbEntity
  8
USP-GEO
100
AcDbPolyline
 90
        3
 70
   128
 43
0.0
 10
3.231770044695876
 20
0.0
 10
3.231770044695876
 20
0.0769011313431491
 10
3.308671176039025
 20
0.0769011313431491
  0
LWPOLYLINE
  5
AA
100
AcDbEntity
  8
USP-GEO
100
AcDbPolyline
 90
        4
 70
   128
 43
0.0
 10
3.231770044695876
 20
0.0769011313431491
 10
3.193319479024301
 20
0.0769011313431491
 10
3.154868913352723
 20
0.0769011313431491
 10
3.155830177494513
 20
0.0769011313431491
  0
LWPOLYLINE
  5
AB
100
AcDbEntity
  8
USP-GEO
100
AcDbPolyline
 90
        5
 70
   128
 43
0.0
 10
3.404797590217961
 20
0.0769011313431491
 10
3.385572307382174
 20
0.0769011313431491
 10
3.3471217417106
 20
0.0769011313431491
 10
3.308671176039025
 20
0.0769011313431491
 10
3.308671176039025
 20
0.0
  0
LWPOLYLINE
  5
AC
100
AcDbEntity
  8
USP-GEO
100
AcDbPolyline
 90
        4
 70
   128
 43
0.0
 10
4.48141342902206
 20
0.0769011313431491
 10
4.442962863350485
 20
0.0769011313431491
 10
4.404512297678911
 20
0.0769011313431491
 10
4.4054735618207
 20
0.0769011313431491
  0
LWPOLYLINE
  5
AD
100
AcDbEntity
  8
USP-GEO
100
AcDbPolyline
 90
       14
 70
   128
 43
0.0
 10
4.655402238685939
 20
0.0
 10
5.789693925997399
 20
0.0
 10
5.789693925997399
 20
0.134576979850511
 10
5.789693925997399
 20
0.1730275455220855
 10
5.789693925997399
 20
0.1922528283578728
 10
5.789693925997399
 20
0.2114781111936601
 10
5.789693925997399
 20
1.905225529026537
 10
5.789693925997399
 20
2.059027791712837
 10
5.789693925997399
 20
2.212830054399137
 10
5.789693925997399
 20
2.385857599921225
 10
5.789693925997399
 20
4.464110674469852
 10
5.789693925997399
 20
4.483335957305639
 10
5.789693925997399
 20
4.522747787119003
 10
5.789693925997399
 20
4.54197306995479
  0
LWPOLYLINE
  5
AE
100
AcDbEntity
  8
USP-GEO
100
AcDbPolyline
 90
        2
 70
   128
 43
0.0
 10
5.789693925997399
 20
2.385857599921225
 10
5.789693925997399
 20
4.464110674469852
  0
LWPOLYLINE
  5
AF
100
AcDbEntity
  8
USP-GEO
100
AcDbPolyline
 90
        7
 70
   128
 43
0.0
 10
5.789693925997399
 20
0.2114781111936601
 10
5.789693925997399
 20
1.905225529026537
 10
5.789693925997399
 20
2.059027791712837
 10
5.789693925997399
 20
2.212830054399137
 10
5.789693925997399
 20
2.385857599921225
 10
5.71279279465425
 20
2.385857599921225
 10
5.71279279465425
 20
4.464110674469852
  0
LWPOLYLINE
  5
B0
100
AcDbEntity
  8
USP-GEO
100
AcDbPolyline
 90
       24
 70
   128
 43
0.0
 10
5.71279279465425
 20
5.041830423685265
 10
5.71279279465425
 20
5.061055706521052
 10
5.71279279465425
 20
5.099506272192629
 10
5.71279279465425
 20
5.118731555028416
 10
5.71279279465425
 20
5.099506272192629
 10
5.71279279465425
 20
5.061055706521052
 10
5.71279279465425
 20
5.041830423685265
 10
5.71279279465425
 20
4.54197306995479
 10
5.71279279465425
 20
4.522747787119003
 10
5.71279279465425
 20
4.483335957305639
 10
5.71279279465425
 20
4.464110674469852
 10
5.71279279465425
 20
2.385857599921225
 10
5.71279279465425
 20
2.212830054399137
 10
5.71279279465425
 20
2.059027791712837
 10
5.71279279465425
 20
1.905225529026537
 10
5.71279279465425
 20
0.2114781111936601
 10
5.71279279465425
 20
0.1922528283578728
 10
5.71279279465425
 20
0.1730275455220855
 10
5.71279279465425
 20
0.134576979850511
 10
5.71279279465425
 20
0.0769011313431491
 10
5.71279279465425
 20
0.134576979850511
 10
5.71279279465425
 20
0.1730275455220855
 10
5.71279279465425
 20
0.1922528283578728
 10
5.71279279465425
 20
0.2114781111936601
  0
LWPOLYLINE
  5
B1
100
AcDbEntity
  8
USP-GEO
100
AcDbPolyline
 90
        6
 70
   128
 43
0.0
 10
5.789693925997399
 20
0.134576979850511
 10
5.789693925997399
 20
0.1730275455220855
 10
5.789693925997399
 20
0.1922528283578728
 10
5.789693925997399
 20
0.2114781111936601
 10
5.71279279465425
 20
0.2114781111936601
 10
5.71279279465425
 20
1.905225529026537
  0
LWPOLYLINE
  5
B2
100
AcDbEntity
  8
USP-GEO
100
AcDbPolyline
 90
        5
 70
   128
 43
0.0
 10
5.789693925997399
 20
1.905225529026537
 10
5.71279279465425
 20
1.905225529026537
 10
5.71279279465425
 20
2.059027791712837
 10
5.71279279465425
 20
2.212830054399137
 10
5.71279279465425
 20
2.385857599921225
  0
LWPOLYLINE
  5
B3
100
AcDbEntity
  8
USP-GEO
100
AcDbPolyline
 90
       13
 70
   128
 43
0.0
 10
5.71279279465425
 20
5.118731555028416
 10
5.71279279465425
 20
5.426336080401016
 10
5.71279279465425
 20
5.464786646072591
 10
5.71279279465425
 20
5.484011928908378
 10
5.71279279465425
 20
5.523423758721742
 10
5.71279279465425
 20
6.004055829616429
 10
5.71279279465425
 20
6.023281112452217
 10
5.71279279465425
 20
6.061731678123791
 10
5.71279279465425
 20
6.080956960959579
 10
5.71279279465425
 20
6.330885637824817
 10
5.71279279465425
 20
6.369336203496391
 10
5.71279279465425
 20
6.388561486332179
 10
5.71279279465425
 20
6.427012052003753
  0
LWPOLYLINE
  5
B4
100
AcDbEntity
  8
USP-GEO
100
AcDbPolyline
 90
        4
 70
   128
 43
0.0
 10
5.789693925997399
 20
5.118731555028416
 10
5.789693925997399
 20
5.099506272192629
 10
5.789693925997399
 20
5.061055706521052
 10
5.789693925997399
 20
5.041830423685265
  0
LWPOLYLINE
  5
B5
100
AcDbEntity
  8
USP-GEO
100
AcDbPolyline
 90
        4
 70
   128
 43
0.0
 10
5.71279279465425
 20
5.523423758721742
 10
5.71279279465425
 20
5.484011928908378
 10
5.71279279465425
 20
5.464786646072591
 10
5.71279279465425
 20
5.426336080401016
  0
LWPOLYLINE
  5
B6
100
AcDbEntity
  8
USP-GEO
100
AcDbPolyline
 90
        4
 70
   128
 43
0.0
 10
5.789693925997399
 20
5.426336080401016
 10
5.789693925997399
 20
5.464786646072591
 10
5.789693925997399
 20
5.484011928908378
 10
5.789693925997399
 20
5.523423758721742
  0
LWPOLYLINE
  5
B7
100
AcDbEntity
  8
USP-GEO
100
AcDbPolyline
 90
        2
 70
   128
 43
0.0
 10
5.789693925997399
 20
7.004731801219168
 10
5.789693925997399
 20
7.312336326591767
  0
LWPOLYLINE
  5
B8
100
AcDbEntity
  8
USP-GEO
100
AcDbPolyline
 90
        6
 70
   128
 43
0.0
 10
5.71279279465425
 20
7.312336326591767
 10
5.71279279465425
 20
7.004731801219168
 10
5.789693925997399
 20
7.004731801219168
 10
5.789693925997399
 20
6.966281235547592
 10
5.789693925997399
 20
6.947055952711805
 10
5.789693925997399
 20
6.90860538704023
  0
LWPOLYLINE
  5
B9
100
AcDbEntity
  8
USP-GEO
100
AcDbPolyline
 90
        4
 70
   128
 43
0.0
 10
5.71279279465425
 20
6.90860538704023
 10
5.71279279465425
 20
6.947055952711805
 10
5.71279279465425
 20
6.966281235547592
 10
5.71279279465425
 20
7.004731801219168
  0
LWPOLYLINE
  5
BA
100
AcDbEntity
  8
USP-GEO
100
AcDbPolyline
 90
        2
 70
   128
 43
0.0
 10
5.71279279465425
 20
6.330885637824817
 10
5.71279279465425
 20
6.080956960959579
  0
LWPOLYLINE
  5
BB
100
AcDbEntity
  8
USP-GEO
100
AcDbPolyline
 90
        5
 70
   128
 43
0.0
 10
5.789693925997399
 20
6.330885637824817
 10
5.789693925997399
 20
6.080956960959579
 10
5.789693925997399
 20
6.061731678123791
 10
5.789693925997399
 20
6.023281112452217
 10
5.789693925997399
 20
6.004055829616429
  0
LWPOLYLINE
  5
BC
100
AcDbEntity
  8
USP-GEO
100
AcDbPolyline
 90
        5
 70
   128
 43
0.0
 10
5.789693925997399
 20
6.080956960959579
 10
5.71279279465425
 20
6.080956960959579
 10
5.71279279465425
 20
6.061731678123791
 10
5.71279279465425
 20
6.023281112452217
 10
5.71279279465425
 20
6.004055829616429
  0
LWPOLYLINE
  5
BD
100
AcDbEntity
  8
USP-GEO
100
AcDbPolyline
 90
        2
 70
   128
 43
0.0
 10
5.789693925997399
 20
7.966957207150331
 10
5.71279279465425
 20
7.966957207150331
  0
LWPOLYLINE
  5
BE
100
AcDbEntity
  8
USP-GEO
100
AcDbPolyline
 90
        6
 70
   129
 43
0.0
 10
5.71279279465425
 20
7.909281358642969
 10
5.71279279465425
 20
7.890056075807182
 10
5.71279279465425
 20
7.909281358642969
 10
5.71279279465425
 20
7.928506641478756
 10
5.71279279465425
 20
7.966957207150331
 10
5.71279279465425
 20
7.928506641478756
  0
LWPOLYLINE
  5
BF
100
AcDbEntity
  8
USP-GEO
100
AcDbPolyline
 90
        2
 70
   128
 43
0.0
 10
5.789693925997399
 20
7.890056075807182
 10
5.71279279465425
 20
7.890056075807182
  0
LWPOLYLINE
  5
C0
100
AcDbEntity
  8
USP-GEO
100
AcDbPolyline
 90
        2
 70
   128
 43
0.0
 10
5.789693925997399
 20
7.389237457934918
 10
5.71279279465425
 20
7.389237457934918
  0
LWPOLYLINE
  5
C1
100
AcDbEntity
  8
USP-GEO
100
AcDbPolyline
 90
        2
 70
   129
 43
0.0
 10
0.8843630104462238
 20
8.313012298194506
 10
0.8459124447746493
 20
8.35146286386608
  0
LWPOLYLINE
  5
C2
100
AcDbEntity
  8
USP-GEO
100
AcDbPolyline
 90
        6
 70
   128
 43
0.0
 10
0.8843630104462238
 20
8.313012298194506
 10
0.9035882932820111
 20
8.274561732522931
 10
0.8843630104462238
 20
8.216885884015567
 10
0.8459124447746493
 20
8.19766060117978
 10
0.8074618791030747
 20
8.178435318343993
 10
0.7690113134315002
 20
8.19766060117978
  0
LWPOLYLINE
  5
C3
100
AcDbEntity
  8
USP-GEO
100
AcDbPolyline
 90
        8
 70
   128
 43
0.0
 10
0.3460550910441746
 20
8.986858461588857
 10
0.3076045253726001
 20
8.986858461588857
 10
0.2691539597010237
 20
8.986858461588857
 10
0.2307033940294492
 20
8.948407895917283
 10
0.2114781111936619
 20
8.909957330245706
 10
0.2307033940294492
 20
8.852281481738344
 10
0.2691539597010237
 20
8.833056198902557
 10
0.2307033940294492
 20
8.852281481738344
  0
LWPOLYLINE
  5
C4
100
AcDbEntity
  8
USP-GEO
100
AcDbPolyline
 90
        6
 70
   128
 43
0.0
 10
0.3845056567157492
 20
8.948407895917283
 10
0.4037309395515365
 20
8.909957330245706
 10
0.3845056567157492
 20
8.852281481738344
 10
0.3460550910441746
 20
8.833056198902557
 10
0.3076045253726001
 20
8.81383091606677
 10
0.2691539597010237
 20
8.833056198902557
  0
LWPOLYLINE
  5
C5
100
AcDbEntity
  8
USP-GEO
100
AcDbPolyline
 90
        2
 70
   129
 43
0.0
 10
0.3845056567157492
 20
8.948407895917283
 10
0.3460550910441746
 20
8.986858461588857
  0
LWPOLYLINE
  5
C6
100
AcDbEntity
  8
USP-GEO
100
AcDbPolyline
 90
        6
 70
   128
 43
0.0
 10
0.7305607477599257
 20
8.216885884015567
 10
0.7113354649241348
 20
8.274561732522931
 10
0.7305607477599257
 20
8.313012298194506
 10
0.7690113134315002
 20
8.35146286386608
 10
0.8074618791030747
 20
8.35146286386608
 10
0.8459124447746493
 20
8.35146286386608
  0
LWPOLYLINE
  5
C7
100
AcDbEntity
  8
USP-GEO
100
AcDbPolyline
 90
        2
 70
   129
 43
0.0
 10
0.7305607477599257
 20
8.216885884015567
 10
0.7690113134315002
 20
8.19766060117978
  0
LWPOLYLINE
  5
C8
100
AcDbEntity
  8
USP-GEO
100
AcDbPolyline
 90
        6
 70
   128
 43
0.0
 10
1.42363219399006
 20
8.466814560880806
 10
1.42363219399006
 20
8.524490409388167
 10
1.42363219399006
 20
8.562940975059744
 10
1.462082759661639
 20
8.602352804873108
 10
1.500533325333213
 20
8.602352804873108
 10
1.558209173840575
 20
8.602352804873108
  0
LWPOLYLINE
  5
C9
100
AcDbEntity
  8
USP-GEO
100
AcDbPolyline
 90
        2
 70
   129
 43
0.0
 10
1.42363219399006
 20
8.466814560880806
 10
1.462082759661639
 20
8.447589278045018
  0
LWPOLYLINE
  5
CA
100
AcDbEntity
  8
USP-GEO
100
AcDbPolyline
 90
        2
 70
   129
 43
0.0
 10
1.59665973951215
 20
8.562940975059744
 10
1.558209173840575
 20
8.602352804873108
  0
LWPOLYLINE
  5
CB
100
AcDbEntity
  8
USP-GEO
100
AcDbPolyline
 90
        6
 70
   128
 43
0.0
 10
1.59665973951215
 20
8.562940975059744
 10
1.59665973951215
 20
8.524490409388167
 10
1.59665973951215
 20
8.466814560880806
 10
1.558209173840575
 20
8.447589278045018
 10
1.500533325333213
 20
8.428363995209231
 10
1.462082759661639
 20
8.447589278045018
  0
LWPOLYLINE
  5
CC
100
AcDbEntity
  8
USP-GEO
100
AcDbPolyline
 90
        7
 70
   128
 43
0.0
 10
2.077291810406835
 20
8.871506764574132
 10
2.077291810406835
 20
9.159886007110944
 10
2.000390679063686
 20
9.159886007110944
 10
2.000390679063686
 20
8.871506764574132
 10
2.000390679063686
 20
8.852281481738344
 10
2.000390679063686
 20
8.81383091606677
 10
2.000390679063686
 20
8.794605633230982
  0
LWPOLYLINE
  5
CD
100
AcDbEntity
  8
USP-GEO
100
AcDbPolyline
 90
        6
 70
   128
 43
0.0
 10
2.000390679063686
 20
8.216885884015567
 10
2.077291810406835
 20
8.216885884015567
 10
2.077291810406835
 20
8.255336449687144
 10
2.077291810406835
 20
8.274561732522931
 10
2.077291810406835
 20
8.293787015358718
 10
2.000390679063686
 20
8.293787015358718
  0
LWPOLYLINE
  5
CE
100
AcDbEntity
  8
USP-GEO
100
AcDbPolyline
 90
        2
 70
   128
 43
0.0
 10
2.077291810406835
 20
8.293787015358718
 10
2.077291810406835
 20
8.794605633230982
  0
LWPOLYLINE
  5
CF
100
AcDbEntity
  8
USP-GEO
100
AcDbPolyline
 90
        6
 70
   128
 43
0.0
 10
5.789693925997399
 20
8.871506764574132
 10
5.71279279465425
 20
8.871506764574132
 10
5.71279279465425
 20
8.852281481738344
 10
5.71279279465425
 20
8.81383091606677
 10
5.71279279465425
 20
8.794605633230982
 10
5.789693925997399
 20
8.794605633230982
  0
LWPOLYLINE
  5
D0
100
AcDbEntity
  8
USP-GEO
100
AcDbPolyline
 90
        2
 70
   128
 43
0.0
 10
5.71279279465425
 20
8.794605633230982
 10
5.71279279465425
 20
8.293787015358718
  0
LWPOLYLINE
  5
D1
100
AcDbEntity
  8
USP-GEO
100
AcDbPolyline
 90
        5
 70
   128
 43
0.0
 10
5.789693925997399
 20
8.293787015358718
 10
5.71279279465425
 20
8.293787015358718
 10
5.71279279465425
 20
8.274561732522931
 10
5.71279279465425
 20
8.255336449687144
 10
5.71279279465425
 20
8.216885884015567
  0
LWPOLYLINE
  5
D2
100
AcDbEntity
  8
USP-GEO
100
AcDbPolyline
 90
        2
 70
   128
 43
0.0
 10
7.290227251330611
 20
7.966957207150331
 10
7.290227251330611
 20
8.216885884015567
  0
LWPOLYLINE
  5
D3
100
AcDbEntity
  8
USP-GEO
100
AcDbPolyline
 90
        2
 70
   129
 43
0.0
 10
7.752595303531302
 20
5.041830423685265
 10
7.309452534166398
 20
4.54197306995479
  0
LWPOLYLINE
  5
D4
100
AcDbEntity
  8
USP-GEO
100
AcDbPolyline
 90
       12
 70
   128
 43
0.0
 10
7.520930645360062
 20
5.23408325204314
 10
7.559381211031636
 20
5.195632686371565
 10
7.578606493867424
 20
5.157182120699991
 10
7.559381211031636
 20
5.099506272192629
 10
7.520930645360062
 20
5.080280989356841
 10
7.482480079688487
 20
5.061055706521052
 10
7.444029514016913
 20
5.080280989356841
 10
7.405578948345338
 20
5.099506272192629
 10
7.386353665509551
 20
5.157182120699991
 10
7.405578948345338
 20
5.195632686371565
 10
7.444029514016913
 20
5.23408325204314
 10
7.482480079688487
 20
5.23408325204314
  0
LWPOLYLINE
  5
D5
100
AcDbEntity
  8
USP-GEO
100
AcDbPolyline
 90
        2
 70
   128
 43
0.0
 10
7.752595303531302
 20
7.389237457934918
 10
7.309452534166398
 20
7.890056075807182
  0
LWPOLYLINE
  5
D6
100
AcDbEntity
  8
USP-GEO
100
AcDbPolyline
 90
       12
 70
   129
 43
0.0
 10
7.482480079688487
 20
6.985506518383379
 10
7.444029514016913
 20
6.985506518383379
 10
7.405578948345338
 20
6.947055952711805
 10
7.386353665509551
 20
6.90860538704023
 10
7.405578948345338
 20
6.850929538532868
 10
7.444029514016913
 20
6.831704255697081
 10
7.482480079688487
 20
6.812478972861292
 10
7.520930645360062
 20
6.831704255697081
 10
7.559381211031636
 20
6.850929538532868
 10
7.578606493867424
 20
6.90860538704023
 10
7.559381211031636
 20
6.947055952711805
 10
7.520930645360062
 20
6.985506518383379
  0
LWPOLYLINE
  5
D7
100
AcDbEntity
  8
USP-GEO
100
AcDbPolyline
 90
       16
 70
   128
 43
0.0
 10
7.791045869202877
 20
7.004731801219168
 10
7.791045869202877
 20
6.966281235547592
 10
7.771820586367089
 20
6.947055952711805
 10
7.752595303531302
 20
6.90860538704023
 10
7.309452534166398
 20
6.427012052003753
 10
7.290227251330611
 20
6.388561486332179
 10
7.290227251330611
 20
6.369336203496391
 10
7.290227251330611
 20
6.330885637824817
 10
7.290227251330611
 20
6.080956960959579
 10
7.290227251330611
 20
6.061731678123791
 10
7.290227251330611
 20
6.023281112452217
 10
7.309452534166398
 20
6.004055829616429
 10
7.752595303531302
 20
5.523423758721742
 10
7.771820586367089
 20
5.484011928908378
 10
7.791045869202877
 20
5.464786646072591
 10
7.791045869202877
 20
5.426336080401016
  0
LWPOLYLINE
  5
D8
100
AcDbEntity
  8
USP-GEO
100
AcDbPolyline
 90
        2
 70
   128
 43
0.0
 10
7.309452534166398
 20
6.427012052003753
 10
7.752595303531302
 20
6.90860538704023
  0
LWPOLYLINE
  5
D9
100
AcDbEntity
  8
USP-GEO
100
AcDbPolyline
 90
        2
 70
   128
 43
0.0
 10
7.752595303531302
 20
5.523423758721742
 10
7.309452534166398
 20
6.004055829616429
  0
LWPOLYLINE
  5
DA
100
AcDbEntity
  8
USP-GEO
100
AcDbPolyline
 90
       12
 70
   128
 43
0.0
 10
7.021073291629589
 20
3.964253320739377
 10
7.059523857301163
 20
3.925802755067802
 10
7.078749140136951
 20
3.887352189396228
 10
7.059523857301163
 20
3.848901623724653
 10
7.021073291629589
 20
3.810451058053077
 10
6.982622725958011
 20
3.79122577521729
 10
6.944172160286436
 20
3.810451058053077
 10
6.905721594614862
 20
3.848901623724653
 10
6.886496311779074
 20
3.887352189396228
 10
6.905721594614862
 20
3.925802755067802
 10
6.944172160286436
 20
3.964253320739377
 10
6.982622725958011
 20
3.983478603575164
  0
LWPOLYLINE
  5
DB
100
AcDbEntity
  8
USP-GEO
100
AcDbPolyline
 90
        2
 70
   129
 43
0.0
 10
7.290227251330611
 20
4.464110674469852
 10
7.290227251330611
 20
2.385857599921225
  0
LWPOLYLINE
  5
DC
100
AcDbEntity
  8
USP-GEO
100
AcDbPolyline
 90
       12
 70
   128
 43
0.0
 10
6.328963109541239
 20
1.597621003653939
 10
6.367413675212814
 20
1.559170437982363
 10
6.367413675212814
 20
1.520719872310788
 10
6.367413675212814
 20
1.463044023803426
 10
6.328963109541239
 20
1.443818740967639
 10
6.290512543869661
 20
1.423632193990062
 10
6.2328366953623
 20
1.443818740967639
 10
6.213611412526512
 20
1.463044023803426
 10
6.194386129690725
 20
1.520719872310788
 10
6.213611412526512
 20
1.559170437982363
 10
6.2328366953623
 20
1.597621003653939
 10
6.290512543869661
 20
1.597621003653939
  0
LWPOLYLINE
  5
DD
100
AcDbEntity
  8
USP-GEO
100
AcDbPolyline
 90
        2
 70
   129
 43
0.0
 10
6.328963109541239
 20
1.597621003653939
 10
6.290512543869661
 20
1.597621003653939
  0
LWPOLYLINE
  5
DE
100
AcDbEntity
  8
USP-GEO
100
AcDbPolyline
 90
       12
 70
   128
 43
0.0
 10
6.328963109541239
 20
3.348083005852389
 10
6.367413675212814
 20
3.309632440180813
 10
6.367413675212814
 20
3.271181874509238
 10
6.367413675212814
 20
3.213506026001876
 10
6.328963109541239
 20
3.194280743166089
 10
6.290512543869661
 20
3.175055460330302
 10
6.2328366953623
 20
3.194280743166089
 10
6.213611412526512
 20
3.213506026001876
 10
6.194386129690725
 20
3.271181874509238
 10
6.213611412526512
 20
3.309632440180813
 10
6.2328366953623
 20
3.348083005852389
 10
6.290512543869661
 20
3.348083005852389
  0
LWPOLYLINE
  5
DF
100
AcDbEntity
  8
USP-GEO
100
AcDbPolyline
 90
       12
 70
   128
 43
0.0
 10
6.328963109541239
 20
2.463719995406165
 10
6.367413675212814
 20
2.424308165592799
 10
6.367413675212814
 20
2.385857599921225
 10
6.367413675212814
 20
2.34740703424965
 10
6.328963109541239
 20
2.308956468578076
 10
6.290512543869661
 20
2.289731185742288
 10
6.2328366953623
 20
2.308956468578076
 10
6.213611412526512
 20
2.34740703424965
 10
6.194386129690725
 20
2.385857599921225
 10
6.213611412526512
 20
2.424308165592799
 10
6.2328366953623
 20
2.463719995406165
 10
6.290512543869661
 20
2.482945278241952
  0
LWPOLYLINE
  5
E0
100
AcDbEntity
  8
USP-GEO
100
AcDbPolyline
 90
        2
 70
   129
 43
0.0
 10
6.328963109541239
 20
2.463719995406165
 10
6.290512543869661
 20
2.482945278241952
  0
LWPOLYLINE
  5
E1
100
AcDbEntity
  8
USP-GEO
100
AcDbPolyline
 90
        2
 70
   129
 43
0.0
 10
6.328963109541239
 20
3.348083005852389
 10
6.290512543869661
 20
3.348083005852389
  0
LWPOLYLINE
  5
E2
100
AcDbEntity
  8
USP-GEO
100
AcDbPolyline
 90
       12
 70
   128
 43
0.0
 10
7.021073291629589
 20
3.098154328987151
 10
7.059523857301163
 20
3.059703763315576
 10
7.078749140136951
 20
3.021253197644002
 10
7.059523857301163
 20
2.963577349136638
 10
7.021073291629589
 20
2.944352066300851
 10
6.982622725958011
 20
2.925126783465064
 10
6.944172160286436
 20
2.944352066300851
 10
6.905721594614862
 20
2.963577349136638
 10
6.886496311779074
 20
3.021253197644002
 10
6.905721594614862
 20
3.059703763315576
 10
6.944172160286436
 20
3.098154328987151
 10
6.982622725958011
 20
3.098154328987151
  0
LWPOLYLINE
  5
E3
100
AcDbEntity
  8
USP-GEO
100
AcDbPolyline
 90
        2
 70
   129
 43
0.0
 10
7.021073291629589
 20
3.098154328987151
 10
6.982622725958011
 20
3.098154328987151
  0
LWPOLYLINE
  5
E4
100
AcDbEntity
  8
USP-GEO
100
AcDbPolyline
 90
        4
 70
   128
 43
0.0
 10
7.290227251330611
 20
2.385857599921225
 10
7.271001968494823
 20
2.212830054399137
 10
7.213326119987462
 20
2.059027791712837
 10
7.117199705808525
 20
1.905225529026537
  0
LWPOLYLINE
  5
E5
100
AcDbEntity
  8
USP-GEO
100
AcDbPolyline
 90
       12
 70
   129
 43
0.0
 10
6.213611412526512
 20
5.850253566930129
 10
6.194386129690725
 20
5.888704132601704
 10
6.213611412526512
 20
5.946379981109068
 10
6.2328366953623
 20
5.965605263944855
 10
6.290512543869661
 20
5.984830546780642
 10
6.328963109541239
 20
5.965605263944855
 10
6.367413675212814
 20
5.946379981109068
 10
6.367413675212814
 20
5.888704132601704
 10
6.367413675212814
 20
5.850253566930129
 10
6.328963109541239
 20
5.811803001258555
 10
6.290512543869661
 20
5.792577718422768
 10
6.2328366953623
 20
5.811803001258555
  0
LWPOLYLINE
  5
E6
100
AcDbEntity
  8
USP-GEO
100
AcDbPolyline
 90
       12
 70
   128
 43
0.0
 10
6.328963109541239
 20
4.214181997604615
 10
6.367413675212814
 20
4.175731431933039
 10
6.367413675212814
 20
4.137280866261464
 10
6.367413675212814
 20
4.09883030058989
 10
6.328963109541239
 20
4.060379734918315
 10
6.290512543869661
 20
4.041154452082528
 10
6.2328366953623
 20
4.060379734918315
 10
6.213611412526512
 20
4.09883030058989
 10
6.194386129690725
 20
4.137280866261464
 10
6.213611412526512
 20
4.175731431933039
 10
6.2328366953623
 20
4.214181997604615
 10
6.290512543869661
 20
4.233407280440403
  0
LWPOLYLINE
  5
E7
100
AcDbEntity
  8
USP-GEO
100
AcDbPolyline
 90
       12
 70
   128
 43
0.0
 10
6.328963109541239
 20
5.099506272192629
 10
6.367413675212814
 20
5.061055706521052
 10
6.367413675212814
 20
5.022605140849478
 10
6.367413675212814
 20
4.964929292342116
 10
6.328963109541239
 20
4.945704009506329
 10
6.290512543869661
 20
4.926478726670541
 10
6.2328366953623
 20
4.945704009506329
 10
6.213611412526512
 20
4.964929292342116
 10
6.194386129690725
 20
5.022605140849478
 10
6.213611412526512
 20
5.061055706521052
 10
6.2328366953623
 20
5.099506272192629
 10
6.290512543869661
 20
5.099506272192629
  0
LWPOLYLINE
  5
E8
100
AcDbEntity
  8
USP-GEO
100
AcDbPolyline
 90
        2
 70
   129
 43
0.0
 10
6.328963109541239
 20
4.214181997604615
 10
6.290512543869661
 20
4.233407280440403
  0
LWPOLYLINE
  5
E9
100
AcDbEntity
  8
USP-GEO
100
AcDbPolyline
 90
        2
 70
   129
 43
0.0
 10
6.328963109541239
 20
5.099506272192629
 10
6.290512543869661
 20
5.099506272192629
  0
LWPOLYLINE
  5
EA
100
AcDbEntity
  8
USP-GEO
100
AcDbPolyline
 90
       12
 70
   129
 43
0.0
 10
6.213611412526512
 20
6.716352558682356
 10
6.194386129690725
 20
6.774028407189717
 10
6.213611412526512
 20
6.812478972861292
 10
6.2328366953623
 20
6.850929538532868
 10
6.290512543869661
 20
6.850929538532868
 10
6.328963109541239
 20
6.850929538532868
 10
6.367413675212814
 20
6.812478972861292
 10
6.367413675212814
 20
6.774028407189717
 10
6.367413675212814
 20
6.716352558682356
 10
6.328963109541239
 20
6.697127275846568
 10
6.290512543869661
 20
6.677901993010781
 10
6.2328366953623
 20
6.697127275846568
  0
LWPOLYLINE
  5
EB
100
AcDbEntity
  8
USP-GEO
100
AcDbPolyline
 90
       12
 70
   129
 43
0.0
 10
6.213611412526512
 20
7.601676833270369
 10
6.194386129690725
 20
7.640127398941944
 10
6.213611412526512
 20
7.697803247449305
 10
6.2328366953623
 20
7.717028530285094
 10
6.290512543869661
 20
7.736253813120882
 10
6.328963109541239
 20
7.717028530285094
 10
6.367413675212814
 20
7.697803247449305
 10
6.367413675212814
 20
7.640127398941944
 10
6.367413675212814
 20
7.601676833270369
 10
6.328963109541239
 20
7.563226267598794
 10
6.290512543869661
 20
7.563226267598794
 10
6.2328366953623
 20
7.563226267598794
  0
LWPOLYLINE
  5
EC
100
AcDbEntity
  8
USP-GEO
100
AcDbPolyline
 90
        2
 70
   128
 43
0.0
 10
6.328963109541239
 20
7.717028530285094
 10
6.367413675212814
 20
7.697803247449305
  0
LWPOLYLINE
  5
ED
100
AcDbEntity
  8
USP-GEO
100
AcDbPolyline
 90
        2
 70
   128
 43
0.0
 10
6.290512543869661
 20
5.984830546780642
 10
6.328963109541239
 20
5.965605263944855
  0
LWPOLYLINE
  5
EE
100
AcDbEntity
  8
USP-GEO
100
AcDbPolyline
 90
        2
 70
   128
 43
0.0
 10
6.290512543869661
 20
6.850929538532868
 10
6.328963109541239
 20
6.850929538532868
  0
LWPOLYLINE
  5
EF
100
AcDbEntity
  8
USP-GEO
100
AcDbPolyline
 90
       12
 70
   128
 43
0.0
 10
6.982622725958011
 20
4.84957759532739
 10
6.944172160286436
 20
4.84957759532739
 10
6.905721594614862
 20
4.811127029655816
 10
6.886496311779074
 20
4.772676463984241
 10
6.905721594614862
 20
4.715000615476878
 10
6.944172160286436
 20
4.69577533264109
 10
6.982622725958011
 20
4.676550049805303
 10
7.021073291629589
 20
4.69577533264109
 10
7.059523857301163
 20
4.715000615476878
 10
7.078749140136951
 20
4.772676463984241
 10
7.059523857301163
 20
4.811127029655816
 10
7.021073291629589
 20
4.84957759532739
  0
LWPOLYLINE
  5
F0
100
AcDbEntity
  8
USP-GEO
100
AcDbPolyline
 90
        2
 70
   129
 43
0.0
 10
7.021073291629589
 20
3.964253320739377
 10
6.982622725958011
 20
3.983478603575164
  0
LWPOLYLINE
  5
F1
100
AcDbEntity
  8
USP-GEO
100
AcDbPolyline
 90
        2
 70
   129
 43
0.0
 10
7.021073291629589
 20
4.84957759532739
 10
6.982622725958011
 20
4.84957759532739
  0
LWPOLYLINE
  5
F2
100
AcDbEntity
  8
USP-GEO
100
AcDbPolyline
 90
       12
 70
   129
 43
0.0
 10
6.886496311779074
 20
5.638775455736467
 10
6.905721594614862
 20
5.696451304243829
 10
6.944172160286436
 20
5.715676587079617
 10
6.982622725958011
 20
5.734901869915404
 10
7.021073291629589
 20
5.715676587079617
 10
7.059523857301163
 20
5.696451304243829
 10
7.078749140136951
 20
5.638775455736467
 10
7.059523857301163
 20
5.600324890064891
 10
7.021073291629589
 20
5.561874324393317
 10
6.982622725958011
 20
5.542649041557529
 10
6.944172160286436
 20
5.561874324393317
 10
6.905721594614862
 20
5.600324890064891
  0
LWPOLYLINE
  5
F3
100
AcDbEntity
  8
USP-GEO
100
AcDbPolyline
 90
        2
 70
   128
 43
0.0
 10
6.982622725958011
 20
5.734901869915404
 10
7.021073291629589
 20
5.715676587079617
  0
LWPOLYLINE
  5
F4
100
AcDbEntity
  8
USP-GEO
100
AcDbPolyline
 90
        4
 70
   128
 43
0.0
 10
7.290227251330611
 20
4.464110674469852
 10
7.290227251330611
 20
4.483335957305639
 10
7.290227251330611
 20
4.522747787119003
 10
7.309452534166398
 20
4.54197306995479
  0
LWPOLYLINE
  5
F5
100
AcDbEntity
  8
USP-GEO
100
AcDbPolyline
 90
       12
 70
   129
 43
0.0
 10
6.886496311779074
 20
6.523138466182691
 10
6.905721594614862
 20
6.562550295996055
 10
6.944172160286436
 20
6.60100086166763
 10
6.982622725958011
 20
6.60100086166763
 10
7.021073291629589
 20
6.60100086166763
 10
7.059523857301163
 20
6.562550295996055
 10
7.078749140136951
 20
6.523138466182691
 10
7.059523857301163
 20
6.46546261767533
 10
7.021073291629589
 20
6.44623733483954
 10
6.982622725958011
 20
6.427012052003753
 10
6.944172160286436
 20
6.44623733483954
 10
6.905721594614862
 20
6.46546261767533
  0
LWPOLYLINE
  5
F6
100
AcDbEntity
  8
USP-GEO
100
AcDbPolyline
 90
        2
 70
   128
 43
0.0
 10
6.982622725958011
 20
6.60100086166763
 10
7.021073291629589
 20
6.60100086166763
  0
LWPOLYLINE
  5
F7
100
AcDbEntity
  8
USP-GEO
100
AcDbPolyline
 90
       12
 70
   129
 43
0.0
 10
6.886496311779074
 20
7.389237457934918
 10
6.905721594614862
 20
7.446913306442279
 10
6.944172160286436
 20
7.466138589278067
 10
6.982622725958011
 20
7.485363872113854
 10
7.021073291629589
 20
7.466138589278067
 10
7.059523857301163
 20
7.446913306442279
 10
7.078749140136951
 20
7.389237457934918
 10
7.059523857301163
 20
7.350786892263343
 10
7.021073291629589
 20
7.312336326591767
 10
6.982622725958011
 20
7.312336326591767
 10
6.944172160286436
 20
7.312336326591767
 10
6.905721594614862
 20
7.350786892263343
  0
LWPOLYLINE
  5
F8
100
AcDbEntity
  8
USP-GEO
100
AcDbPolyline
 90
        2
 70
   128
 43
0.0
 10
7.021073291629589
 20
7.466138589278067
 10
7.059523857301163
 20
7.446913306442279
  0
LWPOLYLINE
  5
F9
100
AcDbEntity
  8
USP-GEO
100
AcDbPolyline
 90
        2
 70
   128
 43
0.0
 10
7.290227251330611
 20
6.080956960959579
 10
7.290227251330611
 20
6.330885637824817
  0
LWPOLYLINE
  5
FA
100
AcDbEntity
  8
USP-GEO
100
AcDbPolyline
 90
        2
 70
   129
 43
0.0
 10
7.520930645360062
 20
5.23408325204314
 10
7.482480079688487
 20
5.23408325204314
  0
LWPOLYLINE
  5
FB
100
AcDbEntity
  8
USP-GEO
100
AcDbPolyline
 90
        2
 70
   129
 43
0.0
 10
7.791045869202877
 20
5.426336080401016
 10
7.791045869202877
 20
5.118731555028416
  0
LWPOLYLINE
  5
FC
100
AcDbEntity
  8
USP-GEO
100
AcDbPolyline
 90
        4
 70
   128
 43
0.0
 10
7.791045869202877
 20
5.118731555028416
 10
7.791045869202877
 20
5.099506272192629
 10
7.771820586367089
 20
5.061055706521052
 10
7.752595303531302
 20
5.041830423685265
  0
LWPOLYLINE
  5
FD
100
AcDbEntity
  8
USP-GEO
100
AcDbPolyline
 90
        2
 70
   128
 43
0.0
 10
7.482480079688487
 20
6.985506518383379
 10
7.520930645360062
 20
6.985506518383379
  0
LWPOLYLINE
  5
FE
100
AcDbEntity
  8
USP-GEO
100
AcDbPolyline
 90
       12
 70
   129
 43
0.0
 10
7.405578948345338
 20
8.948407895917283
 10
7.444029514016913
 20
8.986858461588857
 10
7.482480079688487
 20
8.986858461588857
 10
7.520930645360062
 20
8.986858461588857
 10
7.559381211031636
 20
8.948407895917283
 10
7.578606493867424
 20
8.909957330245706
 10
7.559381211031636
 20
8.852281481738344
 10
7.520930645360062
 20
8.833056198902557
 10
7.482480079688487
 20
8.81383091606677
 10
7.444029514016913
 20
8.833056198902557
 10
7.405578948345338
 20
8.852281481738344
 10
7.386353665509551
 20
8.909957330245706
  0
LWPOLYLINE
  5
FF
100
AcDbEntity
  8
USP-GEO
100
AcDbPolyline
 90
        2
 70
   128
 43
0.0
 10
7.309452534166398
 20
8.293787015358718
 10
7.752595303531302
 20
8.794605633230982
  0
LWPOLYLINE
  5
100
100
AcDbEntity
  8
USP-GEO
100
AcDbPolyline
 90
       12
 70
   129
 43
0.0
 10
6.290512543869661
 20
8.602352804873108
 10
6.328963109541239
 20
8.602352804873108
 10
6.367413675212814
 20
8.562940975059744
 10
6.367413675212814
 20
8.524490409388167
 10
6.367413675212814
 20
8.466814560880806
 10
6.328963109541239
 20
8.447589278045018
 10
6.290512543869661
 20
8.428363995209231
 10
6.2328366953623
 20
8.447589278045018
 10
6.213611412526512
 20
8.466814560880806
 10
6.194386129690725
 20
8.524490409388167
 10
6.213611412526512
 20
8.562940975059744
 10
6.2328366953623
 20
8.602352804873108
  0
LWPOLYLINE
  5
101
100
AcDbEntity
  8
USP-GEO
100
AcDbPolyline
 90
        2
 70
   128
 43
0.0
 10
6.328963109541239
 20
8.602352804873108
 10
6.367413675212814
 20
8.562940975059744
  0
LWPOLYLINE
  5
102
100
AcDbEntity
  8
USP-GEO
100
AcDbPolyline
 90
       12
 70
   129
 43
0.0
 10
6.905721594614862
 20
8.313012298194506
 10
6.886496311779074
 20
8.274561732522931
 10
6.905721594614862
 20
8.216885884015567
 10
6.944172160286436
 20
8.19766060117978
 10
6.982622725958011
 20
8.178435318343993
 10
7.021073291629589
 20
8.19766060117978
 10
7.059523857301163
 20
8.216885884015567
 10
7.078749140136951
 20
8.274561732522931
 10
7.059523857301163
 20
8.313012298194506
 10
7.021073291629589
 20
8.35146286386608
 10
6.982622725958011
 20
8.35146286386608
 10
6.944172160286436
 20
8.35146286386608
  0
LWPOLYLINE
  5
103
100
AcDbEntity
  8
USP-GEO
100
AcDbPolyline
 90
        2
 70
   128
 43
0.0
 10
7.021073291629589
 20
8.35146286386608
 10
7.059523857301163
 20
8.313012298194506
  0
LWPOLYLINE
  5
104
100
AcDbEntity
  8
USP-GEO
100
AcDbPolyline
 90
        2
 70
   128
 43
0.0
 10
7.520930645360062
 20
8.986858461588857
 10
7.559381211031636
 20
8.948407895917283
  0
ENDBLK
  5
106
100
AcDbEntity
  8
0
100
AcDbBlockEnd
  0
BLOCK
  5
149
100
AcDbEntity
  8
0
100
AcDbBlockBegin
  2
THD410_S
 70
     0
 10
0.0
 20
0.0
 30
0.0
  3
THD410_S
  1

  0
TEXT
  5
109
100
AcDbEntity
  8
USP-TXT
100
AcDbText
 10
-0.8276657093645907
 20
-2.075941717148914
 30
0.0
 40
0.296875
  1
THD410 - SIDE VIEW
 72
     1
 11
1.720511373968742
 21
-2.075941717148914
 31
0.0
100
AcDbText
  0
LWPOLYLINE
  5
10A
100
AcDbEntity
  8
USP-GEO
100
AcDbPolyline
 90
        2
 70
   128
 43
0.0
 10
3.174094196188513
 20
0.2114781111936601
 10
1.75046200219845
 20
1.905225529026537
  0
LWPOLYLINE
  5
10B
100
AcDbEntity
  8
USP-GEO
100
AcDbPolyline
 90
       17
 70
   128
 43
0.0
 10
3.212544761860088
 20
0.134576979850511
 10
3.212544761860088
 20
0.0
 10
0.2114781111936628
 20
0.0
 10
0.2114781111936628
 20
0.134576979850511
 10
0.2114781111936628
 20
0.0
 10
3.212544761860088
 20
0.0
 10
3.212544761860088
 20
0.134576979850511
 10
3.212544761860088
 20
0.1730275455220855
 10
3.1933194790243
 20
0.1922528283578728
 10
3.174094196188513
 20
0.2114781111936601
 10
1.75046200219845
 20
1.905225529026537
 10
1.654335588019512
 20
2.059027791712837
 10
1.59665973951215
 20
2.212830054399137
 10
1.577434456676363
 20
2.385857599921225
 10
1.577434456676363
 20
4.464110674469852
 10
1.577434456676363
 20
2.385857599921225
 10
1.59665973951215
 20
2.212830054399137
  0
LWPOLYLINE
  5
10C
100
AcDbEntity
  8
USP-GEO
100
AcDbPolyline
 90
        2
 70
   128
 43
0.0
 10
3.212544761860088
 20
0.0769011313431491
 10
0.2114781111936628
 20
0.0769011313431491
  0
LWPOLYLINE
  5
10D
100
AcDbEntity
  8
USP-GEO
100
AcDbPolyline
 90
       58
 70
   128
 43
0.0
 10
0.07690113134315
 20
7.890056075807182
 10
0.07690113134315
 20
7.909281358642969
 10
0.07690113134315
 20
7.928506641478756
 10
0.07690113134315
 20
7.966957207150331
 10
0.07690113134315
 20
8.216885884015567
 10
0.07690113134315
 20
8.255336449687144
 10
0.07690113134315
 20
8.274561732522931
 10
0.07690113134315
 20
8.293787015358718
 10
0.07690113134315
 20
8.794605633230982
 10
0.07690113134315
 20
8.81383091606677
 10
0.07690113134315
 20
8.852281481738344
 10
0.07690113134315
 20
8.871506764574132
 10
0.07690113134315
 20
9.159886007110944
 10
0.0
 20
9.159886007110944
 10
0.0
 20
8.871506764574132
 10
0.0
 20
8.852281481738344
 10
0.0
 20
8.81383091606677
 10
0.0
 20
8.794605633230982
 10
0.0
 20
8.293787015358718
 10
0.0
 20
8.274561732522931
 10
0.0
 20
8.255336449687144
 10
0.0
 20
8.216885884015567
 10
0.0
 20
7.966957207150331
 10
0.0
 20
7.928506641478756
 10
0.0
 20
7.909281358642969
 10
0.0
 20
7.890056075807182
 10
0.0
 20
7.389237457934918
 10
0.0
 20
7.37001217509913
 10
0.0
 20
7.331561609427554
 10
0.0
 20
7.312336326591767
 10
0.0
 20
7.004731801219168
 10
0.0
 20
6.966281235547592
 10
0.0
 20
6.947055952711805
 10
0.0
 20
6.90860538704023
 10
0.0
 20
6.427012052003753
 10
0.0
 20
6.388561486332179
 10
0.0
 20
6.369336203496391
 10
0.0
 20
6.330885637824817
 10
0.0
 20
6.080956960959579
 10
0.0
 20
6.061731678123791
 10
0.0
 20
6.023281112452217
 10
0.0
 20
6.004055829616429
 10
0.0
 20
5.523423758721742
 10
0.0
 20
5.484011928908378
 10
0.0
 20
5.464786646072591
 10
0.0
 20
5.426336080401016
 10
0.0
 20
5.118731555028416
 10
0.0
 20
5.099506272192629
 10
0.0
 20
5.061055706521052
 10
0.0
 20
5.041830423685265
 10
0.0
 20
4.54197306995479
 10
0.0
 20
4.522747787119003
 10
0.0
 20
4.483335957305639
 10
0.0
 20
4.464110674469852
 10
0.0
 20
2.385857599921225
 10
0.0
 20
2.212830054399137
 10
0.0
 20
2.059027791712837
 10
0.0
 20
1.905225529026537
  0
LWPOLYLINE
  5
10E
100
AcDbEntity
  8
USP-GEO
100
AcDbPolyline
 90
        3
 70
   128
 43
0.0
 10
0.07690113134315
 20
7.966957207150331
 10
0.0
 20
7.966957207150331
 10
0.0
 20
8.216885884015567
  0
LWPOLYLINE
  5
10F
100
AcDbEntity
  8
USP-GEO
100
AcDbPolyline
 90
       17
 70
   128
 43
0.0
 10
0.07690113134315
 20
7.312336326591767
 10
0.07690113134315
 20
7.331561609427554
 10
0.07690113134315
 20
7.37001217509913
 10
0.07690113134315
 20
7.389237457934918
 10
0.07690113134315
 20
7.890056075807182
 10
0.07690113134315
 20
7.909281358642969
 10
0.07690113134315
 20
7.928506641478756
 10
0.07690113134315
 20
7.966957207150331
 10
0.07690113134315
 20
8.216885884015567
 10
0.07690113134315
 20
8.255336449687144
 10
0.07690113134315
 20
8.274561732522931
 10
0.07690113134315
 20
8.293787015358718
 10
0.07690113134315
 20
8.794605633230982
 10
0.07690113134315
 20
8.81383091606677
 10
0.07690113134315
 20
8.852281481738344
 10
0.07690113134315
 20
8.871506764574132
 10
0.07690113134315
 20
9.159886007110944
  0
LWPOLYLINE
  5
110
100
AcDbEntity
  8
USP-GEO
100
AcDbPolyline
 90
        2
 70
   128
 43
0.0
 10
1.577434456676363
 20
7.966957207150331
 10
1.577434456676363
 20
8.216885884015567
  0
LWPOLYLINE
  5
111
100
AcDbEntity
  8
USP-GEO
100
AcDbPolyline
 90
       43
 70
   128
 43
0.0
 10
1.077577102945888
 20
8.852281481738344
 10
1.077577102945888
 20
8.871506764574132
 10
1.077577102945888
 20
9.159886007110944
 10
1.077577102945888
 20
8.871506764574132
 10
1.077577102945888
 20
8.852281481738344
 10
1.096802385781676
 20
8.81383091606677
 10
1.116027668617463
 20
8.794605633230982
 10
1.558209173840576
 20
8.293787015358718
 10
1.558209173840576
 20
8.274561732522931
 10
1.577434456676363
 20
8.255336449687144
 10
1.577434456676363
 20
8.216885884015567
 10
1.577434456676363
 20
7.966957207150331
 10
1.577434456676363
 20
7.928506641478756
 10
1.558209173840576
 20
7.909281358642969
 10
1.558209173840576
 20
7.890056075807182
 10
1.116027668617463
 20
7.389237457934918
 10
1.096802385781676
 20
7.37001217509913
 10
1.077577102945888
 20
7.331561609427554
 10
1.077577102945888
 20
7.312336326591767
 10
1.077577102945888
 20
7.004731801219168
 10
1.077577102945888
 20
6.966281235547592
 10
1.096802385781676
 20
6.947055952711805
 10
1.116027668617463
 20
6.90860538704023
 10
1.558209173840576
 20
6.427012052003753
 10
1.558209173840576
 20
6.388561486332179
 10
1.577434456676363
 20
6.369336203496391
 10
1.577434456676363
 20
6.330885637824817
 10
1.577434456676363
 20
6.080956960959579
 10
1.577434456676363
 20
6.061731678123791
 10
1.558209173840576
 20
6.023281112452217
 10
1.558209173840576
 20
6.004055829616429
 10
1.116027668617463
 20
5.523423758721742
 10
1.096802385781676
 20
5.484011928908378
 10
1.077577102945888
 20
5.464786646072591
 10
1.077577102945888
 20
5.426336080401016
 10
1.077577102945888
 20
5.118731555028416
 10
1.077577102945888
 20
5.099506272192629
 10
1.096802385781676
 20
5.061055706521052
 10
1.116027668617463
 20
5.041830423685265
 10
1.558209173840576
 20
4.54197306995479
 10
1.558209173840576
 20
4.522747787119003
 10
1.577434456676363
 20
4.483335957305639
 10
1.577434456676363
 20
4.464110674469852
  0
LWPOLYLINE
  5
112
100
AcDbEntity
  8
USP-GEO
100
AcDbPolyline
 90
       33
 70
   128
 43
0.0
 10
0.07690113134315
 20
7.004731801219168
 10
0.07690113134315
 20
6.966281235547592
 10
0.07690113134315
 20
6.947055952711805
 10
0.07690113134315
 20
6.90860538704023
 10
0.07690113134315
 20
6.427012052003753
 10
0.07690113134315
 20
6.388561486332179
 10
0.07690113134315
 20
6.369336203496391
 10
0.07690113134315
 20
6.330885637824817
 10
0.07690113134315
 20
6.080956960959579
 10
0.07690113134315
 20
6.061731678123791
 10
0.07690113134315
 20
6.023281112452217
 10
0.07690113134315
 20
6.004055829616429
 10
0.07690113134315
 20
5.523423758721742
 10
0.07690113134315
 20
5.484011928908378
 10
0.07690113134315
 20
5.464786646072591
 10
0.07690113134315
 20
5.426336080401016
 10
0.07690113134315
 20
5.118731555028416
 10
0.07690113134315
 20
5.099506272192629
 10
0.07690113134315
 20
5.061055706521052
 10
0.07690113134315
 20
5.041830423685265
 10
0.07690113134315
 20
4.54197306995479
 10
0.07690113134315
 20
4.522747787119003
 10
0.07690113134315
 20
4.483335957305639
 10
0.07690113134315
 20
4.464110674469852
 10
0.07690113134315
 20
2.385857599921225
 10
0.07690113134315
 20
2.212830054399137
 10
0.07690113134315
 20
2.059027791712837
 10
0.07690113134315
 20
1.905225529026537
 10
0.07690113134315
 20
0.3268298082083874
 10
0.1730275455220882
 20
0.2114781111936601
 10
0.1922528283578755
 20
0.1922528283578728
 10
0.2114781111936628
 20
0.1730275455220855
 10
0.2114781111936628
 20
0.134576979850511
  0
LWPOLYLINE
  5
113
100
AcDbEntity
  8
USP-GEO
100
AcDbPolyline
 90
        8
 70
   128
 43
0.0
 10
0.0
 20
4.54197306995479
 10
0.0
 20
5.041830423685265
 10
0.07690113134315
 20
5.041830423685265
 10
0.07690113134315
 20
4.54197306995479
 10
0.07690113134315
 20
4.522747787119003
 10
0.07690113134315
 20
4.483335957305639
 10
0.07690113134315
 20
4.464110674469852
 10
0.07690113134315
 20
2.385857599921225
  0
LWPOLYLINE
  5
114
100
AcDbEntity
  8
USP-GEO
100
AcDbPolyline
 90
        3
 70
   128
 43
0.0
 10
0.07690113134315
 20
4.464110674469852
 10
0.0
 20
4.464110674469852
 10
0.0
 20
2.385857599921225
  0
LWPOLYLINE
  5
115
100
AcDbEntity
  8
USP-GEO
100
AcDbPolyline
 90
        9
 70
   128
 43
0.0
 10
0.07690113134315
 20
0.3268298082083874
 10
0.07690113134315
 20
1.905225529026537
 10
0.07690113134315
 20
2.059027791712837
 10
0.07690113134315
 20
2.212830054399137
 10
0.07690113134315
 20
2.385857599921225
 10
0.0
 20
2.385857599921225
 10
0.0
 20
2.212830054399137
 10
0.0
 20
2.059027791712837
 10
0.0
 20
1.905225529026537
  0
LWPOLYLINE
  5
116
100
AcDbEntity
  8
USP-GEO
100
AcDbPolyline
 90
        2
 70
   129
 43
0.0
 10
0.0
 20
0.3268298082083874
 10
0.0
 20
1.905225529026537
  0
LWPOLYLINE
  5
117
100
AcDbEntity
  8
USP-GEO
100
AcDbPolyline
 90
        2
 70
   128
 43
0.0
 10
0.07690113134315
 20
0.3268298082083874
 10
0.1730275455220882
 20
0.2114781111936601
  0
LWPOLYLINE
  5
118
100
AcDbEntity
  8
USP-GEO
100
AcDbPolyline
 90
        2
 70
   129
 43
0.0
 10
0.07690113134315
 20
0.3268298082083874
 10
0.0
 20
0.3268298082083874
  0
LWPOLYLINE
  5
119
100
AcDbEntity
  8
USP-GEO
100
AcDbPolyline
 90
        2
 70
   128
 43
0.0
 10
0.07690113134315
 20
1.905225529026537
 10
0.0
 20
1.905225529026537
  0
LWPOLYLINE
  5
11A
100
AcDbEntity
  8
USP-GEO
100
AcDbPolyline
 90
        6
 70
   128
 43
0.0
 10
0.07690113134315
 20
6.080956960959579
 10
0.0
 20
6.080956960959579
 10
0.0
 20
6.061731678123791
 10
0.0
 20
6.023281112452217
 10
0.0
 20
6.004055829616429
 10
0.0
 20
5.523423758721742
  0
LWPOLYLINE
  5
11B
100
AcDbEntity
  8
USP-GEO
100
AcDbPolyline
 90
        6
 70
   128
 43
0.0
 10
0.07690113134315
 20
5.426336080401016
 10
0.07690113134315
 20
5.464786646072591
 10
0.07690113134315
 20
5.484011928908378
 10
0.07690113134315
 20
5.523423758721742
 10
0.07690113134315
 20
6.004055829616429
 10
0.0
 20
6.004055829616429
  0
LWPOLYLINE
  5
11C
100
AcDbEntity
  8
USP-GEO
100
AcDbPolyline
 90
        5
 70
   128
 43
0.0
 10
0.07690113134315
 20
4.54197306995479
 10
0.0
 20
4.54197306995479
 10
0.0
 20
4.522747787119003
 10
0.0
 20
4.483335957305639
 10
0.0
 20
4.464110674469852
  0
LWPOLYLINE
  5
11D
100
AcDbEntity
  8
USP-GEO
100
AcDbPolyline
 90
        7
 70
   128
 43
0.0
 10
0.07690113134315
 20
5.118731555028416
 10
0.07690113134315
 20
5.426336080401016
 10
0.0
 20
5.426336080401016
 10
0.0
 20
5.464786646072591
 10
0.0
 20
5.484011928908378
 10
0.0
 20
5.523423758721742
 10
0.07690113134315
 20
5.523423758721742
  0
LWPOLYLINE
  5
11E
100
AcDbEntity
  8
USP-GEO
100
AcDbPolyline
 90
        2
 70
   128
 43
0.0
 10
0.0
 20
5.426336080401016
 10
0.0
 20
5.118731555028416
  0
LWPOLYLINE
  5
11F
100
AcDbEntity
  8
USP-GEO
100
AcDbPolyline
 90
        8
 70
   128
 43
0.0
 10
0.07690113134315
 20
5.041830423685265
 10
0.07690113134315
 20
5.061055706521052
 10
0.07690113134315
 20
5.099506272192629
 10
0.07690113134315
 20
5.118731555028416
 10
0.0
 20
5.118731555028416
 10
0.0
 20
5.099506272192629
 10
0.0
 20
5.061055706521052
 10
0.0
 20
5.041830423685265
  0
LWPOLYLINE
  5
120
100
AcDbEntity
  8
USP-GEO
100
AcDbPolyline
 90
        2
 70
   128
 43
0.0
 10
0.0
 20
7.312336326591767
 10
0.0
 20
7.004731801219168
  0
LWPOLYLINE
  5
121
100
AcDbEntity
  8
USP-GEO
100
AcDbPolyline
 90
        2
 70
   129
 43
0.0
 10
0.07690113134315
 20
7.312336326591767
 10
0.07690113134315
 20
7.004731801219168
  0
LWPOLYLINE
  5
122
100
AcDbEntity
  8
USP-GEO
100
AcDbPolyline
 90
        8
 70
   128
 43
0.0
 10
0.0
 20
6.90860538704023
 10
0.0
 20
6.947055952711805
 10
0.0
 20
6.966281235547592
 10
0.0
 20
7.004731801219168
 10
0.07690113134315
 20
7.004731801219168
 10
0.07690113134315
 20
6.966281235547592
 10
0.07690113134315
 20
6.947055952711805
 10
0.07690113134315
 20
6.90860538704023
  0
LWPOLYLINE
  5
123
100
AcDbEntity
  8
USP-GEO
100
AcDbPolyline
 90
        6
 70
   128
 43
0.0
 10
0.07690113134315
 20
6.427012052003753
 10
0.0
 20
6.427012052003753
 10
0.0
 20
6.388561486332179
 10
0.0
 20
6.369336203496391
 10
0.0
 20
6.330885637824817
 10
0.07690113134315
 20
6.330885637824817
  0
LWPOLYLINE
  5
124
100
AcDbEntity
  8
USP-GEO
100
AcDbPolyline
 90
        2
 70
   128
 43
0.0
 10
0.0
 20
6.330885637824817
 10
0.0
 20
6.080956960959579
  0
LWPOLYLINE
  5
125
100
AcDbEntity
  8
USP-GEO
100
AcDbPolyline
 90
       11
 70
   128
 43
0.0
 10
0.07690113134315
 20
6.004055829616429
 10
0.07690113134315
 20
6.023281112452217
 10
0.07690113134315
 20
6.061731678123791
 10
0.07690113134315
 20
6.080956960959579
 10
0.07690113134315
 20
6.330885637824817
 10
0.07690113134315
 20
6.369336203496391
 10
0.07690113134315
 20
6.388561486332179
 10
0.07690113134315
 20
6.427012052003753
 10
0.07690113134315
 20
6.90860538704023
 10
0.0
 20
6.90860538704023
 10
0.0
 20
6.427012052003753
  0
LWPOLYLINE
  5
126
100
AcDbEntity
  8
USP-GEO
100
AcDbPolyline
 90
        6
 70
   128
 43
0.0
 10
0.07690113134315
 20
7.312336326591767
 10
0.07690113134315
 20
7.331561609427554
 10
0.07690113134315
 20
7.37001217509913
 10
0.07690113134315
 20
7.389237457934918
 10
0.07690113134315
 20
7.890056075807182
 10
0.0
 20
7.890056075807182
  0
LWPOLYLINE
  5
127
100
AcDbEntity
  8
USP-GEO
100
AcDbPolyline
 90
        5
 70
   128
 43
0.0
 10
0.0
 20
7.966957207150331
 10
0.0
 20
7.928506641478756
 10
0.0
 20
7.909281358642969
 10
0.0
 20
7.890056075807182
 10
0.0
 20
7.389237457934918
  0
LWPOLYLINE
  5
128
100
AcDbEntity
  8
USP-GEO
100
AcDbPolyline
 90
        6
 70
   128
 43
0.0
 10
0.07690113134315
 20
7.389237457934918
 10
0.0
 20
7.389237457934918
 10
0.0
 20
7.37001217509913
 10
0.0
 20
7.331561609427554
 10
0.0
 20
7.312336326591767
 10
0.07690113134315
 20
7.312336326591767
  0
LWPOLYLINE
  5
129
100
AcDbEntity
  8
USP-GEO
100
AcDbPolyline
 90
       12
 70
   129
 43
0.0
 10
0.6921101820883502
 20
1.482269306639214
 10
0.6728848992525629
 20
1.520719872310788
 10
0.6921101820883502
 20
1.559170437982363
 10
0.7305607477599248
 20
1.597621003653939
 10
0.7690113134314993
 20
1.616846286489726
 10
0.8074618791030738
 20
1.597621003653939
 10
0.8459124447746502
 20
1.559170437982363
 10
0.866098991752227
 20
1.520719872310788
 10
0.8459124447746502
 20
1.482269306639214
 10
0.8074618791030738
 20
1.443818740967639
 10
0.7690113134314993
 20
1.423632193990062
 10
0.7305607477599248
 20
1.443818740967639
  0
LWPOLYLINE
  5
12A
100
AcDbEntity
  8
USP-GEO
100
AcDbPolyline
 90
        2
 70
   128
 43
0.0
 10
0.7690113134314993
 20
1.423632193990062
 10
0.7305607477599248
 20
1.443818740967639
  0
LWPOLYLINE
  5
12B
100
AcDbEntity
  8
USP-GEO
100
AcDbPolyline
 90
       12
 70
   129
 43
0.0
 10
0.6921101820883502
 20
3.232731308837664
 10
0.6728848992525629
 20
3.271181874509238
 10
0.6921101820883502
 20
3.309632440180813
 10
0.7305607477599248
 20
3.348083005852389
 10
0.7690113134314993
 20
3.367308288688176
 10
0.8074618791030738
 20
3.348083005852389
 10
0.8459124447746502
 20
3.309632440180813
 10
0.866098991752227
 20
3.271181874509238
 10
0.8459124447746502
 20
3.232731308837664
 10
0.8074618791030738
 20
3.194280743166089
 10
0.7690113134314993
 20
3.175055460330302
 10
0.7305607477599248
 20
3.194280743166089
  0
LWPOLYLINE
  5
12C
100
AcDbEntity
  8
USP-GEO
100
AcDbPolyline
 90
        2
 70
   128
 43
0.0
 10
0.7690113134314993
 20
3.175055460330302
 10
0.7305607477599248
 20
3.194280743166089
  0
LWPOLYLINE
  5
12D
100
AcDbEntity
  8
USP-GEO
100
AcDbPolyline
 90
       12
 70
   129
 43
0.0
 10
1.231379365632188
 20
0.9430001230953735
 10
1.192928799960612
 20
0.9814506887669516
 10
1.173703517124825
 20
1.019901254438526
 10
1.192928799960612
 20
1.0583518201101
 10
1.231379365632188
 20
1.096802385781675
 10
1.269829931303763
 20
1.116027668617462
 10
1.308280496975338
 20
1.096802385781675
 10
1.346731062646912
 20
1.0583518201101
 10
1.365956345482699
 20
1.019901254438526
 10
1.346731062646912
 20
0.9814506887669516
 10
1.308280496975338
 20
0.9430001230953735
 10
1.269829931303763
 20
0.9237748402595862
  0
LWPOLYLINE
  5
12E
100
AcDbEntity
  8
USP-GEO
100
AcDbPolyline
 90
       12
 70
   129
 43
0.0
 10
1.173703517124825
 20
2.771324520778764
 10
1.192928799960612
 20
2.732873955107189
 10
1.231379365632188
 20
2.694423389435614
 10
1.269829931303763
 20
2.675198106599827
 10
1.308280496975338
 20
2.694423389435614
 10
1.346731062646912
 20
2.732873955107189
 10
1.365956345482699
 20
2.771324520778764
 10
1.346731062646912
 20
2.80977508645034
 10
1.308280496975338
 20
2.848225652121914
 10
1.269829931303763
 20
2.867450934957702
 10
1.231379365632188
 20
2.848225652121914
 10
1.192928799960612
 20
2.80977508645034
  0
LWPOLYLINE
  5
12F
100
AcDbEntity
  8
USP-GEO
100
AcDbPolyline
 90
       12
 70
   129
 43
0.0
 10
0.6921101820883502
 20
4.984154575177903
 10
0.6728848992525629
 20
5.022605140849478
 10
0.6921101820883502
 20
5.061055706521052
 10
0.7305607477599248
 20
5.099506272192629
 10
0.7690113134314993
 20
5.118731555028416
 10
0.8074618791030738
 20
5.099506272192629
 10
0.8459124447746502
 20
5.061055706521052
 10
0.866098991752227
 20
5.022605140849478
 10
0.8459124447746502
 20
4.984154575177903
 10
0.8074618791030738
 20
4.945704009506329
 10
0.7690113134314993
 20
4.926478726670541
 10
0.7305607477599248
 20
4.945704009506329
  0
LWPOLYLINE
  5
130
100
AcDbEntity
  8
USP-GEO
100
AcDbPolyline
 90
        2
 70
   128
 43
0.0
 10
0.7690113134314993
 20
4.926478726670541
 10
0.7305607477599248
 20
4.945704009506329
  0
LWPOLYLINE
  5
131
100
AcDbEntity
  8
USP-GEO
100
AcDbPolyline
 90
       12
 70
   129
 43
0.0
 10
0.6921101820883502
 20
6.831704255697081
 10
0.7305607477599248
 20
6.850929538532868
 10
0.7690113134314993
 20
6.870154821368656
 10
0.8074618791030738
 20
6.850929538532868
 10
0.8459124447746502
 20
6.831704255697081
 10
0.866098991752227
 20
6.774028407189717
 10
0.8459124447746502
 20
6.735577841518143
 10
0.8074618791030738
 20
6.697127275846568
 10
0.7690113134314993
 20
6.677901993010781
 10
0.7305607477599248
 20
6.697127275846568
 10
0.6921101820883502
 20
6.735577841518143
 10
0.6728848992525629
 20
6.774028407189717
  0
LWPOLYLINE
  5
132
100
AcDbEntity
  8
USP-GEO
100
AcDbPolyline
 90
        2
 70
   128
 43
0.0
 10
0.7690113134314993
 20
6.677901993010781
 10
0.7305607477599248
 20
6.697127275846568
  0
LWPOLYLINE
  5
133
100
AcDbEntity
  8
USP-GEO
100
AcDbPolyline
 90
        3
 70
   128
 43
0.0
 10
1.096802385781676
 20
5.484011928908378
 10
1.116027668617463
 20
5.523423758721742
 10
1.558209173840576
 20
6.004055829616429
  0
LWPOLYLINE
  5
134
100
AcDbEntity
  8
USP-GEO
100
AcDbPolyline
 90
        2
 70
   128
 43
0.0
 10
1.558209173840576
 20
4.54197306995479
 10
1.116027668617463
 20
5.041830423685265
  0
LWPOLYLINE
  5
135
100
AcDbEntity
  8
USP-GEO
100
AcDbPolyline
 90
       12
 70
   129
 43
0.0
 10
1.173703517124825
 20
4.522747787119003
 10
1.192928799960612
 20
4.483335957305639
 10
1.231379365632188
 20
4.444885391634064
 10
1.269829931303763
 20
4.425660108798277
 10
1.308280496975338
 20
4.444885391634064
 10
1.346731062646912
 20
4.483335957305639
 10
1.365956345482699
 20
4.522747787119003
 10
1.346731062646912
 20
4.561198352790579
 10
1.308280496975338
 20
4.599648918462154
 10
1.269829931303763
 20
4.618874201297941
 10
1.231379365632188
 20
4.599648918462154
 10
1.192928799960612
 20
4.561198352790579
  0
LWPOLYLINE
  5
136
100
AcDbEntity
  8
USP-GEO
100
AcDbPolyline
 90
        3
 70
   128
 43
0.0
 10
1.077577102945888
 20
5.099506272192629
 10
1.077577102945888
 20
5.118731555028416
 10
1.077577102945888
 20
5.426336080401016
  0
LWPOLYLINE
  5
137
100
AcDbEntity
  8
USP-GEO
100
AcDbPolyline
 90
        2
 70
   128
 43
0.0
 10
1.558209173840576
 20
6.427012052003753
 10
1.116027668617463
 20
6.90860538704023
  0
LWPOLYLINE
  5
138
100
AcDbEntity
  8
USP-GEO
100
AcDbPolyline
 90
        3
 70
   128
 43
0.0
 10
1.096802385781676
 20
7.37001217509913
 10
1.116027668617463
 20
7.389237457934918
 10
1.558209173840576
 20
7.890056075807182
  0
LWPOLYLINE
  5
139
100
AcDbEntity
  8
USP-GEO
100
AcDbPolyline
 90
        3
 70
   128
 43
0.0
 10
1.077577102945888
 20
6.966281235547592
 10
1.077577102945888
 20
7.004731801219168
 10
1.077577102945888
 20
7.312336326591767
  0
LWPOLYLINE
  5
13A
100
AcDbEntity
  8
USP-GEO
100
AcDbPolyline
 90
       12
 70
   129
 43
0.0
 10
1.173703517124825
 20
6.273209789317453
 10
1.192928799960612
 20
6.234759223645879
 10
1.231379365632188
 20
6.196308657974304
 10
1.269829931303763
 20
6.177083375138517
 10
1.308280496975338
 20
6.196308657974304
 10
1.346731062646912
 20
6.234759223645879
 10
1.365956345482699
 20
6.273209789317453
 10
1.346731062646912
 20
6.330885637824817
 10
1.308280496975338
 20
6.350110920660604
 10
1.269829931303763
 20
6.369336203496391
 10
1.231379365632188
 20
6.350110920660604
 10
1.192928799960612
 20
6.330885637824817
  0
LWPOLYLINE
  5
13B
100
AcDbEntity
  8
USP-GEO
100
AcDbPolyline
 90
        2
 70
   128
 43
0.0
 10
1.577434456676363
 20
6.080956960959579
 10
1.577434456676363
 20
6.330885637824817
  0
LWPOLYLINE
  5
13C
100
AcDbEntity
  8
USP-GEO
100
AcDbPolyline
 90
        2
 70
   129
 43
0.0
 10
0.07690113134315
 20
9.159886007110944
 10
1.077577102945888
 20
9.159886007110944
  0
LWPOLYLINE
  5
13D
100
AcDbEntity
  8
USP-GEO
100
AcDbPolyline
 90
       12
 70
   129
 43
0.0
 10
0.1922528283578755
 20
8.756155067559408
 10
0.1730275455220882
 20
8.833056198902557
 10
0.1922528283578755
 20
8.929182613081495
 10
0.2499286768652373
 20
8.96763317875307
 10
0.3268298082083882
 20
9.006083744424644
 10
0.4037309395515374
 20
8.96763317875307
 10
0.4614067880588993
 20
8.929182613081495
 10
0.4806320708946866
 20
8.833056198902557
 10
0.4614067880588993
 20
8.756155067559408
 10
0.4037309395515374
 20
8.698479219052044
 10
0.3268298082083882
 20
8.679253936216257
 10
0.2499286768652373
 20
8.698479219052044
  0
LWPOLYLINE
  5
13E
100
AcDbEntity
  8
USP-GEO
100
AcDbPolyline
 90
        2
 70
   128
 43
0.0
 10
0.4037309395515374
 20
8.698479219052044
 10
0.3268298082083882
 20
8.679253936216257
  0
LWPOLYLINE
  5
13F
100
AcDbEntity
  8
USP-GEO
100
AcDbPolyline
 90
        3
 70
   128
 43
0.0
 10
0.07690113134315
 20
9.159886007110944
 10
0.0
 20
9.159886007110944
 10
0.0
 20
8.871506764574132
  0
LWPOLYLINE
  5
140
100
AcDbEntity
  8
USP-GEO
100
AcDbPolyline
 90
        6
 70
   128
 43
0.0
 10
0.07690113134315
 20
8.871506764574132
 10
0.0
 20
8.871506764574132
 10
0.0
 20
8.852281481738344
 10
0.0
 20
8.81383091606677
 10
0.0
 20
8.794605633230982
 10
0.07690113134315
 20
8.794605633230982
  0
LWPOLYLINE
  5
141
100
AcDbEntity
  8
USP-GEO
100
AcDbPolyline
 90
        3
 70
   128
 43
0.0
 10
0.07690113134315
 20
8.293787015358718
 10
0.0
 20
8.293787015358718
 10
0.0
 20
8.794605633230982
  0
LWPOLYLINE
  5
142
100
AcDbEntity
  8
USP-GEO
100
AcDbPolyline
 90
        5
 70
   128
 43
0.0
 10
0.07690113134315
 20
8.216885884015567
 10
0.0
 20
8.216885884015567
 10
0.0
 20
8.255336449687144
 10
0.0
 20
8.274561732522931
 10
0.0
 20
8.293787015358718
  0
LWPOLYLINE
  5
143
100
AcDbEntity
  8
USP-GEO
100
AcDbPolyline
 90
        2
 70
   128
 43
0.0
 10
0.2499286768652373
 20
8.96763317875307
 10
0.3268298082083882
 20
9.006083744424644
  0
LWPOLYLINE
  5
144
100
AcDbEntity
  8
USP-GEO
100
AcDbPolyline
 90
       12
 70
   129
 43
0.0
 10
0.6921101820883502
 20
8.736929784723619
 10
0.6728848992525629
 20
8.775380350395195
 10
0.6921101820883502
 20
8.833056198902557
 10
0.7305607477599248
 20
8.852281481738344
 10
0.7690113134314993
 20
8.871506764574132
 10
0.8074618791030738
 20
8.852281481738344
 10
0.8459124447746502
 20
8.833056198902557
 10
0.866098991752227
 20
8.775380350395195
 10
0.8459124447746502
 20
8.736929784723619
 10
0.8074618791030738
 20
8.698479219052044
 10
0.7690113134314993
 20
8.698479219052044
 10
0.7305607477599248
 20
8.698479219052044
  0
LWPOLYLINE
  5
145
100
AcDbEntity
  8
USP-GEO
100
AcDbPolyline
 90
        2
 70
   128
 43
0.0
 10
0.4614067880588993
 20
8.929182613081495
 10
0.4806320708946866
 20
8.833056198902557
  0
LWPOLYLINE
  5
146
100
AcDbEntity
  8
USP-GEO
100
AcDbPolyline
 90
        2
 70
   128
 43
0.0
 10
0.7690113134314993
 20
8.698479219052044
 10
0.7305607477599248
 20
8.698479219052044
  0
LWPOLYLINE
  5
147
100
AcDbEntity
  8
USP-GEO
100
AcDbPolyline
 90
        2
 70
   128
 43
0.0
 10
1.558209173840576
 20
8.293787015358718
 10
1.116027668617463
 20
8.794605633230982
  0
LWPOLYLINE
  5
148
100
AcDbEntity
  8
USP-GEO
100
AcDbPolyline
 90
       12
 70
   129
 43
0.0
 10
1.173703517124825
 20
8.274561732522931
 10
1.192928799960612
 20
8.236111166851356
 10
1.231379365632188
 20
8.19766060117978
 10
1.269829931303763
 20
8.19766060117978
 10
1.308280496975338
 20
8.19766060117978
 10
1.346731062646912
 20
8.236111166851356
 10
1.365956345482699
 20
8.274561732522931
 10
1.346731062646912
 20
8.332237581030293
 10
1.308280496975338
 20
8.35146286386608
 10
1.269829931303763
 20
8.370688146701867
 10
1.231379365632188
 20
8.35146286386608
 10
1.192928799960612
 20
8.332237581030293
  0
ENDBLK
  5
14A
100
AcDbEntity
  8
0
100
AcDbBlockEnd
  0
ENDSEC
  0
SECTION
  2
ENTITIES
  0
INSERT
  5
3
100
AcDbEntity
  8
USP
100
AcDbBlockReference
  2
THD410_T
 10
8.350187651728782
 20
16.06814258991707
 30
0.0
  0
INSERT
  5
42
100
AcDbEntity
  8
USP
100
AcDbBlockReference
  2
THD410_F
 10
8.350187651728782
 20
2.077904270314519
 30
0.0
  0
INSERT
  5
107
100
AcDbEntity
  8
USP
100
AcDbBlockReference
  2
THD410_S
 10
0.8282957422269303
 20
2.077904270314519
 30
0.0
  0
ENDSEC
  0
SECTION
  2
OBJECTS
  0
DICTIONARY
  5
163
102
{ACAD_XDICTIONARY
360
164
102
}
100
AcDbDictionary
  3
ACAD_GROUP
350
161
  3
ACAD_MLINESTYLE
350
162
  0
DICTIONARY
  5
E
100
AcDbDictionary
280
     1
  3
ACAD_XREC_ROUNDTRIP
360
F
  0
DICTIONARY
  5
9
100
AcDbDictionary
280
     1
  3
ACAD_XREC_ROUNDTRIP
360
A
  0
DICTIONARY
  5
14B
100
AcDbDictionary
280
     1
  3
ACAD_LAYOUTSELFREF
360
14C
  0
DICTIONARY
  5
150
100
AcDbDictionary
280
     1
  3
ACAD_LAYOUTSELFREF
360
151
  0
DICTIONARY
  5
164
100
AcDbDictionary
280
     1
  3
ACAD_XREC_ROUNDTRIP
360
165
  0
DICTIONARY
  5
161
102
{ACAD_REACTORS
330
163
102
}
100
AcDbDictionary
  0
DICTIONARY
  5
162
102
{ACAD_REACTORS
330
163
102
}
100
AcDbDictionary
  3
STANDARD
350
166
  0
XRECORD
  5
F
102
{ACAD_REACTORS
330
E
102
}
100
AcDbXrecord
102
EXTNAMES
  1
USP-GEO
  2
USP-Geo
  0
XRECORD
  5
A
102
{ACAD_REACTORS
330
9
102
}
100
AcDbXrecord
102
EXTNAMES
  1
USP-TXT
  2
USP-Txt
  0
XRECORD
  5
14C
102
{ACAD_REACTORS
330
14B
102
}
100
AcDbXrecord
340
18
  0
XRECORD
  5
151
102
{ACAD_REACTORS
330
150
102
}
100
AcDbXrecord
340
15
  0
XRECORD
  5
165
102
{ACAD_REACTORS
330
164
102
}
100
AcDbXrecord
102
EXTNAMES
  1
ACDBVARIABLEDICTIONARY
  2
AcDbVariableDictionary
  0
MLINESTYLE
  5
166
102
{ACAD_REACTORS
330
162
102
}
100
AcDbMlineStyle
  2
STANDARD
 70
     0
  3

 62
     0
 51
90.0
 52
90.0
 71
     2
 49
0.5
 62
   256
  6
BYLAYER
 49
-0.5
 62
   256
  6
BYLAYER
  0
ENDSEC
  0
EOF
