  0
SECTION
  2
HEADER
  9
$ACADVER
  1
AC1015
  9
$ACADMAINTVER
 70
    20
  9
$DWGCODEPAGE
  3
ANSI_1252
  9
$INSBASE
 10
0.0
 20
0.0
 30
0.0
  9
$EXTMIN
 10
0.0003661829982491
 20
0.0003315710061216
 30
0.0000000000000037
  9
$EXTMAX
 10
9.732776285646773
 20
10.86590464241234
 30
0.0000000000000043
  9
$LIMMIN
 10
0.0
 20
0.0
  9
$LIMMAX
 10
12.0
 20
9.0
  9
$ORTHOMODE
 70
     0
  9
$REGENMODE
 70
     1
  9
$FILLMODE
 70
     1
  9
$QTEXTMODE
 70
     0
  9
$MIRRTEXT
 70
     0
  9
$LTSCALE
 40
0.5
  9
$ATTMODE
 70
     1
  9
$TEXTSIZE
 40
0.25
  9
$TRACEWID
 40
0.05
  9
$TEXTSTYLE
  7
STANDARD
  9
$CLAYER
  8
0
  9
$CELTYPE
  6
BYLAYER
  9
$CECOLOR
 62
   256
  9
$CELTSCALE
 40
1.0
  9
$DISPSILH
 70
     1
  9
$DIMSCALE
 40
1.0
  9
$DIMASZ
 40
0.18
  9
$DIMEXO
 40
0.0625
  9
$DIMDLI
 40
0.38
  9
$DIMRND
 40
0.0
  9
$DIMDLE
 40
0.0
  9
$DIMEXE
 40
0.18
  9
$DIMTP
 40
0.0
  9
$DIMTM
 40
0.0
  9
$DIMTXT
 40
0.18
  9
$DIMCEN
 40
0.09
  9
$DIMTSZ
 40
0.0
  9
$DIMTOL
 70
     0
  9
$DIMLIM
 70
     0
  9
$DIMTIH
 70
     1
  9
$DIMTOH
 70
     1
  9
$DIMSE1
 70
     0
  9
$DIMSE2
 70
     0
  9
$DIMTAD
 70
     0
  9
$DIMZIN
 70
     0
  9
$DIMBLK
  1

  9
$DIMASO
 70
     1
  9
$DIMSHO
 70
     0
  9
$DIMPOST
  1

  9
$DIMAPOST
  1

  9
$DIMALT
 70
     0
  9
$DIMALTD
 70
     2
  9
$DIMALTF
 40
25.4
  9
$DIMLFAC
 40
1.0
  9
$DIMTOFL
 70
     0
  9
$DIMTVP
 40
0.0
  9
$DIMTIX
 70
     0
  9
$DIMSOXD
 70
     0
  9
$DIMSAH
 70
     0
  9
$DIMBLK1
  1

  9
$DIMBLK2
  1

  9
$DIMSTYLE
  2
STANDARD
  9
$DIMCLRD
 70
     0
  9
$DIMCLRE
 70
     0
  9
$DIMCLRT
 70
     0
  9
$DIMTFAC
 40
1.0
  9
$DIMGAP
 40
0.09375
  9
$DIMJUST
 70
     0
  9
$DIMSD1
 70
     0
  9
$DIMSD2
 70
     0
  9
$DIMTOLJ
 70
     1
  9
$DIMTZIN
 70
     0
  9
$DIMALTZ
 70
     0
  9
$DIMALTTZ
 70
     0
  9
$DIMUPT
 70
     0
  9
$DIMDEC
 70
     4
  9
$DIMTDEC
 70
     4
  9
$DIMALTU
 70
     2
  9
$DIMALTTD
 70
     2
  9
$DIMTXSTY
  7
STANDARD
  9
$DIMAUNIT
 70
     0
  9
$DIMADEC
 70
     0
  9
$DIMALTRND
 40
0.0
  9
$DIMAZIN
 70
     0
  9
$DIMDSEP
 70
    46
  9
$DIMATFIT
 70
     3
  9
$DIMFRAC
 70
     2
  9
$DIMLDRBLK
  1

  9
$DIMLUNIT
 70
     5
  9
$DIMLWD
 70
    -2
  9
$DIMLWE
 70
    -2
  9
$DIMTMOVE
 70
     0
  9
$LUNITS
 70
     5
  9
$LUPREC
 70
     6
  9
$SKETCHINC
 40
0.1
  9
$FILLETRAD
 40
0.0
  9
$AUNITS
 70
     0
  9
$AUPREC
 70
     1
  9
$MENU
  1
CUSTOM
  9
$ELEVATION
 40
0.0
  9
$PELEVATION
 40
0.0
  9
$THICKNESS
 40
0.0
  9
$LIMCHECK
 70
     0
  9
$CHAMFERA
 40
0.0
  9
$CHAMFERB
 40
0.0
  9
$CHAMFERC
 40
0.0
  9
$CHAMFERD
 40
0.0
  9
$SKPOLY
 70
     0
  9
$TDCREATE
 40
2451712.378533912
  9
$TDUCREATE
 40
2451712.586867246
  9
$TDUPDATE
 40
2455846.459583288
  9
$TDUUPDATE
 40
2455846.667916620
  9
$TDINDWG
 40
0.0047622106
  9
$TDUSRTIMER
 40
0.0047622106
  9
$USRTIMER
 70
     1
  9
$ANGBASE
 50
0.0
  9
$ANGDIR
 70
     0
  9
$PDMODE
 70
     0
  9
$PDSIZE
 40
0.0
  9
$PLINEWID
 40
0.0
  9
$SPLFRAME
 70
     0
  9
$SPLINETYPE
 70
     6
  9
$SPLINESEGS
 70
     8
  9
$HANDSEED
  5
112
  9
$SURFTAB1
 70
     6
  9
$SURFTAB2
 70
     6
  9
$SURFTYPE
 70
     6
  9
$SURFU
 70
     6
  9
$SURFV
 70
     6
  9
$UCSBASE
  2

  9
$UCSNAME
  2

  9
$UCSORG
 10
0.0
 20
0.0
 30
0.0
  9
$UCSXDIR
 10
1.0
 20
0.0
 30
0.0
  9
$UCSYDIR
 10
0.0
 20
1.0
 30
0.0
  9
$UCSORTHOREF
  2

  9
$UCSORTHOVIEW
 70
     0
  9
$UCSORGTOP
 10
0.0
 20
0.0
 30
0.0
  9
$UCSORGBOTTOM
 10
0.0
 20
0.0
 30
0.0
  9
$UCSORGLEFT
 10
0.0
 20
0.0
 30
0.0
  9
$UCSORGRIGHT
 10
0.0
 20
0.0
 30
0.0
  9
$UCSORGFRONT
 10
0.0
 20
0.0
 30
0.0
  9
$UCSORGBACK
 10
0.0
 20
0.0
 30
0.0
  9
$PUCSBASE
  2

  9
$PUCSNAME
  2

  9
$PUCSORG
 10
0.0
 20
0.0
 30
0.0
  9
$PUCSXDIR
 10
1.0
 20
0.0
 30
0.0
  9
$PUCSYDIR
 10
0.0
 20
1.0
 30
0.0
  9
$PUCSORTHOREF
  2

  9
$PUCSORTHOVIEW
 70
     0
  9
$PUCSORGTOP
 10
0.0
 20
0.0
 30
0.0
  9
$PUCSORGBOTTOM
 10
0.0
 20
0.0
 30
0.0
  9
$PUCSORGLEFT
 10
0.0
 20
0.0
 30
0.0
  9
$PUCSORGRIGHT
 10
0.0
 20
0.0
 30
0.0
  9
$PUCSORGFRONT
 10
0.0
 20
0.0
 30
0.0
  9
$PUCSORGBACK
 10
0.0
 20
0.0
 30
0.0
  9
$USERI1
 70
     0
  9
$USERI2
 70
     0
  9
$USERI3
 70
     0
  9
$USERI4
 70
     0
  9
$USERI5
 70
     0
  9
$USERR1
 40
0.0
  9
$USERR2
 40
0.0
  9
$USERR3
 40
0.0
  9
$USERR4
 40
0.0
  9
$USERR5
 40
0.0
  9
$WORLDVIEW
 70
     1
  9
$SHADEDGE
 70
     3
  9
$SHADEDIF
 70
    70
  9
$TILEMODE
 70
     1
  9
$MAXACTVP
 70
    16
  9
$PINSBASE
 10
0.0
 20
0.0
 30
0.0
  9
$PLIMCHECK
 70
     0
  9
$PEXTMIN
 10
1.000000000000000E+20
 20
1.000000000000000E+20
 30
1.000000000000000E+20
  9
$PEXTMAX
 10
-1.000000000000000E+20
 20
-1.000000000000000E+20
 30
-1.000000000000000E+20
  9
$PLIMMIN
 10
0.0
 20
0.0
  9
$PLIMMAX
 10
12.0
 20
9.0
  9
$UNITMODE
 70
     0
  9
$VISRETAIN
 70
     0
  9
$PLINEGEN
 70
     0
  9
$PSLTSCALE
 70
     0
  9
$TREEDEPTH
 70
  3020
  9
$CMLSTYLE
  2
STANDARD
  9
$CMLJUST
 70
     0
  9
$CMLSCALE
 40
1.0
  9
$PROXYGRAPHICS
 70
     1
  9
$MEASUREMENT
 70
     0
  9
$CELWEIGHT
370
    -1
  9
$ENDCAPS
280
     0
  9
$JOINSTYLE
280
     0
  9
$LWDISPLAY
290
     0
  9
$INSUNITS
 70
     0
  9
$HYPERLINKBASE
  1

  9
$STYLESHEET
  1

  9
$XEDIT
290
     1
  9
$CEPSNTYPE
380
     0
  9
$PSTYLEMODE
290
     1
  9
$FINGERPRINTGUID
  2
{C8096E30-EA4E-486E-BDFD-BD784CB15D0D}
  9
$VERSIONGUID
  2
{CE52232E-CF60-4DE3-A562-D02D4327DF3D}
  9
$EXTNAMES
290
     1
  9
$PSVPSCALE
 40
0.0
  9
$OLESTARTUP
290
     0
  0
ENDSEC
  0
SECTION
  2
CLASSES
  0
CLASS
  1
ACDBDICTIONARYWDFLT
  2
AcDbDictionaryWithDefault
  3
ObjectDBX Classes
 90
        0
280
     1
281
     0
  0
CLASS
  1
ACDBPLACEHOLDER
  2
AcDbPlaceHolder
  3
ObjectDBX Classes
 90
        0
280
     0
281
     0
  0
CLASS
  1
LAYOUT
  2
AcDbLayout
  3
ObjectDBX Classes
 90
        0
280
     0
281
     0
  0
CLASS
  1
DICTIONARYVAR
  2
AcDbDictionaryVar
  3
ObjectDBX Classes
 90
        0
280
     0
281
     0
  0
ENDSEC
  0
SECTION
  2
TABLES
  0
TABLE
  2
VPORT
  5
E1
330
0
100
AcDbSymbolTable
 70
     2
  0
VPORT
  5
10A
330
E1
100
AcDbSymbolTableRecord
100
AcDbViewportTableRecord
  2
*Active
 70
     0
 10
0.0
 20
0.0
 11
1.0
 21
1.0
 12
-0.3377066218494864
 22
6.442686040128078
 13
0.0
 23
0.0
 14
1.0
 24
1.0
 15
0.0
 25
0.0
 16
0.0
 26
0.0
 36
1.0
 17
9.677084859618208
 27
-0.8754956574043397
 37
6.261715494292793
 40
11.21375366283119
 41
2.25531914893617
 42
50.0
 43
-19.50571077124767
 44
-19.50571077124767
 50
0.0
 51
0.0
 71
     0
 72
   100
 73
     1
 74
     1
 75
     0
 76
     0
 77
     0
 78
     0
281
     0
 65
     1
110
0.0
120
0.0
130
0.0
111
1.0
121
0.0
131
0.0
112
0.0
122
1.0
132
0.0
 79
     0
146
0.0
  0
ENDTAB
  0
TABLE
  2
LTYPE
  5
DC
330
0
100
AcDbSymbolTable
 70
     2
  0
LTYPE
  5
DD
330
DC
100
AcDbSymbolTableRecord
100
AcDbLinetypeTableRecord
  2
BYBLOCK
 70
     0
  3

 72
    65
 73
     0
 40
0.0
  0
LTYPE
  5
DE
330
DC
100
AcDbSymbolTableRecord
100
AcDbLinetypeTableRecord
  2
BYLAYER
 70
     0
  3

 72
    65
 73
     0
 40
0.0
  0
LTYPE
  5
5
330
DC
100
AcDbSymbolTableRecord
100
AcDbLinetypeTableRecord
  2
CONTINUOUS
 70
     0
  3
Solid line
 72
    65
 73
     0
 40
0.0
  0
LTYPE
  5
A1
330
DC
100
AcDbSymbolTableRecord
100
AcDbLinetypeTableRecord
  2
HIDDEN
 70
     0
  3
Hidden __ __ __ __ __ __ __ __ __ __ __ __ __ _
 72
    65
 73
     2
 40
0.375
 49
0.25
 74
     0
 49
-0.125
 74
     0
  0
ENDTAB
  0
TABLE
  2
LAYER
  5
DA
330
0
100
AcDbSymbolTable
 70
     5
  0
LAYER
  5
38
330
DA
100
AcDbSymbolTableRecord
100
AcDbLayerTableRecord
  2
0
 70
     0
 62
     7
  6
CONTINUOUS
370
    -3
390
FE
  0
LAYER
  5
4
330
DA
100
AcDbSymbolTableRecord
100
AcDbLayerTableRecord
  2
USP
 70
     0
 62
     7
  6
CONTINUOUS
370
    -3
390
FE
  0
LAYER
  5
A0
330
DA
100
AcDbSymbolTableRecord
100
AcDbLayerTableRecord
  2
USP-HID
 70
     0
 62
     7
  6
HIDDEN
370
    -3
390
FE
  0
LAYER
  5
B
330
DA
100
AcDbSymbolTableRecord
100
AcDbLayerTableRecord
  2
USP-GEO
 70
     0
 62
     7
  6
CONTINUOUS
370
    -3
390
FE
  0
LAYER
  5
8
330
DA
100
AcDbSymbolTableRecord
100
AcDbLayerTableRecord
  2
USP-TXT
 70
     0
 62
     7
  6
CONTINUOUS
370
    -3
390
FE
  0
ENDTAB
  0
TABLE
  2
STYLE
  5
DB
330
0
100
AcDbSymbolTable
 70
     1
  0
STYLE
  5
9
330
DB
100
AcDbSymbolTableRecord
100
AcDbTextStyleTableRecord
  2
STANDARD
 70
     0
 40
0.0
 41
1.0
 50
0.0
 71
     0
 42
0.25
  3
txt
  4

  0
ENDTAB
  0
TABLE
  2
VIEW
  5
DF
330
0
100
AcDbSymbolTable
 70
     0
  0
ENDTAB
  0
TABLE
  2
UCS
  5
E0
330
0
100
AcDbSymbolTable
 70
     0
  0
ENDTAB
  0
TABLE
  2
APPID
  5
E3
330
0
100
AcDbSymbolTable
 70
     1
  0
APPID
  5
E4
330
E3
100
AcDbSymbolTableRecord
100
AcDbRegAppTableRecord
  2
ACAD
 70
     0
  0
ENDTAB
  0
TABLE
  2
DIMSTYLE
  5
E5
330
0
100
AcDbSymbolTable
 70
     1
100
AcDbDimStyleTable
 71
     0
  0
DIMSTYLE
105
ED
330
E5
100
AcDbSymbolTableRecord
100
AcDbDimStyleTableRecord
  2
STANDARD
 70
     0
340
9
  0
ENDTAB
  0
TABLE
  2
BLOCK_RECORD
  5
1
330
0
100
AcDbSymbolTable
 70
     3
  0
BLOCK_RECORD
  5
2
102
{ACAD_XDICTIONARY
360
D1
102
}
330
1
100
AcDbSymbolTableRecord
100
AcDbBlockTableRecord
  2
*MODEL_SPACE
340
103
  0
BLOCK_RECORD
  5
D5
102
{ACAD_XDICTIONARY
360
D6
102
}
330
1
100
AcDbSymbolTableRecord
100
AcDbBlockTableRecord
  2
*PAPER_SPACE
340
104
  0
BLOCK_RECORD
  5
6
330
1
100
AcDbSymbolTableRecord
100
AcDbBlockTableRecord
  2
THD26_T
340
0
102
{BLKREFS
331
3
102
}
  0
BLOCK_RECORD
  5
3B
330
1
100
AcDbSymbolTableRecord
100
AcDbBlockTableRecord
  2
THD26_F
340
0
102
{BLKREFS
331
3A
102
}
  0
BLOCK_RECORD
  5
98
330
1
100
AcDbSymbolTableRecord
100
AcDbBlockTableRecord
  2
THD26_S
340
0
102
{BLKREFS
331
97
102
}
  0
ENDTAB
  0
ENDSEC
  0
SECTION
  2
BLOCKS
  0
BLOCK
  5
D3
330
2
100
AcDbEntity
  8
0
100
AcDbBlockBegin
  2
*MODEL_SPACE
 70
     0
 10
0.0
 20
0.0
 30
0.0
  3
*MODEL_SPACE
  1

  0
ENDBLK
  5
D4
330
2
100
AcDbEntity
  8
0
100
AcDbBlockEnd
  0
BLOCK
  5
D8
330
D5
100
AcDbEntity
 67
     1
  8
0
100
AcDbBlockBegin
  2
*PAPER_SPACE
 70
     0
 10
0.0
 20
0.0
 30
0.0
  3
*PAPER_SPACE
  1

  0
ENDBLK
  5
D9
330
D5
100
AcDbEntity
 67
     1
  8
0
100
AcDbBlockEnd
  0
BLOCK
  5
37
330
6
100
AcDbEntity
  8
0
100
AcDbBlockBegin
  2
THD26_T
 70
     0
 10
0.0
 20
0.0
 30
0.0
  3
THD26_T
  1

  0
TEXT
  5
7
330
6
100
AcDbEntity
  8
USP-TXT
100
AcDbText
 10
0.7814999999999266
 20
-0.6819864673239593
 30
0.0
 40
0.25
  1
THD26 - TOP VIEW
 72
     1
 11
2.781499999999926
 21
-0.6819864673239593
 31
0.0
100
AcDbText
  0
LINE
  5
A
330
6
100
AcDbEntity
  8
USP-GEO
100
AcDbLine
 10
0.0
 20
3.314042440984252
 30
0.0
 11
1.906000000000119
 21
3.314042440984252
 31
0.0
  0
LINE
  5
C
330
6
100
AcDbEntity
  8
USP-GEO
100
AcDbLine
 10
0.0
 20
3.377042440984254
 30
0.0
 11
1.969000000000121
 21
3.377042440984254
 31
0.0
  0
LINE
  5
D
330
6
100
AcDbEntity
  8
USP-GEO
100
AcDbLine
 10
0.0
 20
3.314042440984252
 30
0.0
 11
0.0
 21
3.377042440984254
 31
0.0
  0
LINE
  5
E
330
6
100
AcDbEntity
  8
USP-GEO
100
AcDbLine
 10
1.969000000000121
 20
2.229621634212961
 30
0.0
 11
1.969000000000121
 21
1.720042440984244
 31
0.0
  0
LINE
  5
F
330
6
100
AcDbEntity
  8
USP-GEO
100
AcDbLine
 10
1.906000000000119
 20
2.229621634212961
 30
0.0
 11
1.906000000000119
 21
1.720042440984244
 31
0.0
  0
LINE
  5
10
330
6
100
AcDbEntity
  8
USP-GEO
100
AcDbLine
 10
3.657000000000348
 20
2.22962163421846
 30
0.0
 11
3.657000000000348
 21
1.720042440989743
 31
0.0
  0
LINE
  5
11
330
6
100
AcDbEntity
  8
USP-GEO
100
AcDbLine
 10
3.594000000000345
 20
1.720042440989743
 30
0.0
 11
3.594000000000345
 21
2.22962163421846
 31
0.0
  0
ARC
  5
12
330
6
100
AcDbEntity
  8
USP-GEO
100
AcDbCircle
 10
3.658459138363962
 20
0.0
 30
0.0
 40
0.1
100
AcDbArc
 50
135.0000000000113
 51
179.999999999991
  0
LINE
  5
13
330
6
100
AcDbEntity
  8
USP-GEO
100
AcDbLine
 10
1.969000000000121
 20
1.646819136280853
 30
0.0
 11
1.969000000000121
 21
0.1231084581622071
 31
0.0
  0
LINE
  5
14
330
6
100
AcDbEntity
  8
USP-GEO
100
AcDbLine
 10
1.906000000000119
 20
0.1231084581622071
 30
0.0
 11
1.906000000000119
 21
1.646819136280853
 31
0.0
  0
LINE
  5
15
330
6
100
AcDbEntity
  8
USP-GEO
100
AcDbLine
 10
3.558459138363968
 20
0.0
 30
0.0
 11
2.004540861635888
 21
0.0
 31
0.0
  0
LINE
  5
16
330
6
100
AcDbEntity
  8
USP-GEO
100
AcDbLine
 10
1.975251539755173
 20
0.0707106781186582
 30
0.0
 11
1.951957559015834
 21
0.0940046588579406
 31
0.0
  0
LINE
  5
17
330
6
100
AcDbEntity
  8
USP-GEO
100
AcDbLine
 10
1.906000000000119
 20
0.0877531191028993
 30
0.0
 11
1.906000000000119
 21
0.1231084581623065
 31
0.0
  0
LINE
  5
18
330
6
100
AcDbEntity
  8
USP-GEO
100
AcDbLine
 10
1.906000000000119
 20
0.0877531191028993
 30
0.0
 11
1.958209098770907
 21
0.0877531191028993
 31
0.0
  0
ARC
  5
19
330
6
100
AcDbEntity
  8
USP-GEO
100
AcDbCircle
 10
1.90454086163649
 20
0.0
 30
0.0
 40
0.1
100
AcDbArc
 50
0.0
 51
44.99999999999124
  0
LINE
  5
1A
330
6
100
AcDbEntity
  8
USP-GEO
100
AcDbLine
 10
1.969000000000121
 20
0.0940046588578696
 30
0.0
 11
1.951957559015831
 21
0.0940046588578696
 31
0.0
  0
LINE
  5
1B
330
6
100
AcDbEntity
  8
USP-GEO
100
AcDbLine
 10
1.969000000000121
 20
0.1231084581622923
 30
0.0
 11
1.969000000000121
 21
0.0940046588579264
 31
0.0
  0
LINE
  5
1C
330
6
100
AcDbEntity
  8
USP-GEO
100
AcDbLine
 10
1.906000000000119
 20
0.1231084581622213
 30
0.0
 11
1.969000000000121
 21
0.1231084581622213
 31
0.0
  0
LINE
  5
1D
330
6
100
AcDbEntity
  8
USP-GEO
100
AcDbLine
 10
1.969000000000121
 20
1.720042440984215
 30
0.0
 11
1.969000000000121
 21
1.646819136280853
 31
0.0
  0
LINE
  5
1E
330
6
100
AcDbEntity
  8
USP-GEO
100
AcDbLine
 10
1.906000000000119
 20
1.720042440984215
 30
0.0
 11
1.906000000000119
 21
1.646819136280853
 31
0.0
  0
LINE
  5
1F
330
6
100
AcDbEntity
  8
USP-GEO
100
AcDbLine
 10
1.906000000000119
 20
1.720042440984244
 30
0.0
 11
1.969000000000121
 21
1.720042440984244
 31
0.0
  0
LINE
  5
20
330
6
100
AcDbEntity
  8
USP-GEO
100
AcDbLine
 10
3.657000000000348
 20
0.1231084581677067
 30
0.0
 11
3.657000000000348
 21
1.646819136286353
 31
0.0
  0
LINE
  5
21
330
6
100
AcDbEntity
  8
USP-GEO
100
AcDbLine
 10
3.594000000000345
 20
0.1231084581677067
 30
0.0
 11
3.594000000000345
 21
1.646819136286353
 31
0.0
  0
LINE
  5
22
330
6
100
AcDbEntity
  8
USP-GEO
100
AcDbLine
 10
3.611042440989987
 20
0.0940046588633408
 30
0.0
 11
3.58774846024529
 21
0.070710678118644
 31
0.0
  0
LINE
  5
23
330
6
100
AcDbEntity
  8
USP-GEO
100
AcDbLine
 10
3.657000000000348
 20
0.0877531191083705
 30
0.0
 11
3.657000000000348
 21
0.1231084581677919
 31
0.0
  0
LINE
  5
24
330
6
100
AcDbEntity
  8
USP-GEO
100
AcDbLine
 10
3.657000000000348
 20
0.0877531191083563
 30
0.0
 11
3.604790901235016
 21
0.0877531191083563
 31
0.0
  0
LINE
  5
25
330
6
100
AcDbEntity
  8
USP-GEO
100
AcDbLine
 10
3.611042440989987
 20
0.094004658863426
 30
0.0
 11
3.594000000000345
 21
0.094004658863426
 31
0.0
  0
LINE
  5
26
330
6
100
AcDbEntity
  8
USP-GEO
100
AcDbLine
 10
3.594000000000345
 20
0.094004658863426
 30
0.0
 11
3.594000000000345
 21
0.1231084581677919
 31
0.0
  0
LINE
  5
27
330
6
100
AcDbEntity
  8
USP-GEO
100
AcDbLine
 10
3.657000000000348
 20
0.1231084581677209
 30
0.0
 11
3.594000000000345
 21
0.1231084581677209
 31
0.0
  0
LINE
  5
28
330
6
100
AcDbEntity
  8
USP-GEO
100
AcDbLine
 10
3.657000000000348
 20
1.646819136286353
 30
0.0
 11
3.657000000000348
 21
1.720042440989715
 31
0.0
  0
LINE
  5
29
330
6
100
AcDbEntity
  8
USP-GEO
100
AcDbLine
 10
3.657000000000348
 20
1.720042440989743
 30
0.0
 11
3.594000000000345
 21
1.720042440989743
 31
0.0
  0
LINE
  5
2A
330
6
100
AcDbEntity
  8
USP-GEO
100
AcDbLine
 10
3.594000000000345
 20
1.646819136286353
 30
0.0
 11
3.594000000000345
 21
1.720042440989715
 31
0.0
  0
ARC
  5
2B
330
6
100
AcDbEntity
  8
USP-GEO
100
AcDbCircle
 10
3.658459138363962
 20
3.000273256841182
 30
0.0
 40
0.1
100
AcDbArc
 50
179.9999999999992
 51
229.8649542707301
  0
ARC
  5
2C
330
6
100
AcDbEntity
  8
USP-GEO
100
AcDbCircle
 10
1.90454086163649
 20
3.000273256841182
 30
0.0
 40
0.1
100
AcDbArc
 50
310.135045729272
 51
0.0
  0
LINE
  5
2D
330
6
100
AcDbEntity
  8
USP-GEO
100
AcDbLine
 10
1.969000000000121
 20
3.377042440984226
 30
0.0
 11
1.969000000000121
 21
2.229621634212961
 31
0.0
  0
LINE
  5
2E
330
6
100
AcDbEntity
  8
USP-GEO
100
AcDbLine
 10
1.906000000000119
 20
3.314042440984252
 30
0.0
 11
1.906000000000119
 21
2.229621634212961
 31
0.0
  0
LINE
  5
2F
330
6
100
AcDbEntity
  8
USP-GEO
100
AcDbLine
 10
1.906000000000119
 20
2.229621634212961
 30
0.0
 11
1.969000000000121
 21
2.229621634212961
 31
0.0
  0
LINE
  5
30
330
6
100
AcDbEntity
  8
USP-GEO
100
AcDbLine
 10
2.004540861636492
 20
3.000273256841126
 30
0.0
 11
3.55845913836401
 21
3.000273256841182
 31
0.0
  0
LINE
  5
31
330
6
100
AcDbEntity
  8
USP-GEO
100
AcDbLine
 10
3.657000000000348
 20
3.314042440989737
 30
0.0
 11
3.657000000000348
 21
2.22962163421846
 31
0.0
  0
LINE
  5
32
330
6
100
AcDbEntity
  8
USP-GEO
100
AcDbLine
 10
3.594000000000345
 20
2.22962163421846
 30
0.0
 11
3.594000000000345
 21
3.377042440989754
 31
0.0
  0
LINE
  5
33
330
6
100
AcDbEntity
  8
USP-GEO
100
AcDbLine
 10
3.657000000000348
 20
2.22962163421846
 30
0.0
 11
3.594000000000345
 21
2.22962163421846
 31
0.0
  0
LINE
  5
34
330
6
100
AcDbEntity
  8
USP-GEO
100
AcDbLine
 10
3.594000000000345
 20
3.377042440989754
 30
0.0
 11
5.563000000000467
 21
3.377042440989754
 31
0.0
  0
LINE
  5
35
330
6
100
AcDbEntity
  8
USP-GEO
100
AcDbLine
 10
5.563000000000467
 20
3.314042440989737
 30
0.0
 11
3.657000000000348
 21
3.314042440989737
 31
0.0
  0
LINE
  5
36
330
6
100
AcDbEntity
  8
USP-GEO
100
AcDbLine
 10
5.563000000000467
 20
3.314042440989737
 30
0.0
 11
5.563000000000467
 21
3.377042440989754
 31
0.0
  0
ENDBLK
  5
39
330
6
100
AcDbEntity
  8
0
100
AcDbBlockEnd
  0
BLOCK
  5
95
330
3B
100
AcDbEntity
  8
0
100
AcDbBlockBegin
  2
THD26_F
 70
     0
 10
0.0
 20
0.0
 30
0.0
  3
THD26_F
  1

  0
LINE
  5
3C
330
3B
100
AcDbEntity
  8
USP-GEO
100
AcDbLine
 10
1.969000000000121
 20
1.9340125289569
 30
0.0
 11
1.969000000000121
 21
1.757235833660264
 31
0.0
210
0.0
220
1.0
230
0.0
  0
ARC
  5
3D
330
3B
100
AcDbEntity
  8
USP-GEO
100
AcDbCircle
 10
0.7500000000001421
 20
1.933739272115704
 30
-0.0000000000000001
 40
0.25
100
AcDbArc
 50
180.0000000000002
 51
224.9999999999998
  0
LINE
  5
3E
330
3B
100
AcDbEntity
  8
USP-GEO
100
AcDbLine
 10
1.906000000000119
 20
1.9340125289569
 30
0.0
 11
1.906000000000119
 21
1.757235833660264
 31
0.0
210
0.0
220
1.0
230
0.0
  0
LINE
  5
3F
330
3B
100
AcDbEntity
  8
USP-GEO
100
AcDbLine
 10
3.657000000000348
 20
1.75723583366024
 30
0.0000000000000002
 11
3.657000000000348
 21
1.934012528956878
 31
0.0000000000000002
210
0.0
220
1.0
230
0.0
  0
LINE
  5
40
330
3B
100
AcDbEntity
  8
USP-GEO
100
AcDbLine
 10
3.594000000000345
 20
1.75723583366024
 30
0.0000000000000002
 11
3.594000000000345
 21
1.934012528956878
 31
0.0000000000000002
210
0.0
220
1.0
230
0.0
  0
ARC
  5
41
330
3B
100
AcDbEntity
  8
USP-GEO
100
AcDbCircle
 10
4.813000000000325
 20
1.93373927211568
 30
0.0000000000000004
 40
0.25
100
AcDbArc
 50
315.0000000000002
 51
0.0000000000002036
  0
TEXT
  5
42
330
3B
100
AcDbEntity
  8
USP-TXT
100
AcDbText
 10
0.5314999999999271
 20
-0.6819864673239593
 30
0.0000000000000001
 40
0.25
  1
THD26 - FRONT VIEW
 72
     1
 11
2.781499999999926
 21
-0.6819864673239593
 31
0.0000000000000001
100
AcDbText
  0
LINE
  5
43
330
3B
100
AcDbEntity
  8
USP-GEO
100
AcDbLine
 10
1.906000000000126
 20
0.4241858815224786
 30
0.0
 11
0.5732233047035038
 21
1.756962576819065
 31
-0.0000000000000002
210
0.0
220
1.0
230
0.0
  0
LINE
  5
44
330
3B
100
AcDbEntity
  8
USP-GEO
100
AcDbLine
 10
3.58774846024529
 20
0.0
 30
0.0000000000000002
 11
3.558459138363961
 21
0.0
 31
0.0000000000000002
210
0.0
220
1.0
230
0.0
  0
LINE
  5
45
330
3B
100
AcDbEntity
  8
USP-GEO
100
AcDbLine
 10
3.58774846024529
 20
0.0629999999999997
 30
0.0000000000000002
 11
3.558459138363961
 21
0.0629999999999997
 31
0.0000000000000002
210
0.0
220
1.0
230
0.0
  0
LINE
  5
46
330
3B
100
AcDbEntity
  8
USP-GEO
100
AcDbLine
 10
1.969000000000121
 20
1.757235833660263
 30
0.0
 11
1.969000000000121
 21
0.2335251555416162
 31
0.0
210
0.0
220
1.0
230
0.0
  0
LINE
  5
47
330
3B
100
AcDbEntity
  8
USP-GEO
100
AcDbLine
 10
1.906000000000119
 20
0.2335251555416162
 30
0.0
 11
1.906000000000119
 21
1.757235833660263
 31
0.0
210
0.0
220
1.0
230
0.0
  0
LINE
  5
48
330
3B
100
AcDbEntity
  8
USP-GEO
100
AcDbLine
 10
2.004540861635888
 20
0.0
 30
0.0
 11
3.558459138363968
 21
0.0
 31
0.0000000000000002
210
0.0
220
1.0
230
0.0
  0
LINE
  5
49
330
3B
100
AcDbEntity
  8
USP-GEO
100
AcDbLine
 10
3.558459138363968
 20
0.0629999999999997
 30
0.0000000000000002
 11
2.004540861635888
 21
0.0629999999999997
 31
0.0
210
0.0
220
1.0
230
0.0
  0
LINE
  5
4A
330
3B
100
AcDbEntity
  8
USP-GEO
100
AcDbLine
 10
1.969000000000121
 20
0.0921037993043852
 30
0.0
 11
1.969000000000121
 21
0.0630000000000184
 31
0.0
210
0.0
220
1.0
230
0.0
  0
LINE
  5
4B
330
3B
100
AcDbEntity
  8
USP-GEO
100
AcDbLine
 10
1.906000000000119
 20
0.0567484602449575
 30
0.0
 11
1.906000000000119
 21
0.0921037993043701
 31
0.0
210
0.0
220
1.0
230
0.0
  0
LINE
  5
4C
330
3B
100
AcDbEntity
  8
USP-GEO
100
AcDbLine
 10
1.958209098770893
 20
0.056748460244954
 30
0.0
 11
1.958209098770907
 21
0.0
 31
0.0
210
0.0
220
1.0
230
0.0
  0
LINE
  5
4D
330
3B
100
AcDbEntity
  8
USP-GEO
100
AcDbLine
 10
1.906000000000119
 20
0.056748460244954
 30
0.0
 11
1.958209098770907
 21
0.056748460244954
 31
0.0
210
0.0
220
1.0
230
0.0
  0
LINE
  5
4E
330
3B
100
AcDbEntity
  8
USP-GEO
100
AcDbLine
 10
1.906000000000119
 20
0.0
 30
0.0
 11
1.906000000000119
 21
0.056748460244954
 31
0.0
210
0.0
220
1.0
230
0.0
  0
LINE
  5
4F
330
3B
100
AcDbEntity
  8
USP-GEO
100
AcDbLine
 10
1.906000000000119
 20
0.0
 30
0.0
 11
1.958209098770907
 21
0.0
 31
0.0
210
0.0
220
1.0
230
0.0
  0
LINE
  5
50
330
3B
100
AcDbEntity
  8
USP-GEO
100
AcDbLine
 10
1.951957559015845
 20
0.0630000000000033
 30
0.0
 11
1.958209098770911
 21
0.0567484602449531
 31
0.0
210
0.0
220
1.0
230
0.0
  0
LINE
  5
51
330
3B
100
AcDbEntity
  8
USP-GEO
100
AcDbLine
 10
1.975251539755159
 20
0.0
 30
0.0
 11
1.958209098770907
 21
0.0
 31
0.0
210
0.0
220
1.0
230
0.0
  0
LINE
  5
52
330
3B
100
AcDbEntity
  8
USP-GEO
100
AcDbLine
 10
1.975251539755173
 20
0.0629999999999997
 30
0.0
 11
1.951957559015834
 21
0.0629999999999997
 31
0.0
210
0.0
220
1.0
230
0.0
  0
LINE
  5
53
330
3B
100
AcDbEntity
  8
USP-GEO
100
AcDbLine
 10
2.004540861636492
 20
0.0
 30
0.0
 11
1.975251539755156
 21
0.0
 31
0.0
210
0.0
220
1.0
230
0.0
  0
LINE
  5
54
330
3B
100
AcDbEntity
  8
USP-GEO
100
AcDbLine
 10
2.004540861636492
 20
0.0629999999999997
 30
0.0
 11
1.975251539755156
 21
0.0629999999999997
 31
0.0
210
0.0
220
1.0
230
0.0
  0
LINE
  5
55
330
3B
100
AcDbEntity
  8
USP-GEO
100
AcDbLine
 10
2.004540861635888
 20
0.0
 30
0.0
 11
2.004540861635888
 21
0.0629999999999997
 31
0.0
210
0.0
220
1.0
230
0.0
  0
LINE
  5
56
330
3B
100
AcDbEntity
  8
USP-GEO
100
AcDbLine
 10
1.969000000000121
 20
0.2335251555415985
 30
0.0
 11
1.969000000000121
 21
0.092103799304403
 31
0.0
210
0.0
220
1.0
230
0.0
  0
LINE
  5
57
330
3B
100
AcDbEntity
  8
USP-GEO
100
AcDbLine
 10
1.906000000000119
 20
0.2335251555415985
 30
0.0
 11
1.906000000000119
 21
0.092103799304403
 31
0.0
210
0.0
220
1.0
230
0.0
  0
LINE
  5
58
330
3B
100
AcDbEntity
  8
USP-GEO
100
AcDbLine
 10
1.906000000000119
 20
0.233525155541602
 30
0.0
 11
1.969000000000121
 21
0.233525155541602
 31
0.0
210
0.0
220
1.0
230
0.0
  0
LINE
  5
59
330
3B
100
AcDbEntity
  8
USP-GEO
100
AcDbLine
 10
3.558459138363968
 20
0.0
 30
0.0000000000000002
 11
3.558459138363968
 21
0.0629999999999997
 31
0.0000000000000002
210
0.0
220
1.0
230
0.0
  0
CIRCLE
  5
5A
330
3B
100
AcDbEntity
  8
USP-GEO
100
AcDbCircle
 10
1.500000000000113
 20
1.447264068711876
 30
0.0
 40
0.086
  0
LINE
  5
5B
330
3B
100
AcDbEntity
  8
USP-GEO
100
AcDbLine
 10
3.657000000000348
 20
0.2335251555415922
 30
0.0000000000000002
 11
3.657000000000348
 21
1.757235833660239
 31
0.0000000000000002
210
0.0
220
1.0
230
0.0
  0
LINE
  5
5C
330
3B
100
AcDbEntity
  8
USP-GEO
100
AcDbLine
 10
3.594000000000345
 20
0.2335251555415922
 30
0.0000000000000002
 11
3.594000000000345
 21
1.757235833660239
 31
0.0000000000000002
210
0.0
220
1.0
230
0.0
  0
LINE
  5
5D
330
3B
100
AcDbEntity
  8
USP-GEO
100
AcDbLine
 10
3.657000000000319
 20
0.4241858815224476
 30
0.0000000000000002
 11
4.989776695296963
 21
1.756962576819041
 31
0.0000000000000004
210
0.0
220
1.0
230
0.0
  0
LINE
  5
5E
330
3B
100
AcDbEntity
  8
USP-GEO
100
AcDbLine
 10
3.657000000000348
 20
0.0567484602449433
 30
0.0000000000000002
 11
3.657000000000348
 21
0.0921037993043612
 31
0.0000000000000002
210
0.0
220
1.0
230
0.0
  0
LINE
  5
5F
330
3B
100
AcDbEntity
  8
USP-GEO
100
AcDbLine
 10
3.594000000000345
 20
0.0629999999999935
 30
0.0000000000000002
 11
3.594000000000345
 21
0.0921037993043612
 31
0.0000000000000002
210
0.0
220
1.0
230
0.0
  0
LINE
  5
60
330
3B
100
AcDbEntity
  8
USP-GEO
100
AcDbLine
 10
3.657000000000348
 20
0.0000000000000071
 30
0.0000000000000002
 11
3.604790901235016
 21
0.0000000000000071
 31
0.0000000000000002
210
0.0
220
1.0
230
0.0
  0
LINE
  5
61
330
3B
100
AcDbEntity
  8
USP-GEO
100
AcDbLine
 10
3.604790901235016
 20
0.0
 30
0.0000000000000002
 11
3.587748460245276
 21
0.0
 31
0.0000000000000002
210
0.0
220
1.0
230
0.0
  0
LINE
  5
62
330
3B
100
AcDbEntity
  8
USP-GEO
100
AcDbLine
 10
3.611042440989987
 20
0.0629999999999997
 30
0.0000000000000002
 11
3.58774846024529
 21
0.0629999999999997
 31
0.0000000000000002
210
0.0
220
1.0
230
0.0
  0
LINE
  5
63
330
3B
100
AcDbEntity
  8
USP-GEO
100
AcDbLine
 10
3.611042440989994
 20
0.0629999999999971
 30
0.0000000000000002
 11
3.604790901234995
 21
0.0567484602449993
 31
0.0000000000000002
210
0.0
220
1.0
230
0.0
  0
LINE
  5
64
330
3B
100
AcDbEntity
  8
USP-GEO
100
AcDbLine
 10
3.604790901235016
 20
0.0567484602449611
 30
0.0000000000000002
 11
3.604790901235016
 21
0.0
 31
0.0000000000000002
210
0.0
220
1.0
230
0.0
  0
LINE
  5
65
330
3B
100
AcDbEntity
  8
USP-GEO
100
AcDbLine
 10
3.657000000000348
 20
0.0567484602449611
 30
0.0000000000000002
 11
3.657000000000348
 21
0.0000000000000071
 31
0.0000000000000002
210
0.0
220
1.0
230
0.0
  0
LINE
  5
66
330
3B
100
AcDbEntity
  8
USP-GEO
100
AcDbLine
 10
3.657000000000348
 20
0.0567484602449611
 30
0.0000000000000002
 11
3.604790901235016
 21
0.0567484602449611
 31
0.0000000000000002
210
0.0
220
1.0
230
0.0
  0
LINE
  5
67
330
3B
100
AcDbEntity
  8
USP-GEO
100
AcDbLine
 10
3.657000000000348
 20
0.092103799304379
 30
0.0000000000000002
 11
3.657000000000348
 21
0.2335251555415745
 31
0.0000000000000002
210
0.0
220
1.0
230
0.0
  0
LINE
  5
68
330
3B
100
AcDbEntity
  8
USP-GEO
100
AcDbLine
 10
3.594000000000345
 20
0.092103799304379
 30
0.0000000000000002
 11
3.594000000000345
 21
0.2335251555415745
 31
0.0000000000000002
210
0.0
220
1.0
230
0.0
  0
LINE
  5
69
330
3B
100
AcDbEntity
  8
USP-GEO
100
AcDbLine
 10
3.657000000000348
 20
0.233525155541578
 30
0.0000000000000002
 11
3.594000000000345
 21
0.233525155541578
 31
0.0000000000000002
210
0.0
220
1.0
230
0.0
  0
CIRCLE
  5
6A
330
3B
100
AcDbEntity
  8
USP-GEO
100
AcDbCircle
 10
4.063000000000354
 20
1.447264068711994
 30
0.0000000000000003
 40
0.086
  0
CIRCLE
  5
6B
330
3B
100
AcDbEntity
  8
USP-GEO
100
AcDbCircle
 10
0.8000000000001534
 20
4.369264068711831
 30
-0.0000000000000001
 40
0.086
  0
CIRCLE
  5
6C
330
3B
100
AcDbEntity
  8
USP-GEO
100
AcDbCircle
 10
0.8000000000001534
 20
3.397264068711837
 30
-0.0000000000000001
 40
0.086
  0
CIRCLE
  5
6D
330
3B
100
AcDbEntity
  8
USP-GEO
100
AcDbCircle
 10
0.8000000000001534
 20
2.124964068711836
 30
-0.0000000000000001
 40
0.086
  0
LINE
  5
6E
330
3B
100
AcDbEntity
  8
USP-GEO
100
AcDbLine
 10
0.0
 20
5.14799999999997
 30
-0.0000000000000002
 11
1.906000000000119
 21
5.148000000000032
 31
0.0
210
0.0
220
1.0
230
0.0
  0
LINE
  5
6F
330
3B
100
AcDbEntity
  8
USP-GEO
100
AcDbLine
 10
0.5000000000001421
 20
1.933739272115704
 30
-0.0000000000000002
 11
0.5000000000001421
 21
4.259324865405093
 31
-0.0000000000000002
210
0.0
220
1.0
230
0.0
  0
LINE
  5
70
330
3B
100
AcDbEntity
  8
USP-GEO
100
AcDbLine
 10
0.0
 20
4.54799999999999
 30
-0.0000000000000002
 11
0.0
 21
5.14799999999997
 31
-0.0000000000000002
210
0.0
220
1.0
230
0.0
  0
LINE
  5
71
330
3B
100
AcDbEntity
  8
USP-GEO
100
AcDbLine
 10
0.0
 20
4.54799999999999
 30
-0.0000000000000002
 11
0.5000000000001421
 21
4.259324865405093
 31
-0.0000000000000002
210
0.0
220
1.0
230
0.0
  0
CIRCLE
  5
72
330
3B
100
AcDbEntity
  8
USP-GEO
100
AcDbCircle
 10
0.3000000000000966
 20
4.847999999999831
 30
-0.0000000000000002
 40
0.086
  0
LINE
  5
73
330
3B
100
AcDbEntity
  8
USP-GEO
100
AcDbLine
 10
1.969000000000121
 20
4.253794315615965
 30
0.0
 11
1.969000000000121
 21
1.934012528956901
 31
0.0
210
0.0
220
1.0
230
0.0
  0
LINE
  5
74
330
3B
100
AcDbEntity
  8
USP-GEO
100
AcDbLine
 10
1.906000000000119
 20
1.934012528956901
 30
0.0
 11
1.906000000000119
 21
4.253794315615965
 31
0.0
210
0.0
220
1.0
230
0.0
  0
LINE
  5
75
330
3B
100
AcDbEntity
  8
USP-GEO
100
AcDbLine
 10
3.657000000000348
 20
1.934012528956877
 30
0.0000000000000002
 11
3.657000000000348
 21
4.253794315615941
 31
0.0000000000000002
210
0.0
220
1.0
230
0.0
  0
LINE
  5
76
330
3B
100
AcDbEntity
  8
USP-GEO
100
AcDbLine
 10
3.594000000000345
 20
1.934012528956877
 30
0.0000000000000002
 11
3.594000000000345
 21
4.253794315615941
 31
0.0000000000000002
210
0.0
220
1.0
230
0.0
  0
LINE
  5
77
330
3B
100
AcDbEntity
  8
USP-GEO
100
AcDbLine
 10
5.063000000000325
 20
1.93373927211568
 30
0.0000000000000004
 11
5.063000000000325
 21
4.259324865405069
 31
0.0000000000000004
210
0.0
220
1.0
230
0.0
  0
CIRCLE
  5
78
330
3B
100
AcDbEntity
  8
USP-GEO
100
AcDbCircle
 10
1.500000000000113
 20
2.597999999999888
 30
0.0
 40
0.086
  0
ARC
  5
79
330
3B
100
AcDbEntity
  8
USP-GEO
100
AcDbCircle
 10
1.955000000000097
 20
3.160499999999902
 30
0.0
 40
0.1
100
AcDbArc
 50
119.3405815750114
 51
240.6594184249886
  0
CIRCLE
  5
7A
330
3B
100
AcDbEntity
  8
USP-GEO
100
AcDbCircle
 10
1.500000000000113
 20
3.722999999999888
 30
0.0
 40
0.086
  0
ARC
  5
7B
330
3B
100
AcDbEntity
  8
USP-GEO
100
AcDbCircle
 10
3.597004844393563
 20
2.301794617429528
 30
0.0000000000000002
 40
0.1
100
AcDbArc
 50
306.8664281835654
 51
53.13357181643379
  0
CIRCLE
  5
7C
330
3B
100
AcDbEntity
  8
USP-GEO
100
AcDbCircle
 10
4.763000000000314
 20
2.124964068711953
 30
0.0000000000000003
 40
0.086
  0
CIRCLE
  5
7D
330
3B
100
AcDbEntity
  8
USP-GEO
100
AcDbCircle
 10
4.063000000000354
 20
2.598000000000006
 30
0.0000000000000003
 40
0.086
  0
CIRCLE
  5
7E
330
3B
100
AcDbEntity
  8
USP-GEO
100
AcDbCircle
 10
4.763000000000314
 20
3.397264068711969
 30
0.0000000000000003
 40
0.086
  0
CIRCLE
  5
7F
330
3B
100
AcDbEntity
  8
USP-GEO
100
AcDbCircle
 10
4.063000000000354
 20
3.72300000000002
 30
0.0000000000000003
 40
0.086
  0
LINE
  5
80
330
3B
100
AcDbEntity
  8
USP-GEO
100
AcDbLine
 10
1.969000000000121
 20
5.14799999999997
 30
0.0
 11
1.969000000000121
 21
4.54799999999999
 31
0.0
210
0.0
220
1.0
230
0.0
  0
CIRCLE
  5
81
330
3B
100
AcDbEntity
  8
USP-GEO
100
AcDbCircle
 10
1.500000000000113
 20
4.694999999999882
 30
0.0
 40
0.086
  0
LINE
  5
82
330
3B
100
AcDbEntity
  8
USP-GEO
100
AcDbLine
 10
1.906000000000119
 20
4.54799999999999
 30
0.0
 11
1.906000000000119
 21
5.14799999999997
 31
0.0
210
0.0
220
1.0
230
0.0
  0
LINE
  5
83
330
3B
100
AcDbEntity
  8
USP-GEO
100
AcDbLine
 10
1.969000000000121
 20
4.54799999999999
 30
0.0
 11
1.969000000000121
 21
4.253794315615965
 31
0.0
210
0.0
220
1.0
230
0.0
  0
LINE
  5
84
330
3B
100
AcDbEntity
  8
USP-GEO
100
AcDbLine
 10
1.906000000000119
 20
4.54799999999999
 30
0.0
 11
1.906000000000119
 21
4.253794315615965
 31
0.0
210
0.0
220
1.0
230
0.0
  0
LINE
  5
85
330
3B
100
AcDbEntity
  8
USP-GEO
100
AcDbLine
 10
1.906000000000119
 20
4.253794315615965
 30
0.0
 11
1.969000000000121
 21
4.253794315615965
 31
0.0
210
0.0
220
1.0
230
0.0
  0
LINE
  5
86
330
3B
100
AcDbEntity
  8
USP-GEO
100
AcDbLine
 10
1.906000000000119
 20
4.54799999999999
 30
0.0
 11
1.969000000000121
 21
4.54799999999999
 31
0.0
210
0.0
220
1.0
230
0.0
  0
LINE
  5
87
330
3B
100
AcDbEntity
  8
USP-GEO
100
AcDbLine
 10
1.906000000000119
 20
5.14799999999997
 30
0.0
 11
1.969000000000121
 21
5.14799999999997
 31
0.0
210
0.0
220
1.0
230
0.0
  0
LINE
  5
88
330
3B
100
AcDbEntity
  8
USP-GEO
100
AcDbLine
 10
5.563000000000467
 20
5.14799999999996
 30
0.0000000000000004
 11
3.657000000000348
 21
5.148000000000028
 31
0.0000000000000002
210
0.0
220
1.0
230
0.0
  0
LINE
  5
89
330
3B
100
AcDbEntity
  8
USP-GEO
100
AcDbLine
 10
3.657000000000348
 20
4.547999999999966
 30
0.0000000000000002
 11
3.657000000000348
 21
5.147999999999946
 31
0.0000000000000002
210
0.0
220
1.0
230
0.0
  0
LINE
  5
8A
330
3B
100
AcDbEntity
  8
USP-GEO
100
AcDbLine
 10
3.594000000000345
 20
4.547999999999966
 30
0.0000000000000002
 11
3.594000000000345
 21
5.147999999999946
 31
0.0000000000000002
210
0.0
220
1.0
230
0.0
  0
CIRCLE
  5
8B
330
3B
100
AcDbEntity
  8
USP-GEO
100
AcDbCircle
 10
4.063000000000354
 20
4.695000000000014
 30
0.0000000000000003
 40
0.086
  0
LINE
  5
8C
330
3B
100
AcDbEntity
  8
USP-GEO
100
AcDbLine
 10
3.657000000000348
 20
4.547999999999966
 30
0.0000000000000002
 11
3.657000000000348
 21
4.253794315615941
 31
0.0000000000000002
210
0.0
220
1.0
230
0.0
  0
LINE
  5
8D
330
3B
100
AcDbEntity
  8
USP-GEO
100
AcDbLine
 10
3.594000000000345
 20
4.253794315615941
 30
0.0000000000000002
 11
3.594000000000345
 21
4.547999999999966
 31
0.0000000000000002
210
0.0
220
1.0
230
0.0
  0
LINE
  5
8E
330
3B
100
AcDbEntity
  8
USP-GEO
100
AcDbLine
 10
3.657000000000348
 20
4.253794315615941
 30
0.0000000000000002
 11
3.594000000000345
 21
4.253794315615941
 31
0.0000000000000002
210
0.0
220
1.0
230
0.0
  0
LINE
  5
8F
330
3B
100
AcDbEntity
  8
USP-GEO
100
AcDbLine
 10
3.657000000000348
 20
4.547999999999966
 30
0.0000000000000002
 11
3.594000000000345
 21
4.547999999999966
 31
0.0000000000000002
210
0.0
220
1.0
230
0.0
  0
CIRCLE
  5
90
330
3B
100
AcDbEntity
  8
USP-GEO
100
AcDbCircle
 10
4.763000000000314
 20
4.367264068711968
 30
0.0000000000000003
 40
0.086
  0
LINE
  5
91
330
3B
100
AcDbEntity
  8
USP-GEO
100
AcDbLine
 10
3.657000000000348
 20
5.147999999999946
 30
0.0000000000000002
 11
3.594000000000345
 21
5.147999999999946
 31
0.0000000000000002
210
0.0
220
1.0
230
0.0
  0
LINE
  5
92
330
3B
100
AcDbEntity
  8
USP-GEO
100
AcDbLine
 10
5.563000000000467
 20
4.547999999999966
 30
0.0000000000000004
 11
5.563000000000467
 21
5.14799999999996
 31
0.0000000000000004
210
0.0
220
1.0
230
0.0
  0
LINE
  5
93
330
3B
100
AcDbEntity
  8
USP-GEO
100
AcDbLine
 10
5.563000000000467
 20
4.547999999999966
 30
0.0000000000000004
 11
5.063000000000325
 21
4.259324865405069
 31
0.0000000000000004
210
0.0
220
1.0
230
0.0
  0
CIRCLE
  5
94
330
3B
100
AcDbEntity
  8
USP-GEO
100
AcDbCircle
 10
5.263000000000371
 20
4.847999999999963
 30
0.0000000000000004
 40
0.086
  0
ENDBLK
  5
96
330
3B
100
AcDbEntity
  8
0
100
AcDbBlockEnd
  0
BLOCK
  5
CF
330
98
100
AcDbEntity
  8
0
100
AcDbBlockBegin
  2
THD26_S
 70
     0
 10
0.0
 20
0.0
 30
0.0
  3
THD26_S
  1

  0
ARC
  5
99
330
98
100
AcDbEntity
  8
USP-GEO
100
AcDbCircle
 10
1.907000000000039
 20
1.934012528956884
 30
-0.0000000000000001
 40
0.25
100
AcDbArc
 50
179.9999999999998
 51
224.9999999999998
  0
LINE
  5
9A
330
98
100
AcDbEntity
  8
USP-GEO
100
AcDbLine
 10
0.0
 20
1.933739272115688
 30
0.0
 11
0.0
 21
1.75696257681905
 31
0.0
210
0.0
220
1.0
230
0.0
  0
LINE
  5
9B
330
98
100
AcDbEntity
  8
USP-GEO
100
AcDbLine
 10
0.0630000000000166
 20
1.75696257681905
 30
0.0
 11
0.0630000000000166
 21
1.933739272115688
 31
0.0
210
0.0
220
1.0
230
0.0
  0
TEXT
  5
9C
330
98
100
AcDbEntity
  8
USP-TXT
100
AcDbText
 10
-0.220598937261903
 20
-0.6819864673239522
 30
-0.0000000000000001
 40
0.25
  1
THD26 - SIDE VIEW
 72
     1
 11
1.862734396071431
 21
-0.6819864673239522
 31
-0.0000000000000001
100
AcDbText
  0
LINE
  5
9D
330
98
100
AcDbEntity
  8
USP-GEO
100
AcDbLine
 10
3.253933982822047
 20
0.2335251555415994
 30
-0.0000000000000002
 11
1.7302233047034
 21
1.757235833660246
 31
-0.0000000000000001
210
0.0
220
1.0
230
0.0
  0
LINE
  5
9E
330
98
100
AcDbEntity
  8
USP-GEO
100
AcDbLine
 10
0.436179470261493
 20
0.0
 30
0.0
 11
3.289289321881369
 21
0.0000000000000142
 31
-0.0000000000000002
210
0.0
220
1.0
230
0.0
  0
LINE
  5
9F
330
98
100
AcDbEntity
  8
USP-HID
100
AcDbLine
 10
3.37704244098974
 20
0.0630000000000068
 30
-0.0000000000000002
 11
0.3767691841485714
 21
0.0630000000000068
 31
-0.0000000000000002
  0
LINE
  5
A2
330
98
100
AcDbEntity
  8
USP-GEO
100
AcDbLine
 10
0.0
 20
1.756962576819049
 30
0.0
 11
0.0
 21
0.4241858815224547
 31
0.0
210
0.0
220
1.0
230
0.0
  0
LINE
  5
A3
330
98
100
AcDbEntity
  8
USP-GEO
100
AcDbLine
 10
0.0630000000000166
 20
0.4241858815224547
 30
0.0
 11
0.0630000000000166
 21
1.756962576819049
 31
0.0
210
0.0
220
1.0
230
0.0
  0
ARC
  5
A4
330
98
100
AcDbEntity
  8
USP-GEO
100
AcDbCircle
 10
0.3597267431588307
 20
0.1274591383636334
 30
0.0
 40
0.1
100
AcDbArc
 50
319.8649542707157
 51
44.9999999999986
  0
LINE
  5
A5
330
98
100
AcDbEntity
  8
USP-GEO
100
AcDbLine
 10
0.3767691841485714
 20
0.0000000000000071
 30
0.0
 11
0.436179470261493
 21
0.0000000000000071
 31
0.0
210
0.0
220
1.0
230
0.0
  0
LINE
  5
A6
330
98
100
AcDbEntity
  8
USP-GEO
100
AcDbLine
 10
0.3767691841485714
 20
0.0630000000000068
 30
0.0
 11
0.436179470261493
 21
0.0630000000000068
 31
0.0
210
0.0
220
1.0
230
0.0
  0
LINE
  5
A7
330
98
100
AcDbEntity
  8
USP-GEO
100
AcDbLine
 10
0.3767691841485714
 20
0.0000000000000071
 30
0.0
 11
0.3767691841485714
 21
0.0630000000000068
 31
0.0
210
0.0
220
1.0
230
0.0
  0
LINE
  5
A8
330
98
100
AcDbEntity
  8
USP-GEO
100
AcDbLine
 10
0.436179470261493
 20
0.0629999999999882
 30
0.0
 11
0.436179470261493
 21
0.0
 31
0.0
210
0.0
220
1.0
230
0.0
  0
LINE
  5
A9
330
98
100
AcDbEntity
  8
USP-GEO
100
AcDbLine
 10
0.2536607259808647
 20
0.2335251555416136
 30
0.0
 11
0.0630000000000166
 21
0.4241858815224609
 31
0.0
210
0.0
220
1.0
230
0.0
  0
ARC
  5
AA
330
98
100
AcDbEntity
  8
USP-GEO
100
AcDbCircle
 10
0.3243714040995371
 20
0.1628144774229696
 30
0.0
 40
0.1
100
AcDbArc
 50
44.99999999993789
 51
135.000000000013
  0
LINE
  5
AB
330
98
100
AcDbEntity
  8
USP-GEO
100
AcDbLine
 10
0.3950820822174279
 20
0.2335251555407112
 30
0.0
 11
0.430437421276622
 21
0.1981698164814176
 31
0.0
210
0.0
220
1.0
230
0.0
  0
LINE
  5
AC
330
98
100
AcDbEntity
  8
USP-GEO
100
AcDbLine
 10
0.0630000000000166
 20
0.4241858815224547
 30
0.0
 11
0.0
 21
0.4241858815224547
 31
0.0
210
0.0
220
1.0
230
0.0
  0
CIRCLE
  5
AD
330
98
100
AcDbEntity
  8
USP-GEO
100
AcDbCircle
 10
1.357000000000027
 20
0.8980000000000529
 30
-0.0000000000000001
 40
0.078
  0
CIRCLE
  5
AE
330
98
100
AcDbEntity
  8
USP-GEO
100
AcDbCircle
 10
0.9070000000000106
 20
1.616000000000042
 30
0.0
 40
0.078
  0
LINE
  5
AF
330
98
100
AcDbEntity
  8
USP-GEO
100
AcDbLine
 10
1.657000000000039
 20
1.934012528956884
 30
-0.0000000000000001
 11
1.65700000000001
 21
4.253794315615948
 31
-0.0000000000000001
210
0.0
220
1.0
230
0.0
  0
CIRCLE
  5
B0
330
98
100
AcDbEntity
  8
USP-GEO
100
AcDbCircle
 10
0.6510752243746652
 20
3.949767350065656
 30
0.0
 40
0.156
  0
LINE
  5
B1
330
98
100
AcDbEntity
  8
USP-GEO
100
AcDbLine
 10
0.0
 20
4.259324865405076
 30
0.0
 11
0.0
 21
1.933739272115687
 31
0.0
210
0.0
220
1.0
230
0.0
  0
LINE
  5
B2
330
98
100
AcDbEntity
  8
USP-GEO
100
AcDbLine
 10
0.0630000000000166
 20
1.933739272115687
 30
0.0
 11
0.0630000000000166
 21
4.259324865405076
 31
0.0
210
0.0
220
1.0
230
0.0
  0
ARC
  5
B3
330
98
100
AcDbEntity
  8
USP-GEO
100
AcDbCircle
 10
0.1729951556067988
 20
2.301794617429536
 30
0.0
 40
0.1
100
AcDbArc
 50
270.0
 51
90.0000000000004
  0
ARC
  5
B4
330
98
100
AcDbEntity
  8
USP-GEO
100
AcDbCircle
 10
0.1229951556067874
 20
2.301794617429536
 30
0.0
 40
0.1
100
AcDbArc
 50
233.1335718164456
 51
270.0
  0
LINE
  5
B5
330
98
100
AcDbEntity
  8
USP-GEO
100
AcDbLine
 10
0.1229951556067874
 20
2.201794617429534
 30
0.0
 11
0.1729951556067988
 21
2.201794617429534
 31
0.0
210
0.0
220
1.0
230
0.0
  0
LINE
  5
B6
330
98
100
AcDbEntity
  8
USP-GEO
100
AcDbLine
 10
0.1229951556067874
 20
2.401794617429537
 30
0.0
 11
0.1729951556067988
 21
2.401794617429537
 31
0.0
210
0.0
220
1.0
230
0.0
  0
ARC
  5
B7
330
98
100
AcDbEntity
  8
USP-GEO
100
AcDbCircle
 10
0.1229951556067874
 20
2.301794617429536
 30
0.0
 40
0.1
100
AcDbArc
 50
90.0000000000004
 51
126.866428183555
  0
CIRCLE
  5
B8
330
98
100
AcDbEntity
  8
USP-GEO
100
AcDbCircle
 10
1.357000000000027
 20
2.30179461742955
 30
-0.0000000000000001
 40
0.078
  0
CIRCLE
  5
B9
330
98
100
AcDbEntity
  8
USP-GEO
100
AcDbCircle
 10
0.9070000000000106
 20
3.019794617429539
 30
0.0
 40
0.078
  0
CIRCLE
  5
BA
330
98
100
AcDbEntity
  8
USP-GEO
100
AcDbCircle
 10
1.357000000000027
 20
3.705589234859047
 30
-0.0000000000000001
 40
0.078
  0
LINE
  5
BB
330
98
100
AcDbEntity
  8
USP-GEO
100
AcDbLine
 10
0.0630000000000166
 20
5.14800000000002
 30
0.0
 11
1.147420806771293
 21
5.148000000000067
 31
0.0
210
0.0
220
1.0
230
0.0
  0
LINE
  5
BC
330
98
100
AcDbEntity
  8
USP-GEO
100
AcDbLine
 10
0.0
 20
5.147999999999967
 30
0.0
 11
0.0
 21
4.547999999999973
 31
0.0
210
0.0
220
1.0
230
0.0
  0
LINE
  5
BD
330
98
100
AcDbEntity
  8
USP-GEO
100
AcDbLine
 10
0.0630000000000166
 20
4.547999999999973
 30
0.0
 11
0.0630000000000166
 21
5.147999999999967
 31
0.0
210
0.0
220
1.0
230
0.0
  0
LINE
  5
BE
330
98
100
AcDbEntity
  8
USP-GEO
100
AcDbLine
 10
0.0
 20
4.547999999999973
 30
0.0
 11
0.0
 21
4.259324865405076
 31
0.0
210
0.0
220
1.0
230
0.0
  0
LINE
  5
BF
330
98
100
AcDbEntity
  8
USP-GEO
100
AcDbLine
 10
0.0630000000000166
 20
4.547999999999973
 30
0.0
 11
0.0630000000000166
 21
4.259324865405076
 31
0.0
210
0.0
220
1.0
230
0.0
  0
LINE
  5
C0
330
98
100
AcDbEntity
  8
USP-GEO
100
AcDbLine
 10
0.0630000000000166
 20
4.259324865405076
 30
0.0
 11
0.0
 21
4.259324865405076
 31
0.0
210
0.0
220
1.0
230
0.0
  0
LINE
  5
C1
330
98
100
AcDbEntity
  8
USP-GEO
100
AcDbLine
 10
0.0630000000000166
 20
4.547999999999973
 30
0.0
 11
0.0
 21
4.547999999999973
 31
0.0
210
0.0
220
1.0
230
0.0
  0
LINE
  5
C2
330
98
100
AcDbEntity
  8
USP-GEO
100
AcDbLine
 10
0.0630000000000166
 20
5.147999999999967
 30
0.0
 11
0.0
 21
5.147999999999967
 31
0.0
210
0.0
220
1.0
230
0.0
  0
LINE
  5
C3
330
98
100
AcDbEntity
  8
USP-GEO
100
AcDbLine
 10
1.147420806771293
 20
4.547999999999973
 30
0.0
 11
1.147420806771293
 21
5.147999999999953
 31
0.0
210
0.0
220
1.0
230
0.0
  0
LINE
  5
C4
330
98
100
AcDbEntity
  8
USP-GEO
100
AcDbLine
 10
1.147420806771293
 20
4.547999999999973
 30
0.0
 11
1.65700000000001
 21
4.253794315615948
 31
-0.0000000000000001
210
0.0
220
1.0
230
0.0
  0
ARC
  5
C5
330
98
100
AcDbEntity
  8
USP-GEO
100
AcDbCircle
 10
0.9240424409952225
 20
4.848000000000023
 30
0.0
 40
0.078
100
AcDbArc
 50
36.13881466994325
 51
143.861185343702
  0
CIRCLE
  5
C6
330
98
100
AcDbEntity
  8
USP-GEO
100
AcDbCircle
 10
0.924042440984266
 20
4.939999999999997
 30
0.0
 40
0.078
  0
LINE
  5
C7
330
98
100
AcDbEntity
  8
USP-GEO
100
AcDbLine
 10
3.289289321881383
 20
0.0567484602449504
 30
-0.0000000000000002
 11
3.253933982821962
 21
0.0921037993043683
 31
-0.0000000000000002
210
0.0
220
1.0
230
0.0
  0
LINE
  5
C8
330
98
100
AcDbEntity
  8
USP-GEO
100
AcDbLine
 10
3.289289321881398
 20
0.0000000000000071
 30
-0.0000000000000002
 11
3.306331762871096
 21
0.0000000000000071
 31
-0.0000000000000002
210
0.0
220
1.0
230
0.0
  0
LINE
  5
C9
330
98
100
AcDbEntity
  8
USP-GEO
100
AcDbLine
 10
3.30633176287111
 20
0.0000000000000071
 30
-0.0000000000000002
 11
3.37704244098974
 21
0.0000000000000071
 31
-0.0000000000000002
210
0.0
220
1.0
230
0.0
  0
LINE
  5
CA
330
98
100
AcDbEntity
  8
USP-GEO
100
AcDbLine
 10
3.30633176287111
 20
0.0630000000000068
 30
-0.0000000000000002
 11
3.37704244098974
 21
0.0630000000000068
 31
-0.0000000000000002
210
0.0
220
1.0
230
0.0
  0
LINE
  5
CB
330
98
100
AcDbEntity
  8
USP-GEO
100
AcDbLine
 10
3.283037782126413
 20
0.0630000000000068
 30
-0.0000000000000002
 11
3.30633176287111
 21
0.0630000000000068
 31
-0.0000000000000002
210
0.0
220
1.0
230
0.0
  0
LINE
  5
CC
330
98
100
AcDbEntity
  8
USP-GEO
100
AcDbLine
 10
3.37704244098974
 20
0.0000000000000071
 30
-0.0000000000000002
 11
3.37704244098974
 21
0.0630000000000068
 31
-0.0000000000000002
210
0.0
220
1.0
230
0.0
  0
LINE
  5
CD
330
98
100
AcDbEntity
  8
USP-GEO
100
AcDbLine
 10
3.289289321881398
 20
0.0567484602449682
 30
-0.0000000000000002
 11
3.289289321881398
 21
0.0000000000000142
 31
-0.0000000000000002
210
0.0
220
1.0
230
0.0
  0
ARC
  5
CE
330
98
100
AcDbEntity
  8
USP-GEO
100
AcDbCircle
 10
3.32464466094072
 20
0.1628144774229554
 30
-0.0000000000000002
 40
0.1
100
AcDbArc
 50
135.0000000000246
 51
224.9999999999295
  0
ENDBLK
  5
D0
330
98
100
AcDbEntity
  8
0
100
AcDbBlockEnd
  0
ENDSEC
  0
SECTION
  2
ENTITIES
  0
INSERT
  5
3
330
2
100
AcDbEntity
  8
USP
100
AcDbBlockReference
  2
THD26_T
 10
4.169776285646305
 20
7.488862201422593
 30
0.000000000000004
  0
INSERT
  5
3A
330
2
100
AcDbEntity
  8
USP
100
AcDbBlockReference
  2
THD26_F
 10
4.169776285646305
 20
0.6823180383300809
 30
0.0000000000000039
  0
INSERT
  5
97
330
2
100
AcDbEntity
  8
USP
100
AcDbBlockReference
  2
THD26_S
 10
0.2209651202601521
 20
0.6823180383300738
 30
0.0000000000000043
  0
ENDSEC
  0
SECTION
  2
OBJECTS
  0
DICTIONARY
  5
E9
330
0
100
AcDbDictionary
281
     1
  3
ACAD_COLOR
350
100
  3
ACAD_GROUP
350
E7
  3
ACAD_LAYOUT
350
101
  3
ACAD_MATERIAL
350
FF
  3
ACAD_MLINESTYLE
350
E8
  3
ACAD_PLOTSETTINGS
350
102
  3
ACAD_PLOTSTYLENAME
350
FD
  3
ACDBHEADERROUNDTRIPXREC
350
10B
  3
AcDbVariableDictionary
350
107
  0
DICTIONARY
  5
D1
330
2
100
AcDbDictionary
280
     1
281
     1
  3
ACAD_LAYOUTSELFREF
360
D2
  0
DICTIONARY
  5
D6
330
D5
100
AcDbDictionary
280
     1
281
     1
  3
ACAD_LAYOUTSELFREF
360
D7
  0
DICTIONARY
  5
100
102
{ACAD_REACTORS
330
E9
102
}
330
E9
100
AcDbDictionary
281
     1
  0
DICTIONARY
  5
E7
102
{ACAD_REACTORS
330
E9
102
}
330
E9
100
AcDbDictionary
281
     1
  0
DICTIONARY
  5
101
102
{ACAD_REACTORS
330
E9
102
}
330
E9
100
AcDbDictionary
281
     1
  3
Layout1
350
104
  3
Model
350
103
  0
DICTIONARY
  5
FF
102
{ACAD_REACTORS
330
E9
102
}
330
E9
100
AcDbDictionary
281
     1
  0
DICTIONARY
  5
E8
102
{ACAD_REACTORS
330
E9
102
}
330
E9
100
AcDbDictionary
281
     1
  3
STANDARD
350
EC
  0
DICTIONARY
  5
102
102
{ACAD_REACTORS
330
E9
102
}
330
E9
100
AcDbDictionary
281
     1
  0
ACDBDICTIONARYWDFLT
  5
FD
102
{ACAD_REACTORS
330
E9
102
}
330
E9
100
AcDbDictionary
281
     1
  3
Normal
350
FE
100
AcDbDictionaryWithDefault
340
FE
  0
DICTIONARY
  5
10B
102
{ACAD_REACTORS
330
E9
102
}
330
E9
100
AcDbDictionary
281
     1
  3
COLORDICT
350
10D
  3
MATERIALDICT
350
10C
  0
DICTIONARY
  5
107
102
{ACAD_REACTORS
330
E9
102
}
330
E9
100
AcDbDictionary
281
     1
  3
DIMASSOC
350
108
  3
PROJECTNAME
350
109
  0
XRECORD
  5
D2
102
{ACAD_REACTORS
330
D1
102
}
330
D1
100
AcDbXrecord
280
     1
340
2
  0
XRECORD
  5
D7
102
{ACAD_REACTORS
330
D6
102
}
330
D6
100
AcDbXrecord
280
     1
340
D6
  0
LAYOUT
  5
104
102
{ACAD_XDICTIONARY
360
110
102
}
102
{ACAD_REACTORS
330
101
102
}
330
101
100
AcDbPlotSettings
  1

  2
\\mitk-us-mtg-n28\Office Canon IR C2550
  4

  6

 40
0.0
 41
0.0
 42
0.0
 43
0.0
 44
0.0
 45
0.0
 46
0.0
 47
0.0
 48
0.0
 49
0.0
140
0.0
141
0.0
142
1.0
143
1.0
 70
   688
 72
     0
 73
     0
 74
     5
  7

 75
    16
147
1.0
148
0.0
149
0.0
100
AcDbLayout
  1
Layout1
 70
     0
 71
     1
 10
0.0
 20
0.0
 11
12.0
 21
9.0
 12
0.0
 22
0.0
 32
0.0
 14
1.000000000000000E+20
 24
1.000000000000000E+20
 34
1.000000000000000E+20
 15
-1.000000000000000E+20
 25
-1.000000000000000E+20
 35
-1.000000000000000E+20
146
0.0
 13
0.0
 23
0.0
 33
0.0
 16
1.0
 26
0.0
 36
0.0
 17
0.0
 27
1.0
 37
0.0
 76
     0
330
D5
  0
LAYOUT
  5
103
102
{ACAD_XDICTIONARY
360
10E
102
}
102
{ACAD_REACTORS
330
101
102
}
330
101
100
AcDbPlotSettings
  1

  2
\\mitk-us-mtg-n28\Office Canon IR C2550
  4

  6

 40
0.0
 41
0.0
 42
0.0
 43
0.0
 44
0.0
 45
0.0
 46
0.0
 47
0.0
 48
0.0
 49
0.0
140
0.0
141
0.0
142
1.0
143
1.0
 70
  1712
 72
     0
 73
     0
 74
     0
  7

 75
     0
147
1.0
148
0.0
149
0.0
100
AcDbLayout
  1
Model
 70
     1
 71
     0
 10
0.0
 20
0.0
 11
12.0
 21
9.0
 12
0.0
 22
0.0
 32
0.0
 14
0.0
 24
0.0
 34
0.0
 15
0.0
 25
0.0
 35
0.0
146
0.0
 13
0.0
 23
0.0
 33
0.0
 16
1.0
 26
0.0
 36
0.0
 17
0.0
 27
1.0
 37
0.0
 76
     0
330
2
  0
MLINESTYLE
  5
EC
102
{ACAD_REACTORS
330
E8
102
}
330
E8
100
AcDbMlineStyle
  2
STANDARD
 70
     0
  3

 62
     0
 51
90.0
 52
90.0
 71
     2
 49
0.5
 62
   256
  6
BYLAYER
 49
-0.5
 62
   256
  6
BYLAYER
  0
ACDBPLACEHOLDER
  5
FE
102
{ACAD_REACTORS
330
FD
102
}
330
FD
  0
XRECORD
  5
10D
102
{ACAD_REACTORS
330
10B
102
}
330
10B
100
AcDbXrecord
280
     1
340
100
  0
XRECORD
  5
10C
102
{ACAD_REACTORS
330
10B
102
}
330
10B
100
AcDbXrecord
280
     1
340
FF
  0
DICTIONARYVAR
  5
108
102
{ACAD_REACTORS
330
107
102
}
330
107
100
DictionaryVariables
280
     0
  1
1
  0
DICTIONARYVAR
  5
109
102
{ACAD_REACTORS
330
107
102
}
330
107
100
DictionaryVariables
280
     0
  1

  0
DICTIONARY
  5
110
330
104
100
AcDbDictionary
280
     1
281
     1
  3
ACAD_XREC_ROUNDTRIP
360
111
  0
DICTIONARY
  5
10E
330
103
100
AcDbDictionary
280
     1
281
     1
  3
ACAD_XREC_ROUNDTRIP
360
10F
  0
XRECORD
  5
111
102
{ACAD_REACTORS
330
110
102
}
330
110
100
AcDbXrecord
280
     1
102
SHADEPLOT
 70
     0
102
SHADEPLOTRESLEVEL
 70
     2
102
SHADEPLOTCUSTOMDPI
 70
   300
  0
XRECORD
  5
10F
102
{ACAD_REACTORS
330
10E
102
}
330
10E
100
AcDbXrecord
280
     1
102
SHADEPLOT
 70
     0
102
SHADEPLOTRESLEVEL
 70
     2
102
SHADEPLOTCUSTOMDPI
 70
   300
  0
ENDSEC
  0
EOF
