  0
SECTION
  2
HEADER
  9
$ACADVER
  1
AC1014
  9
$ACADMAINTVER
 70
     9
  9
$DWGCODEPAGE
  3
ANSI_1252
  9
$INSBASE
 10
0.0
 20
0.0
 30
0.0
  9
$EXTMIN
 10
-0.3380070474047296
 20
0.002259341877469
 30
-1.050183983838884
  9
$EXTMAX
 10
14.95974247425227
 20
14.41759560589081
 30
0.0
  9
$LIMMIN
 10
0.0
 20
0.0
  9
$LIMMAX
 10
12.0
 20
9.0
  9
$ORTHOMODE
 70
     1
  9
$REGENMODE
 70
     1
  9
$FILLMODE
 70
     1
  9
$QTEXTMODE
 70
     0
  9
$MIRRTEXT
 70
     0
  9
$DRAGMODE
 70
     2
  9
$LTSCALE
 40
1.5
  9
$OSMODE
 70
     0
  9
$ATTMODE
 70
     1
  9
$TEXTSIZE
 40
0.75
  9
$TRACEWID
 40
0.05
  9
$TEXTSTYLE
  7
STANDARD
  9
$CLAYER
  8
USP
  9
$CELTYPE
  6
BYLAYER
  9
$CECOLOR
 62
   256
  9
$CELTSCALE
 40
1.0
  9
$DELOBJ
 70
     1
  9
$DISPSILH
 70
     1
  9
$DIMSCALE
 40
3.0
  9
$DIMASZ
 40
0.125
  9
$DIMEXO
 40
0.0625
  9
$DIMDLI
 40
0.37890625
  9
$DIMRND
 40
0.0
  9
$DIMDLE
 40
0.0
  9
$DIMEXE
 40
0.09375
  9
$DIMTP
 40
0.0
  9
$DIMTM
 40
0.0
  9
$DIMTXT
 40
0.109375
  9
$DIMCEN
 40
0.0
  9
$DIMTSZ
 40
0.0
  9
$DIMTOL
 70
     0
  9
$DIMLIM
 70
     0
  9
$DIMTIH
 70
     1
  9
$DIMTOH
 70
     1
  9
$DIMSE1
 70
     0
  9
$DIMSE2
 70
     0
  9
$DIMTAD
 70
     0
  9
$DIMZIN
 70
     8
  9
$DIMBLK
  1

  9
$DIMASO
 70
     1
  9
$DIMSHO
 70
     1
  9
$DIMPOST
  1

  9
$DIMAPOST
  1

  9
$DIMALT
 70
     0
  9
$DIMALTD
 70
     2
  9
$DIMALTF
 40
25.4
  9
$DIMLFAC
 40
1.0
  9
$DIMTOFL
 70
     0
  9
$DIMTVP
 40
0.0
  9
$DIMTIX
 70
     0
  9
$DIMSOXD
 70
     0
  9
$DIMSAH
 70
     0
  9
$DIMBLK1
  1

  9
$DIMBLK2
  1

  9
$DIMSTYLE
  2
STANDARD
  9
$DIMCLRD
 70
     0
  9
$DIMCLRE
 70
     0
  9
$DIMCLRT
 70
   256
  9
$DIMTFAC
 40
1.0
  9
$DIMGAP
 40
0.08984375
  9
$DIMJUST
 70
     0
  9
$DIMSD1
 70
     0
  9
$DIMSD2
 70
     0
  9
$DIMTOLJ
 70
     1
  9
$DIMTZIN
 70
     0
  9
$DIMALTZ
 70
     0
  9
$DIMALTTZ
 70
     0
  9
$DIMFIT
 70
     3
  9
$DIMUPT
 70
     1
  9
$DIMUNIT
 70
     7
  9
$DIMDEC
 70
     3
  9
$DIMTDEC
 70
     3
  9
$DIMALTU
 70
     2
  9
$DIMALTTD
 70
     2
  9
$DIMTXSTY
  7
STANDARD
  9
$DIMAUNIT
 70
     0
  9
$LUNITS
 70
     5
  9
$LUPREC
 70
     6
  9
$SKETCHINC
 40
0.1
  9
$FILLETRAD
 40
0.0
  9
$AUNITS
 70
     0
  9
$AUPREC
 70
     1
  9
$MENU
  1
CUSTOM
  9
$ELEVATION
 40
0.0
  9
$PELEVATION
 40
0.0
  9
$THICKNESS
 40
0.0
  9
$LIMCHECK
 70
     0
  9
$BLIPMODE
 70
     0
  9
$CHAMFERA
 40
0.0
  9
$CHAMFERB
 40
0.0
  9
$CHAMFERC
 40
0.0
  9
$CHAMFERD
 40
0.0
  9
$SKPOLY
 70
     0
  9
$TDCREATE
 40
2451263.663231366
  9
$TDUPDATE
 40
2452768.678023900
  9
$TDINDWG
 40
0.4616604745
  9
$TDUSRTIMER
 40
0.4616604745
  9
$USRTIMER
 70
     1
  9
$ANGBASE
 50
0.0
  9
$ANGDIR
 70
     0
  9
$PDMODE
 70
     0
  9
$PDSIZE
 40
0.0
  9
$PLINEWID
 40
0.0
  9
$COORDS
 70
     2
  9
$SPLFRAME
 70
     0
  9
$SPLINETYPE
 70
     6
  9
$SPLINESEGS
 70
     8
  9
$ATTDIA
 70
     0
  9
$ATTREQ
 70
     0
  9
$HANDLING
 70
     1
  9
$HANDSEED
  5
2AA
  9
$SURFTAB1
 70
     6
  9
$SURFTAB2
 70
     6
  9
$SURFTYPE
 70
     6
  9
$SURFU
 70
     6
  9
$SURFV
 70
     6
  9
$UCSNAME
  2

  9
$UCSORG
 10
0.0
 20
0.0
 30
0.0
  9
$UCSXDIR
 10
1.0
 20
0.0
 30
0.0
  9
$UCSYDIR
 10
0.0
 20
1.0
 30
0.0
  9
$PUCSNAME
  2

  9
$PUCSORG
 10
0.0
 20
0.0
 30
0.0
  9
$PUCSXDIR
 10
1.0
 20
0.0
 30
0.0
  9
$PUCSYDIR
 10
0.0
 20
1.0
 30
0.0
  9
$USERI1
 70
     0
  9
$USERI2
 70
     0
  9
$USERI3
 70
     0
  9
$USERI4
 70
     0
  9
$USERI5
 70
     0
  9
$USERR1
 40
0.0
  9
$USERR2
 40
0.0
  9
$USERR3
 40
0.0
  9
$USERR4
 40
0.0
  9
$USERR5
 40
0.0
  9
$WORLDVIEW
 70
     1
  9
$SHADEDGE
 70
     3
  9
$SHADEDIF
 70
    70
  9
$TILEMODE
 70
     1
  9
$MAXACTVP
 70
    16
  9
$PINSBASE
 10
0.0
 20
0.0
 30
0.0
  9
$PLIMCHECK
 70
     0
  9
$PEXTMIN
 10
1.000000000000000E+20
 20
1.000000000000000E+20
 30
1.000000000000000E+20
  9
$PEXTMAX
 10
-1.000000000000000E+20
 20
-1.000000000000000E+20
 30
-1.000000000000000E+20
  9
$PLIMMIN
 10
0.0
 20
0.0
  9
$PLIMMAX
 10
12.0
 20
9.0
  9
$UNITMODE
 70
     0
  9
$VISRETAIN
 70
     0
  9
$PLINEGEN
 70
     0
  9
$PSLTSCALE
 70
     0
  9
$TREEDEPTH
 70
  3020
  9
$PICKSTYLE
 70
     0
  9
$CMLSTYLE
  2
STANDARD
  9
$CMLJUST
 70
     0
  9
$CMLSCALE
 40
1.0
  9
$PROXYGRAPHICS
 70
     1
  9
$MEASUREMENT
 70
     0
  0
ENDSEC
  0
SECTION
  2
CLASSES
  0
CLASS
  1
ACDBDICTIONARYWDFLT
  2
AcDbDictionaryWithDefault
  3
AutoCAD 2000
 90
        0
280
     0
281
     0
  0
CLASS
  1
ACDBPLACEHOLDER
  2
AcDbPlaceHolder
  3
AutoCAD 2000
 90
        0
280
     0
281
     0
  0
CLASS
  1
LAYOUT
  2
AcDbLayout
  3
AutoCAD 2000
 90
        0
280
     0
281
     0
  0
CLASS
  1
DICTIONARYVAR
  2
AcDbDictionaryVar
  3
"AutoCAD"
 90
        0
280
     0
281
     0
  0
CLASS
  1
LONG_TRANSACTION
  2
AcDbLongTransaction
  3
AutoCAD 2000
 90
        0
280
     0
281
     0
  0
CLASS
  1
LWPOLYLINE
  2
AcDbPolyline
  3
"AutoCAD"
 90
        0
280
     0
281
     1
  0
CLASS
  1
HATCH
  2
AcDbHatch
  3
"ACAD_SEDONA"
 90
        0
280
     0
281
     1
  0
CLASS
  1
XRECORD
  2
AcDbXrecord
  3
"<Built In>"
 90
        0
280
     0
281
     0
  0
ENDSEC
  0
SECTION
  2
TABLES
  0
TABLE
  2
VPORT
  5
29A
100
AcDbSymbolTable
 70
     1
  0
VPORT
  5
29B
100
AcDbSymbolTableRecord
100
AcDbViewportTableRecord
  2
*ACTIVE
 70
     0
 10
0.0
 20
0.0
 11
1.0
 21
1.0
 12
-15.58494922889079
 22
18.27565536403183
 13
0.0
 23
0.0
 14
1.0
 24
1.0
 15
0.0
 25
0.0
 16
0.0
 26
0.0
 36
1.0
 17
23.09603071721725
 27
-10.27010416511325
 37
-10.44050274849355
 40
21.83288857381289
 41
1.457627118644067
 42
50.0
 43
10.55307667737539
 44
10.55307667737539
 50
0.0
 51
0.0
 71
     0
 72
   100
 73
     1
 74
     1
 75
     0
 76
     0
 77
     0
 78
     0
  0
ENDTAB
  0
TABLE
  2
LTYPE
  5
295
100
AcDbSymbolTable
 70
     1
  0
LTYPE
  5
296
100
AcDbSymbolTableRecord
100
AcDbLinetypeTableRecord
  2
BYBLOCK
 70
     0
  3

 72
    65
 73
     0
 40
0.0
  0
LTYPE
  5
297
100
AcDbSymbolTableRecord
100
AcDbLinetypeTableRecord
  2
BYLAYER
 70
     0
  3

 72
    65
 73
     0
 40
0.0
  0
LTYPE
  5
5
100
AcDbSymbolTableRecord
100
AcDbLinetypeTableRecord
  2
CONTINUOUS
 70
     0
  3
Solid line
 72
    65
 73
     0
 40
0.0
  0
ENDTAB
  0
TABLE
  2
LAYER
  5
293
100
AcDbSymbolTable
 70
     4
  0
LAYER
  5
F8
100
AcDbSymbolTableRecord
100
AcDbLayerTableRecord
  2
0
 70
     0
 62
     7
  6
CONTINUOUS
  0
LAYER
  5
D
102
{ACAD_XDICTIONARY
360
E
102
}
100
AcDbSymbolTableRecord
100
AcDbLayerTableRecord
  2
USP-GEO
 70
     0
 62
     7
  6
CONTINUOUS
  0
LAYER
  5
8
102
{ACAD_XDICTIONARY
360
9
102
}
100
AcDbSymbolTableRecord
100
AcDbLayerTableRecord
  2
USP-TXT
 70
     0
 62
     7
  6
CONTINUOUS
  0
LAYER
  5
4
100
AcDbSymbolTableRecord
100
AcDbLayerTableRecord
  2
USP
 70
     0
 62
     7
  6
CONTINUOUS
  0
ENDTAB
  0
TABLE
  2
STYLE
  5
294
100
AcDbSymbolTable
 70
     1
  0
STYLE
  5
B
100
AcDbSymbolTableRecord
100
AcDbTextStyleTableRecord
  2
STANDARD
 70
     0
 40
0.0
 41
1.0
 50
0.0
 71
     0
 42
0.75
  3
txt
  4

  0
ENDTAB
  0
TABLE
  2
VIEW
  5
298
100
AcDbSymbolTable
 70
     0
  0
ENDTAB
  0
TABLE
  2
UCS
  5
299
100
AcDbSymbolTable
 70
     0
  0
ENDTAB
  0
TABLE
  2
APPID
  5
29C
100
AcDbSymbolTable
 70
     1
  0
APPID
  5
29D
100
AcDbSymbolTableRecord
100
AcDbRegAppTableRecord
  2
ACAD
 70
     0
  0
ENDTAB
  0
TABLE
  2
DIMSTYLE
  5
29E
100
AcDbSymbolTable
 70
     1
  0
DIMSTYLE
105
2A6
100
AcDbSymbolTableRecord
100
AcDbDimStyleTableRecord
  2
STANDARD
 70
     0
  3

  4

  5

  6

  7

 40
1.0
 41
0.18
 42
0.0625
 43
0.38
 44
0.18
 45
0.0
 46
0.0
 47
0.0
 48
0.0
140
0.18
141
0.09
142
0.0
143
25.4
144
1.0
145
0.0
146
1.0
147
0.09
 71
     0
 72
     0
 73
     1
 74
     1
 75
     0
 76
     0
 77
     0
 78
     0
170
     0
171
     2
172
     0
173
     0
174
     0
175
     0
176
     0
177
     0
178
     0
270
     2
271
     4
272
     4
273
     2
274
     2
340
B
275
     0
280
     0
281
     0
282
     0
283
     1
284
     0
285
     0
286
     0
287
     3
288
     0
  0
ENDTAB
  0
TABLE
  2
BLOCK_RECORD
  5
1
100
AcDbSymbolTable
 70
     3
  0
BLOCK_RECORD
  5
2
102
{ACAD_XDICTIONARY
360
28A
102
}
100
AcDbSymbolTableRecord
100
AcDbBlockTableRecord
  2
*MODEL_SPACE
  0
BLOCK_RECORD
  5
28E
102
{ACAD_XDICTIONARY
360
28F
102
}
100
AcDbSymbolTableRecord
100
AcDbBlockTableRecord
  2
*PAPER_SPACE
  0
BLOCK_RECORD
  5
6
100
AcDbSymbolTableRecord
100
AcDbBlockTableRecord
  2
THD26-2_T
  0
BLOCK_RECORD
  5
FB
100
AcDbSymbolTableRecord
100
AcDbBlockTableRecord
  2
THD26-2_F
  0
BLOCK_RECORD
  5
1C1
100
AcDbSymbolTableRecord
100
AcDbBlockTableRecord
  2
THD26-2_S
  0
ENDTAB
  0
ENDSEC
  0
SECTION
  2
BLOCKS
  0
BLOCK
  5
28C
100
AcDbEntity
  8
0
100
AcDbBlockBegin
  2
*MODEL_SPACE
 70
     0
 10
0.0
 20
0.0
 30
0.0
  3
*MODEL_SPACE
  1

  0
ENDBLK
  5
28D
100
AcDbEntity
  8
0
100
AcDbBlockEnd
  0
BLOCK
  5
291
100
AcDbEntity
 67
     1
  8
0
100
AcDbBlockBegin
  2
*PAPER_SPACE
 70
     0
 10
0.0
 20
0.0
 30
0.0
  3
*PAPER_SPACE
  1

  0
ENDBLK
  5
292
100
AcDbEntity
 67
     1
  8
0
100
AcDbBlockEnd
  0
BLOCK
  5
F7
100
AcDbEntity
  8
0
100
AcDbBlockBegin
  2
THD26-2_T
 70
     0
 10
0.0
 20
0.0
 30
0.0
  3
THD26-2_T
  1

  0
TEXT
  5
7
100
AcDbEntity
  8
USP-TXT
100
AcDbText
 10
1.129621894460705
 20
-1.053952385799984
 30
-1.050183983838884
 40
0.296875
  1
THD26-2 - TOP VIEW
 72
     1
 11
3.801496894460704
 21
-1.053952385799984
 31
-1.050183983838884
100
AcDbText
  0
LWPOLYLINE
  5
C
100
AcDbEntity
  8
USP-GEO
100
AcDbPolyline
 90
        9
 70
   128
 43
0.0
 10
6.79643033312687
 20
3.125523329144943
 10
6.839600544855393
 20
3.125523329144943
 10
6.79643033312687
 20
3.125523329144943
 10
6.839600544855393
 20
3.125523329144943
 10
6.79643033312687
 20
3.125523329144943
 10
6.753260121398351
 20
3.125523329144943
 10
6.79643033312687
 20
3.125523329144943
 10
6.753260121398351
 20
3.125523329144943
 10
6.79643033312687
 20
3.125523329144943
  0
LWPOLYLINE
  5
10
100
AcDbEntity
  8
USP-GEO
100
AcDbPolyline
 90
        2
 70
   129
 43
0.0
 10
6.79643033312687
 20
3.125523329144943
 10
6.839600544855393
 20
3.125523329144943
  0
LWPOLYLINE
  5
11
100
AcDbEntity
  8
USP-GEO
100
AcDbPolyline
 90
       10
 70
   129
 43
0.0
 10
6.925940968312435
 20
3.125523329144943
 10
5.601334971775639
 20
3.125523329144943
 10
7.602993788921413
 20
3.125523329144943
 10
7.588603718345236
 20
3.125523329144943
 10
7.55982357719289
 20
3.125523329144943
 10
7.127401956378868
 20
3.125523329144943
 10
7.113011885802695
 20
3.125523329144943
 10
7.098621815226522
 20
3.125523329144943
 10
7.069841674074172
 20
3.125523329144943
 10
7.012281391769477
 20
3.125523329144943
  0
LWPOLYLINE
  5
12
100
AcDbEntity
  8
USP-GEO
100
AcDbPolyline
 90
        5
 70
   128
 43
0.0
 10
5.514994548318597
 20
3.125523329144943
 10
5.514994548318597
 20
3.197473682025812
 10
5.601334971775639
 20
3.197473682025812
 10
5.601334971775639
 20
3.125523329144943
 10
6.925940968312435
 20
3.125523329144943
  0
LWPOLYLINE
  5
13
100
AcDbEntity
  8
USP-GEO
100
AcDbPolyline
 90
       10
 70
   128
 43
0.0
 10
6.925940968312435
 20
3.197473682025812
 10
7.012281391769477
 20
3.197473682025812
 10
7.069841674074172
 20
3.197473682025812
 10
7.098621815226522
 20
3.197473682025812
 10
7.098621815226522
 20
3.125523329144943
 10
7.069841674074172
 20
3.125523329144943
 10
7.012281391769477
 20
3.125523329144943
 10
6.925940968312435
 20
3.125523329144943
 10
6.925940968312435
 20
3.197473682025812
 10
5.601334971775639
 20
3.197473682025812
  0
LWPOLYLINE
  5
14
100
AcDbEntity
  8
USP-GEO
100
AcDbPolyline
 90
       14
 70
   129
 43
0.0
 10
6.839600544855393
 20
3.125523329144943
 10
6.79643033312687
 20
3.125523329144943
 10
6.753260121398351
 20
3.125523329144943
 10
6.724479980246002
 20
3.125523329144943
 10
6.710089909669829
 20
3.125523329144943
 10
6.710089909669829
 20
3.197473682025812
 10
6.724479980246002
 20
3.197473682025812
 10
6.753260121398351
 20
3.197473682025812
 10
6.79643033312687
 20
3.197473682025812
 10
6.839600544855393
 20
3.197473682025812
 10
6.868380686007739
 20
3.197473682025812
 10
6.882770756583916
 20
3.197473682025812
 10
6.882770756583916
 20
3.125523329144943
 10
6.868380686007739
 20
3.125523329144943
  0
LWPOLYLINE
  5
15
100
AcDbEntity
  8
USP-GEO
100
AcDbPolyline
 90
       11
 70
   129
 43
0.0
 10
6.925940968312435
 20
3.197473682025812
 10
5.601334971775639
 20
3.197473682025812
 10
5.514994548318597
 20
3.197473682025812
 10
7.602993788921413
 20
3.197473682025812
 10
7.588603718345236
 20
3.197473682025812
 10
7.55982357719289
 20
3.197473682025812
 10
7.127401956378868
 20
3.197473682025812
 10
7.113011885802695
 20
3.197473682025812
 10
7.098621815226522
 20
3.197473682025812
 10
7.069841674074172
 20
3.197473682025812
 10
7.012281391769477
 20
3.197473682025812
  0
LWPOLYLINE
  5
16
100
AcDbEntity
  8
USP-GEO
100
AcDbPolyline
 90
       11
 70
   128
 43
0.0
 10
6.79643033312687
 20
3.197473682025812
 10
6.839600544855393
 20
3.197473682025812
 10
6.79643033312687
 20
3.197473682025812
 10
6.839600544855393
 20
3.197473682025812
 10
6.79643033312687
 20
3.197473682025812
 10
6.753260121398351
 20
3.197473682025812
 10
6.79643033312687
 20
3.197473682025812
 10
6.753260121398351
 20
3.197473682025812
 10
6.79643033312687
 20
3.197473682025812
 10
6.753260121398351
 20
3.197473682025812
 10
6.79643033312687
 20
3.197473682025812
  0
LWPOLYLINE
  5
17
100
AcDbEntity
  8
USP-GEO
100
AcDbPolyline
 90
        4
 70
   129
 43
0.0
 10
6.79643033312687
 20
3.197473682025812
 10
6.839600544855393
 20
3.197473682025812
 10
6.868380686007739
 20
3.197473682025812
 10
6.839600544855393
 20
3.197473682025812
  0
LWPOLYLINE
  5
18
100
AcDbEntity
  8
USP-GEO
100
AcDbPolyline
 90
        8
 70
   128
 43
0.0
 10
7.602993788921413
 20
3.125523329144943
 10
7.602993788921413
 20
3.197473682025812
 10
5.514994548318597
 20
3.197473682025812
 10
5.514994548318597
 20
2.131888955860144
 10
5.601334971775639
 20
2.131888955860144
 10
5.601334971775639
 20
3.125523329144943
 10
7.602993788921413
 20
3.125523329144943
 10
7.602993788921413
 20
3.197473682025812
  0
LWPOLYLINE
  5
19
100
AcDbEntity
  8
USP-GEO
100
AcDbPolyline
 90
        8
 70
   128
 43
0.0
 10
0.5043719736948909
 20
3.197473682025812
 10
0.5331521148472387
 20
3.197473682025812
 10
0.5907123971519326
 20
3.197473682025812
 10
0.6770528206089761
 20
3.197473682025812
 10
2.00165881714577
 20
3.197473682025812
 10
2.087999240602814
 20
3.197473682025812
 10
0.0
 20
3.197473682025812
 10
0.014390070576173
 20
3.197473682025812
  0
LWPOLYLINE
  5
1A
100
AcDbEntity
  8
USP-GEO
100
AcDbPolyline
 90
        3
 70
   128
 43
0.0
 10
0.6770528206089761
 20
3.125523329144943
 10
2.00165881714577
 20
3.125523329144943
 10
2.00165881714577
 20
3.197473682025812
  0
LWPOLYLINE
  5
1B
100
AcDbEntity
  8
USP-GEO
100
AcDbPolyline
 90
        4
 70
   128
 43
0.0
 10
2.087999240602814
 20
3.125523329144943
 10
2.087999240602814
 20
3.197473682025812
 10
2.00165881714577
 20
3.197473682025812
 10
0.6770528206089761
 20
3.197473682025812
  0
LWPOLYLINE
  5
1C
100
AcDbEntity
  8
USP-GEO
100
AcDbPolyline
 90
       10
 70
   129
 43
0.0
 10
0.475591832542543
 20
3.125523329144943
 10
0.0431702117285209
 20
3.125523329144943
 10
0.014390070576173
 20
3.125523329144943
 10
0.0
 20
3.125523329144943
 10
2.00165881714577
 20
3.125523329144943
 10
0.6770528206089761
 20
3.125523329144943
 10
0.5907123971519326
 20
3.125523329144943
 10
0.5331521148472387
 20
3.125523329144943
 10
0.5043719736948909
 20
3.125523329144943
 10
0.4899819031187161
 20
3.125523329144943
  0
LWPOLYLINE
  5
1D
100
AcDbEntity
  8
USP-GEO
100
AcDbPolyline
 90
        8
 70
   128
 43
0.0
 10
2.087999240602814
 20
2.131888955860144
 10
2.00165881714577
 20
2.131888955860144
 10
2.00165881714577
 20
3.125523329144943
 10
0.0
 20
3.125523329144943
 10
0.0
 20
3.197473682025812
 10
2.087999240602814
 20
3.197473682025812
 10
2.087999240602814
 20
2.131888955860144
 10
2.087999240602814
 20
2.11749888528397
  0
LWPOLYLINE
  5
1E
100
AcDbEntity
  8
USP-GEO
100
AcDbPolyline
 90
        2
 70
   128
 43
0.0
 10
0.014390070576173
 20
3.197473682025812
 10
0.0
 20
3.197473682025812
  0
LWPOLYLINE
  5
1F
100
AcDbEntity
  8
USP-GEO
100
AcDbPolyline
 90
        3
 70
   128
 43
0.0
 10
0.0
 20
3.125523329144943
 10
0.014390070576173
 20
3.125523329144943
 10
0.0151095741049829
 20
3.125523329144943
  0
LWPOLYLINE
  5
20
100
AcDbEntity
  8
USP-GEO
100
AcDbPolyline
 90
        2
 70
   129
 43
0.0
 10
0.0
 20
3.125523329144943
 10
0.0
 20
3.197473682025812
  0
LWPOLYLINE
  5
21
100
AcDbEntity
  8
USP-GEO
100
AcDbPolyline
 90
        5
 70
   128
 43
0.0
 10
0.3892514090854995
 20
3.197473682025812
 10
0.4036414796616743
 20
3.197473682025812
 10
0.3892514090854995
 20
3.197473682025812
 10
0.3460811973569786
 20
3.197473682025812
 10
0.3892514090854995
 20
3.197473682025812
  0
LWPOLYLINE
  5
22
100
AcDbEntity
  8
USP-GEO
100
AcDbPolyline
 90
        5
 70
   128
 43
0.0
 10
0.5043719736948909
 20
3.197473682025812
 10
0.4899819031187161
 20
3.197473682025812
 10
0.475591832542543
 20
3.197473682025812
 10
0.0431702117285209
 20
3.197473682025812
 10
0.014390070576173
 20
3.197473682025812
  0
LWPOLYLINE
  5
23
100
AcDbEntity
  8
USP-GEO
100
AcDbPolyline
 90
        3
 70
   128
 43
0.0
 10
0.0431702117285209
 20
3.125523329144943
 10
0.475591832542543
 20
3.125523329144943
 10
0.475591832542543
 20
3.197473682025812
  0
LWPOLYLINE
  5
24
100
AcDbEntity
  8
USP-GEO
100
AcDbPolyline
 90
        4
 70
   128
 43
0.0
 10
0.5043719736948909
 20
3.197473682025812
 10
0.4899819031187161
 20
3.197473682025812
 10
0.475591832542543
 20
3.197473682025812
 10
0.0431702117285209
 20
3.197473682025812
  0
LWPOLYLINE
  5
25
100
AcDbEntity
  8
USP-GEO
100
AcDbPolyline
 90
       14
 70
   129
 43
0.0
 10
0.3029109856284577
 20
3.197473682025812
 10
0.2597407738999369
 20
3.197473682025812
 10
0.230960632747589
 20
3.197473682025812
 10
0.2165705621714142
 20
3.197473682025812
 10
0.2165705621714142
 20
3.125523329144943
 10
0.230960632747589
 20
3.125523329144943
 10
0.2597407738999369
 20
3.125523329144943
 10
0.3029109856284577
 20
3.125523329144943
 10
0.3460811973569786
 20
3.125523329144943
 10
0.3892514090854995
 20
3.125523329144943
 10
0.4036414796616743
 20
3.125523329144943
 10
0.4036414796616743
 20
3.197473682025812
 10
0.3892514090854995
 20
3.197473682025812
 10
0.3460811973569786
 20
3.197473682025812
  0
LWPOLYLINE
  5
26
100
AcDbEntity
  8
USP-GEO
100
AcDbPolyline
 90
        2
 70
   129
 43
0.0
 10
0.3460811973569786
 20
3.125523329144943
 10
0.3892514090854995
 20
3.125523329144943
  0
LWPOLYLINE
  5
27
100
AcDbEntity
  8
USP-GEO
100
AcDbPolyline
 90
        2
 70
   129
 43
0.0
 10
0.0151095741049829
 20
3.197473682025812
 10
0.014390070576173
 20
3.197473682025812
  0
LWPOLYLINE
  5
28
100
AcDbEntity
  8
USP-GEO
100
AcDbPolyline
 90
        4
 70
   128
 43
0.0
 10
0.014390070576173
 20
3.125523329144943
 10
0.0431702117285209
 20
3.125523329144943
 10
0.0431702117285209
 20
3.197473682025812
 10
0.014390070576173
 20
3.197473682025812
  0
LWPOLYLINE
  5
29
100
AcDbEntity
  8
USP-GEO
100
AcDbPolyline
 90
        2
 70
   129
 43
0.0
 10
0.2165705621714142
 20
3.197473682025812
 10
0.230960632747589
 20
3.197473682025812
  0
LWPOLYLINE
  5
2A
100
AcDbEntity
  8
USP-GEO
100
AcDbPolyline
 90
        2
 70
   129
 43
0.0
 10
0.230960632747589
 20
3.197473682025812
 10
0.2597407738999369
 20
3.197473682025812
  0
LWPOLYLINE
  5
2B
100
AcDbEntity
  8
USP-GEO
100
AcDbPolyline
 90
        5
 70
   128
 43
0.0
 10
0.3029109856284577
 20
3.197473682025812
 10
0.3460811973569786
 20
3.197473682025812
 10
0.3029109856284577
 20
3.197473682025812
 10
0.2597407738999369
 20
3.197473682025812
 10
0.3029109856284577
 20
3.197473682025812
  0
LWPOLYLINE
  5
2C
100
AcDbEntity
  8
USP-GEO
100
AcDbPolyline
 90
        3
 70
   128
 43
0.0
 10
0.230960632747589
 20
3.125523329144943
 10
0.2165705621714142
 20
3.125523329144943
 10
0.230960632747589
 20
3.125523329144943
  0
LWPOLYLINE
  5
2D
100
AcDbEntity
  8
USP-GEO
100
AcDbPolyline
 90
        3
 70
   128
 43
0.0
 10
0.2597407738999369
 20
3.125523329144943
 10
0.230960632747589
 20
3.125523329144943
 10
0.2597407738999369
 20
3.125523329144943
  0
LWPOLYLINE
  5
2E
100
AcDbEntity
  8
USP-GEO
100
AcDbPolyline
 90
        2
 70
   129
 43
0.0
 10
0.2597407738999369
 20
3.125523329144943
 10
0.3029109856284577
 20
3.125523329144943
  0
LWPOLYLINE
  5
2F
100
AcDbEntity
  8
USP-GEO
100
AcDbPolyline
 90
        2
 70
   129
 43
0.0
 10
0.3029109856284577
 20
3.125523329144943
 10
0.3460811973569786
 20
3.125523329144943
  0
LWPOLYLINE
  5
30
100
AcDbEntity
  8
USP-GEO
100
AcDbPolyline
 90
        8
 70
   129
 43
0.0
 10
0.5331521148472387
 20
3.197473682025812
 10
0.5907123971519326
 20
3.197473682025812
 10
0.6770528206089761
 20
3.197473682025812
 10
0.6770528206089761
 20
3.125523329144943
 10
0.5907123971519326
 20
3.125523329144943
 10
0.5331521148472387
 20
3.125523329144943
 10
0.5043719736948909
 20
3.125523329144943
 10
0.5043719736948909
 20
3.197473682025812
  0
LWPOLYLINE
  5
31
100
AcDbEntity
  8
USP-GEO
100
AcDbPolyline
 90
        2
 70
   129
 43
0.0
 10
0.505091477223699
 20
3.197473682025812
 10
0.5043719736948909
 20
3.197473682025812
  0
LWPOLYLINE
  5
32
100
AcDbEntity
  8
USP-GEO
100
AcDbPolyline
 90
        6
 70
   128
 43
0.0
 10
0.475591832542543
 20
3.125523329144943
 10
0.4899819031187161
 20
3.125523329144943
 10
0.5043719736948909
 20
3.125523329144943
 10
0.5043719736948909
 20
3.197473682025812
 10
0.5043719736948909
 20
3.125523329144943
 10
0.505091477223699
 20
3.125523329144943
  0
LWPOLYLINE
  5
33
100
AcDbEntity
  8
USP-GEO
100
AcDbPolyline
 90
        2
 70
   129
 43
0.0
 10
0.3892514090854995
 20
3.125523329144943
 10
0.4036414796616743
 20
3.125523329144943
  0
LWPOLYLINE
  5
34
100
AcDbEntity
  8
USP-GEO
100
AcDbPolyline
 90
        8
 70
   129
 43
0.0
 10
0.8785138086754091
 20
3.197473682025812
 10
0.8497336675230613
 20
3.197473682025812
 10
0.8785138086754091
 20
3.197473682025812
 10
0.8497336675230613
 20
3.197473682025812
 10
0.8785138086754091
 20
3.197473682025812
 10
0.8497336675230613
 20
3.197473682025812
 10
0.8785138086754091
 20
3.197473682025812
 10
0.8929038792515822
 20
3.197473682025812
  0
LWPOLYLINE
  5
35
100
AcDbEntity
  8
USP-GEO
100
AcDbPolyline
 90
       14
 70
   129
 43
0.0
 10
0.8785138086754091
 20
3.197473682025812
 10
0.8497336675230613
 20
3.197473682025812
 10
0.8065634557945386
 20
3.197473682025812
 10
0.7633932440660179
 20
3.197473682025812
 10
0.73461310291367
 20
3.197473682025812
 10
0.720223032337497
 20
3.197473682025812
 10
0.720223032337497
 20
3.125523329144943
 10
0.73461310291367
 20
3.125523329144943
 10
0.7633932440660179
 20
3.125523329144943
 10
0.8065634557945386
 20
3.125523329144943
 10
0.8497336675230613
 20
3.125523329144943
 10
0.8785138086754091
 20
3.125523329144943
 10
0.8929038792515822
 20
3.125523329144943
 10
0.8929038792515822
 20
3.197473682025812
  0
LWPOLYLINE
  5
36
100
AcDbEntity
  8
USP-GEO
100
AcDbPolyline
 90
        7
 70
   128
 43
0.0
 10
0.8785138086754091
 20
3.125523329144943
 10
0.8497336675230613
 20
3.125523329144943
 10
0.8785138086754091
 20
3.125523329144943
 10
0.8497336675230613
 20
3.125523329144943
 10
0.8785138086754091
 20
3.125523329144943
 10
0.8497336675230613
 20
3.125523329144943
 10
0.8785138086754091
 20
3.125523329144943
  0
LWPOLYLINE
  5
37
100
AcDbEntity
  8
USP-GEO
100
AcDbPolyline
 90
        7
 70
   128
 43
0.0
 10
0.73461310291367
 20
3.197473682025812
 10
0.720223032337497
 20
3.197473682025812
 10
0.73461310291367
 20
3.197473682025812
 10
0.720223032337497
 20
3.197473682025812
 10
0.73461310291367
 20
3.197473682025812
 10
0.720223032337497
 20
3.197473682025812
 10
0.73461310291367
 20
3.197473682025812
  0
LWPOLYLINE
  5
38
100
AcDbEntity
  8
USP-GEO
100
AcDbPolyline
 90
        7
 70
   128
 43
0.0
 10
0.7633932440660179
 20
3.197473682025812
 10
0.73461310291367
 20
3.197473682025812
 10
0.7633932440660179
 20
3.197473682025812
 10
0.73461310291367
 20
3.197473682025812
 10
0.7633932440660179
 20
3.197473682025812
 10
0.73461310291367
 20
3.197473682025812
 10
0.7633932440660179
 20
3.197473682025812
  0
LWPOLYLINE
  5
39
100
AcDbEntity
  8
USP-GEO
100
AcDbPolyline
 90
        3
 70
   128
 43
0.0
 10
0.8065634557945386
 20
3.197473682025812
 10
0.7633932440660179
 20
3.197473682025812
 10
0.8065634557945386
 20
3.197473682025812
  0
LWPOLYLINE
  5
3A
100
AcDbEntity
  8
USP-GEO
100
AcDbPolyline
 90
        3
 70
   128
 43
0.0
 10
0.7633932440660179
 20
3.197473682025812
 10
0.8065634557945386
 20
3.197473682025812
 10
0.7633932440660179
 20
3.197473682025812
  0
LWPOLYLINE
  5
3B
100
AcDbEntity
  8
USP-GEO
100
AcDbPolyline
 90
        2
 70
   129
 43
0.0
 10
0.8065634557945386
 20
3.197473682025812
 10
0.7633932440660179
 20
3.197473682025812
  0
LWPOLYLINE
  5
3C
100
AcDbEntity
  8
USP-GEO
100
AcDbPolyline
 90
        7
 70
   128
 43
0.0
 10
0.8497336675230613
 20
3.197473682025812
 10
0.8065634557945386
 20
3.197473682025812
 10
0.8497336675230613
 20
3.197473682025812
 10
0.8065634557945386
 20
3.197473682025812
 10
0.8497336675230613
 20
3.197473682025812
 10
0.8065634557945386
 20
3.197473682025812
 10
0.8497336675230613
 20
3.197473682025812
  0
LWPOLYLINE
  5
3D
100
AcDbEntity
  8
USP-GEO
100
AcDbPolyline
 90
        7
 70
   128
 43
0.0
 10
0.73461310291367
 20
3.125523329144943
 10
0.720223032337497
 20
3.125523329144943
 10
0.73461310291367
 20
3.125523329144943
 10
0.720223032337497
 20
3.125523329144943
 10
0.73461310291367
 20
3.125523329144943
 10
0.720223032337497
 20
3.125523329144943
 10
0.73461310291367
 20
3.125523329144943
  0
LWPOLYLINE
  5
3E
100
AcDbEntity
  8
USP-GEO
100
AcDbPolyline
 90
        6
 70
   129
 43
0.0
 10
0.7633932440660179
 20
3.125523329144943
 10
0.73461310291367
 20
3.125523329144943
 10
0.7633932440660179
 20
3.125523329144943
 10
0.73461310291367
 20
3.125523329144943
 10
0.7633932440660179
 20
3.125523329144943
 10
0.73461310291367
 20
3.125523329144943
  0
LWPOLYLINE
  5
3F
100
AcDbEntity
  8
USP-GEO
100
AcDbPolyline
 90
        6
 70
   129
 43
0.0
 10
0.8065634557945386
 20
3.125523329144943
 10
0.7633932440660179
 20
3.125523329144943
 10
0.8065634557945386
 20
3.125523329144943
 10
0.7633932440660179
 20
3.125523329144943
 10
0.8065634557945386
 20
3.125523329144943
 10
0.7633932440660179
 20
3.125523329144943
  0
LWPOLYLINE
  5
40
100
AcDbEntity
  8
USP-GEO
100
AcDbPolyline
 90
        7
 70
   128
 43
0.0
 10
0.8497336675230613
 20
3.125523329144943
 10
0.8065634557945386
 20
3.125523329144943
 10
0.8497336675230613
 20
3.125523329144943
 10
0.8065634557945386
 20
3.125523329144943
 10
0.8497336675230613
 20
3.125523329144943
 10
0.8065634557945386
 20
3.125523329144943
 10
0.8497336675230613
 20
3.125523329144943
  0
LWPOLYLINE
  5
41
100
AcDbEntity
  8
USP-GEO
100
AcDbPolyline
 90
        5
 70
   128
 43
0.0
 10
0.8785138086754091
 20
3.197473682025812
 10
0.8929038792515822
 20
3.197473682025812
 10
0.8785138086754091
 20
3.197473682025812
 10
0.8929038792515822
 20
3.197473682025812
 10
0.8785138086754091
 20
3.197473682025812
  0
LWPOLYLINE
  5
42
100
AcDbEntity
  8
USP-GEO
100
AcDbPolyline
 90
        7
 70
   128
 43
0.0
 10
0.8929038792515822
 20
3.125523329144943
 10
0.8785138086754091
 20
3.125523329144943
 10
0.8929038792515822
 20
3.125523329144943
 10
0.8785138086754091
 20
3.125523329144943
 10
0.8929038792515822
 20
3.125523329144943
 10
0.8785138086754091
 20
3.125523329144943
 10
0.8929038792515822
 20
3.125523329144943
  0
LWPOLYLINE
  5
43
100
AcDbEntity
  8
USP-GEO
100
AcDbPolyline
 90
        2
 70
   129
 43
0.0
 10
4.305509116391192
 20
2.996012693959379
 10
3.297484672530218
 20
2.996012693959379
  0
LWPOLYLINE
  5
44
100
AcDbEntity
  8
USP-GEO
100
AcDbPolyline
 90
        2
 70
   129
 43
0.0
 10
3.297484672530218
 20
0.0
 10
4.305509116391192
 20
0.0
  0
LWPOLYLINE
  5
45
100
AcDbEntity
  8
USP-GEO
100
AcDbPolyline
 90
       34
 70
   128
 43
0.0
 10
4.550140316186146
 20
2.996012693959379
 10
4.535750245609971
 20
2.952842482230858
 10
4.506970104457625
 20
2.92406234107851
 10
4.463799892729102
 20
2.909672270502335
 10
4.391849539848234
 20
2.909672270502335
 10
4.348679328119713
 20
2.92406234107851
 10
4.319899186967365
 20
2.952842482230858
 10
4.305509116391192
 20
2.996012693959379
 10
3.297484672530218
 20
2.996012693959379
 10
3.283094601954045
 20
2.952842482230858
 10
3.254314460801698
 20
2.92406234107851
 10
3.211144249073177
 20
2.909672270502335
 10
3.139193896192308
 20
2.909672270502335
 10
3.096023684463785
 20
2.92406234107851
 10
3.067243543311439
 20
2.952842482230858
 10
3.052853472735264
 20
2.996012693959379
 10
2.00165881714577
 20
2.996012693959379
 10
2.00165881714577
 20
0.0
 10
3.052853472735264
 20
0.0
 10
3.067243543311439
 20
0.0431702117285209
 10
3.096023684463785
 20
0.0719503528808687
 10
3.139193896192308
 20
0.0863404234570418
 10
3.211144249073177
 20
0.0863404234570418
 10
3.254314460801698
 20
0.0719503528808687
 10
3.283094601954045
 20
0.0431702117285209
 10
3.297484672530218
 20
0.0
 10
4.305509116391192
 20
0.0
 10
4.319899186967365
 20
0.0431702117285209
 10
4.348679328119713
 20
0.0719503528808687
 10
4.391849539848234
 20
0.0863404234570418
 10
4.463799892729102
 20
0.0863404234570418
 10
4.506970104457625
 20
0.0719503528808687
 10
4.535750245609971
 20
0.0431702117285209
 10
4.550140316186146
 20
0.0
  0
LWPOLYLINE
  5
46
100
AcDbEntity
  8
USP-GEO
100
AcDbPolyline
 90
        3
 70
   129
 43
0.0
 10
2.00165881714577
 20
0.0
 10
2.087999240602814
 20
0.0
 10
3.052853472735264
 20
0.0
  0
LWPOLYLINE
  5
47
100
AcDbEntity
  8
USP-GEO
100
AcDbPolyline
 90
        3
 70
   129
 43
0.0
 10
2.00165881714577
 20
2.996012693959379
 10
3.052853472735264
 20
2.996012693959379
 10
2.087999240602814
 20
2.996012693959379
  0
LWPOLYLINE
  5
48
100
AcDbEntity
  8
USP-GEO
100
AcDbPolyline
 90
        4
 70
   128
 43
0.0
 10
3.052853472735264
 20
2.996012693959379
 10
2.087999240602814
 20
2.996012693959379
 10
2.087999240602814
 20
0.0
 10
3.052853472735264
 20
0.0
  0
LWPOLYLINE
  5
49
100
AcDbEntity
  8
USP-GEO
100
AcDbPolyline
 90
        9
 70
   128
 43
0.0
 10
2.00165881714577
 20
1.944098534841076
 10
2.00165881714577
 20
1.88653825253638
 10
2.00165881714577
 20
1.857758111384033
 10
2.00165881714577
 20
1.84336804080786
 10
2.00165881714577
 20
1.857758111384033
 10
2.00165881714577
 20
1.88653825253638
 10
2.00165881714577
 20
1.944098534841076
 10
2.00165881714577
 20
1.987268746569597
 10
2.00165881714577
 20
2.016048887721945
  0
LWPOLYLINE
  5
4A
100
AcDbEntity
  8
USP-GEO
100
AcDbPolyline
 90
        2
 70
   129
 43
0.0
 10
2.00165881714577
 20
1.944098534841076
 10
2.00165881714577
 20
1.88653825253638
  0
LWPOLYLINE
  5
4B
100
AcDbEntity
  8
USP-GEO
100
AcDbPolyline
 90
        8
 70
   128
 43
0.0
 10
2.00165881714577
 20
2.016048887721945
 10
2.00165881714577
 20
1.987268746569597
 10
2.00165881714577
 20
1.944098534841076
 10
2.00165881714577
 20
1.88653825253638
 10
2.00165881714577
 20
1.857758111384033
 10
2.00165881714577
 20
1.84336804080786
 10
2.00165881714577
 20
1.857758111384033
 10
2.00165881714577
 20
1.88653825253638
  0
LWPOLYLINE
  5
4C
100
AcDbEntity
  8
USP-GEO
100
AcDbPolyline
 90
       23
 70
   128
 43
0.0
 10
2.00165881714577
 20
2.736271920059442
 10
2.00165881714577
 20
2.793832202364137
 10
2.00165881714577
 20
2.880892129349989
 10
2.00165881714577
 20
2.952842482230858
 10
2.00165881714577
 20
3.010402764535552
 10
2.00165881714577
 20
3.0391829056879
 10
2.00165881714577
 20
3.010402764535552
 10
2.00165881714577
 20
3.024792835111727
 10
2.00165881714577
 20
3.125523329144943
 10
2.00165881714577
 20
2.131888955860144
 10
2.00165881714577
 20
2.11749888528397
 10
2.00165881714577
 20
2.087999240602814
 10
2.00165881714577
 20
1.6562971233176
 10
2.00165881714577
 20
1.641907052741427
 10
2.00165881714577
 20
1.627516982165253
 10
2.00165881714577
 20
1.598736841012906
 10
2.00165881714577
 20
1.54117655870821
 10
2.00165881714577
 20
1.454836135251168
 10
2.00165881714577
 20
0.0287801411523479
 10
2.00165881714577
 20
0.014390070576173
 10
2.00165881714577
 20
0.0
 10
2.00165881714577
 20
0.014390070576173
 10
2.00165881714577
 20
0.0287801411523479
  0
LWPOLYLINE
  5
4D
100
AcDbEntity
  8
USP-GEO
100
AcDbPolyline
 90
        2
 70
   128
 43
0.0
 10
2.00165881714577
 20
1.88653825253638
 10
2.00165881714577
 20
1.944098534841076
  0
LWPOLYLINE
  5
4E
100
AcDbEntity
  8
USP-GEO
100
AcDbPolyline
 90
        7
 70
   128
 43
0.0
 10
2.00165881714577
 20
0.0
 10
2.00165881714577
 20
2.996012693959379
 10
2.00165881714577
 20
3.010402764535552
 10
2.00165881714577
 20
2.952842482230858
 10
2.00165881714577
 20
2.880892129349989
 10
2.00165881714577
 20
2.793832202364137
 10
2.00165881714577
 20
2.736271920059442
  0
LWPOLYLINE
  5
4F
100
AcDbEntity
  8
USP-GEO
100
AcDbPolyline
 90
       17
 70
   129
 43
0.0
 10
2.087999240602814
 20
0.0
 10
2.087999240602814
 20
2.996012693959379
 10
2.087999240602814
 20
3.010402764535552
 10
2.087999240602814
 20
3.024792835111727
 10
2.087999240602814
 20
3.125523329144943
 10
2.087999240602814
 20
3.197473682025812
 10
2.087999240602814
 20
2.131888955860144
 10
2.087999240602814
 20
2.11749888528397
 10
2.087999240602814
 20
2.087999240602814
 10
2.087999240602814
 20
1.6562971233176
 10
2.087999240602814
 20
1.641907052741427
 10
2.087999240602814
 20
1.627516982165253
 10
2.087999240602814
 20
1.598736841012906
 10
2.087999240602814
 20
1.54117655870821
 10
2.087999240602814
 20
1.454836135251168
 10
2.087999240602814
 20
0.0287801411523479
 10
2.087999240602814
 20
0.014390070576173
  0
LWPOLYLINE
  5
50
100
AcDbEntity
  8
USP-GEO
100
AcDbPolyline
 90
        6
 70
   129
 43
0.0
 10
2.087999240602814
 20
1.88653825253638
 10
2.087999240602814
 20
1.944098534841076
 10
2.087999240602814
 20
1.987268746569597
 10
2.087999240602814
 20
2.016048887721945
 10
2.087999240602814
 20
1.987268746569597
 10
2.087999240602814
 20
1.944098534841076
  0
LWPOLYLINE
  5
51
100
AcDbEntity
  8
USP-GEO
100
AcDbPolyline
 90
       10
 70
   129
 43
0.0
 10
2.087999240602814
 20
1.944098534841076
 10
2.087999240602814
 20
1.88653825253638
 10
2.087999240602814
 20
1.857758111384033
 10
2.087999240602814
 20
1.84336804080786
 10
2.087999240602814
 20
1.857758111384033
 10
2.087999240602814
 20
1.88653825253638
 10
2.087999240602814
 20
1.944098534841076
 10
2.087999240602814
 20
1.987268746569597
 10
2.087999240602814
 20
2.016048887721945
 10
2.087999240602814
 20
1.987268746569597
  0
LWPOLYLINE
  5
52
100
AcDbEntity
  8
USP-GEO
100
AcDbPolyline
 90
       10
 70
   129
 43
0.0
 10
2.087999240602814
 20
1.944098534841076
 10
2.087999240602814
 20
1.88653825253638
 10
2.087999240602814
 20
1.857758111384033
 10
2.087999240602814
 20
1.84336804080786
 10
2.087999240602814
 20
1.857758111384033
 10
2.087999240602814
 20
1.88653825253638
 10
2.087999240602814
 20
1.857758111384033
 10
2.087999240602814
 20
1.84336804080786
 10
2.087999240602814
 20
1.857758111384033
 10
2.087999240602814
 20
1.88653825253638
  0
LWPOLYLINE
  5
53
100
AcDbEntity
  8
USP-GEO
100
AcDbPolyline
 90
        2
 70
   128
 43
0.0
 10
2.00165881714577
 20
2.087999240602814
 10
2.00165881714577
 20
1.6562971233176
  0
LWPOLYLINE
  5
54
100
AcDbEntity
  8
USP-GEO
100
AcDbPolyline
 90
        5
 70
   128
 43
0.0
 10
2.087999240602814
 20
1.6562971233176
 10
2.087999240602814
 20
2.087999240602814
 10
2.00165881714577
 20
2.087999240602814
 10
2.00165881714577
 20
2.11749888528397
 10
2.00165881714577
 20
2.131888955860144
  0
LWPOLYLINE
  5
55
100
AcDbEntity
  8
USP-GEO
100
AcDbPolyline
 90
       14
 70
   129
 43
0.0
 10
2.00165881714577
 20
2.030438958298118
 10
2.087999240602814
 20
2.030438958298118
 10
2.087999240602814
 20
2.016048887721945
 10
2.087999240602814
 20
1.987268746569597
 10
2.087999240602814
 20
1.944098534841076
 10
2.087999240602814
 20
1.88653825253638
 10
2.087999240602814
 20
1.857758111384033
 10
2.087999240602814
 20
1.84336804080786
 10
2.00165881714577
 20
1.84336804080786
 10
2.00165881714577
 20
1.857758111384033
 10
2.00165881714577
 20
1.88653825253638
 10
2.00165881714577
 20
1.944098534841076
 10
2.00165881714577
 20
1.987268746569597
 10
2.00165881714577
 20
2.016048887721945
  0
LWPOLYLINE
  5
56
100
AcDbEntity
  8
USP-GEO
100
AcDbPolyline
 90
        7
 70
   128
 43
0.0
 10
2.00165881714577
 20
1.454836135251168
 10
2.00165881714577
 20
0.0287801411523479
 10
2.087999240602814
 20
0.0287801411523479
 10
2.087999240602814
 20
0.014390070576173
 10
2.087999240602814
 20
0.0
 10
2.00165881714577
 20
0.0
 10
2.00237832067458
 20
0.0
  0
LWPOLYLINE
  5
57
100
AcDbEntity
  8
USP-GEO
100
AcDbPolyline
 90
        8
 70
   129
 43
0.0
 10
2.087999240602814
 20
1.54117655870821
 10
2.087999240602814
 20
1.454836135251168
 10
2.00165881714577
 20
1.454836135251168
 10
2.00165881714577
 20
1.54117655870821
 10
2.00165881714577
 20
1.598736841012906
 10
2.00165881714577
 20
1.627516982165253
 10
2.087999240602814
 20
1.627516982165253
 10
2.087999240602814
 20
1.598736841012906
  0
LWPOLYLINE
  5
58
100
AcDbEntity
  8
USP-GEO
100
AcDbPolyline
 90
        3
 70
   128
 43
0.0
 10
2.087999240602814
 20
1.627516982165253
 10
2.00165881714577
 20
1.627516982165253
 10
2.00237832067458
 20
1.627516982165253
  0
LWPOLYLINE
  5
59
100
AcDbEntity
  8
USP-GEO
100
AcDbPolyline
 90
        6
 70
   129
 43
0.0
 10
2.00165881714577
 20
1.627516982165253
 10
2.087999240602814
 20
1.627516982165253
 10
2.087999240602814
 20
1.641907052741427
 10
2.087999240602814
 20
1.6562971233176
 10
2.00165881714577
 20
1.6562971233176
 10
2.00165881714577
 20
1.641907052741427
  0
LWPOLYLINE
  5
5A
100
AcDbEntity
  8
USP-GEO
100
AcDbPolyline
 90
        4
 70
   129
 43
0.0
 10
2.00165881714577
 20
1.857758111384033
 10
2.00165881714577
 20
1.88653825253638
 10
2.00165881714577
 20
1.857758111384033
 10
2.00165881714577
 20
1.84336804080786
  0
LWPOLYLINE
  5
5B
100
AcDbEntity
  8
USP-GEO
100
AcDbPolyline
 90
        2
 70
   128
 43
0.0
 10
2.087999240602814
 20
0.0287801411523479
 10
2.087999240602814
 20
1.454836135251168
  0
LWPOLYLINE
  5
5C
100
AcDbEntity
  8
USP-GEO
100
AcDbPolyline
 90
        2
 70
   129
 43
0.0
 10
2.00165881714577
 20
2.131888955860144
 10
2.087999240602814
 20
2.131888955860144
  0
LWPOLYLINE
  5
5D
100
AcDbEntity
  8
USP-GEO
100
AcDbPolyline
 90
       10
 70
   128
 43
0.0
 10
2.087999240602814
 20
3.024792835111727
 10
2.087999240602814
 20
3.125523329144943
 10
2.00165881714577
 20
3.125523329144943
 10
2.00165881714577
 20
3.024792835111727
 10
2.00165881714577
 20
3.010402764535552
 10
2.00165881714577
 20
2.996012693959379
 10
2.087999240602814
 20
2.996012693959379
 10
2.087999240602814
 20
3.010402764535552
 10
2.087999240602814
 20
3.024792835111727
 10
2.00165881714577
 20
3.024792835111727
  0
LWPOLYLINE
  5
5E
100
AcDbEntity
  8
USP-GEO
100
AcDbPolyline
 90
       14
 70
   129
 43
0.0
 10
2.00165881714577
 20
2.534810931993009
 10
2.087999240602814
 20
2.534810931993009
 10
2.087999240602814
 20
2.520420861416836
 10
2.087999240602814
 20
2.477250649688315
 10
2.087999240602814
 20
2.434080437959792
 10
2.087999240602814
 20
2.390910226231271
 10
2.087999240602814
 20
2.362130085078923
 10
2.087999240602814
 20
2.34774001450275
 10
2.00165881714577
 20
2.34774001450275
 10
2.00165881714577
 20
2.362130085078923
 10
2.00165881714577
 20
2.390910226231271
 10
2.00165881714577
 20
2.434080437959792
 10
2.00165881714577
 20
2.477250649688315
 10
2.00165881714577
 20
2.520420861416836
  0
LWPOLYLINE
  5
5F
100
AcDbEntity
  8
USP-GEO
100
AcDbPolyline
 90
       14
 70
   129
 43
0.0
 10
2.087999240602814
 20
2.952842482230858
 10
2.087999240602814
 20
3.010402764535552
 10
2.087999240602814
 20
3.0391829056879
 10
2.00165881714577
 20
3.0391829056879
 10
2.00165881714577
 20
3.010402764535552
 10
2.00165881714577
 20
2.952842482230858
 10
2.00165881714577
 20
2.880892129349989
 10
2.00165881714577
 20
2.793832202364137
 10
2.00165881714577
 20
2.736271920059442
 10
2.00165881714577
 20
2.721881849483269
 10
2.087999240602814
 20
2.721881849483269
 10
2.087999240602814
 20
2.736271920059442
 10
2.087999240602814
 20
2.793832202364137
 10
2.087999240602814
 20
2.880892129349989
  0
LWPOLYLINE
  5
60
100
AcDbEntity
  8
USP-GEO
100
AcDbPolyline
 90
       21
 70
   128
 43
0.0
 10
1.555566629284383
 20
3.197473682025812
 10
1.584346770436731
 20
3.197473682025812
 10
1.555566629284383
 20
3.197473682025812
 10
1.584346770436731
 20
3.197473682025812
 10
1.555566629284383
 20
3.197473682025812
 10
1.584346770436731
 20
3.197473682025812
 10
1.555566629284383
 20
3.197473682025812
 10
1.584346770436731
 20
3.197473682025812
 10
1.555566629284383
 20
3.197473682025812
 10
1.584346770436731
 20
3.197473682025812
 10
1.555566629284383
 20
3.197473682025812
 10
1.512396417555862
 20
3.197473682025812
 10
1.555566629284383
 20
3.197473682025812
 10
1.512396417555862
 20
3.197473682025812
 10
1.555566629284383
 20
3.197473682025812
 10
1.512396417555862
 20
3.197473682025812
 10
1.555566629284383
 20
3.197473682025812
 10
1.512396417555862
 20
3.197473682025812
 10
1.555566629284383
 20
3.197473682025812
 10
1.512396417555862
 20
3.197473682025812
 10
1.555566629284383
 20
3.197473682025812
  0
LWPOLYLINE
  5
61
100
AcDbEntity
  8
USP-GEO
100
AcDbPolyline
 90
       14
 70
   129
 43
0.0
 10
1.555566629284383
 20
3.197473682025812
 10
1.512396417555862
 20
3.197473682025812
 10
1.469226205827341
 20
3.197473682025812
 10
1.42605599409882
 20
3.197473682025812
 10
1.411665923522646
 20
3.197473682025812
 10
1.411665923522646
 20
3.125523329144943
 10
1.42605599409882
 20
3.125523329144943
 10
1.469226205827341
 20
3.125523329144943
 10
1.512396417555862
 20
3.125523329144943
 10
1.555566629284383
 20
3.125523329144943
 10
1.584346770436731
 20
3.125523329144943
 10
1.598736841012906
 20
3.125523329144943
 10
1.598736841012906
 20
3.197473682025812
 10
1.584346770436731
 20
3.197473682025812
  0
LWPOLYLINE
  5
62
100
AcDbEntity
  8
USP-GEO
100
AcDbPolyline
 90
       10
 70
   129
 43
0.0
 10
1.555566629284383
 20
3.125523329144943
 10
1.512396417555862
 20
3.125523329144943
 10
1.555566629284383
 20
3.125523329144943
 10
1.512396417555862
 20
3.125523329144943
 10
1.555566629284383
 20
3.125523329144943
 10
1.512396417555862
 20
3.125523329144943
 10
1.555566629284383
 20
3.125523329144943
 10
1.512396417555862
 20
3.125523329144943
 10
1.555566629284383
 20
3.125523329144943
 10
1.512396417555862
 20
3.125523329144943
  0
LWPOLYLINE
  5
63
100
AcDbEntity
  8
USP-GEO
100
AcDbPolyline
 90
        9
 70
   128
 43
0.0
 10
1.42605599409882
 20
3.197473682025812
 10
1.411665923522646
 20
3.197473682025812
 10
1.42605599409882
 20
3.197473682025812
 10
1.411665923522646
 20
3.197473682025812
 10
1.42605599409882
 20
3.197473682025812
 10
1.411665923522646
 20
3.197473682025812
 10
1.42605599409882
 20
3.197473682025812
 10
1.411665923522646
 20
3.197473682025812
 10
1.42605599409882
 20
3.197473682025812
  0
LWPOLYLINE
  5
64
100
AcDbEntity
  8
USP-GEO
100
AcDbPolyline
 90
       14
 70
   129
 43
0.0
 10
1.42605599409882
 20
3.197473682025812
 10
1.411665923522646
 20
3.197473682025812
 10
1.42605599409882
 20
3.197473682025812
 10
1.469226205827341
 20
3.197473682025812
 10
1.512396417555862
 20
3.197473682025812
 10
1.469226205827341
 20
3.197473682025812
 10
1.42605599409882
 20
3.197473682025812
 10
1.469226205827341
 20
3.197473682025812
 10
1.42605599409882
 20
3.197473682025812
 10
1.469226205827341
 20
3.197473682025812
 10
1.42605599409882
 20
3.197473682025812
 10
1.469226205827341
 20
3.197473682025812
 10
1.42605599409882
 20
3.197473682025812
 10
1.469226205827341
 20
3.197473682025812
  0
LWPOLYLINE
  5
65
100
AcDbEntity
  8
USP-GEO
100
AcDbPolyline
 90
        9
 70
   128
 43
0.0
 10
1.512396417555862
 20
3.197473682025812
 10
1.469226205827341
 20
3.197473682025812
 10
1.512396417555862
 20
3.197473682025812
 10
1.469226205827341
 20
3.197473682025812
 10
1.512396417555862
 20
3.197473682025812
 10
1.469226205827341
 20
3.197473682025812
 10
1.512396417555862
 20
3.197473682025812
 10
1.469226205827341
 20
3.197473682025812
 10
1.512396417555862
 20
3.197473682025812
  0
LWPOLYLINE
  5
66
100
AcDbEntity
  8
USP-GEO
100
AcDbPolyline
 90
       11
 70
   128
 43
0.0
 10
1.411665923522646
 20
3.125523329144943
 10
1.42605599409882
 20
3.125523329144943
 10
1.411665923522646
 20
3.125523329144943
 10
1.42605599409882
 20
3.125523329144943
 10
1.411665923522646
 20
3.125523329144943
 10
1.42605599409882
 20
3.125523329144943
 10
1.411665923522646
 20
3.125523329144943
 10
1.42605599409882
 20
3.125523329144943
 10
1.411665923522646
 20
3.125523329144943
 10
1.42605599409882
 20
3.125523329144943
 10
1.411665923522646
 20
3.125523329144943
  0
LWPOLYLINE
  5
67
100
AcDbEntity
  8
USP-GEO
100
AcDbPolyline
 90
        9
 70
   128
 43
0.0
 10
1.42605599409882
 20
3.125523329144943
 10
1.469226205827341
 20
3.125523329144943
 10
1.42605599409882
 20
3.125523329144943
 10
1.469226205827341
 20
3.125523329144943
 10
1.42605599409882
 20
3.125523329144943
 10
1.469226205827341
 20
3.125523329144943
 10
1.42605599409882
 20
3.125523329144943
 10
1.469226205827341
 20
3.125523329144943
 10
1.42605599409882
 20
3.125523329144943
  0
LWPOLYLINE
  5
68
100
AcDbEntity
  8
USP-GEO
100
AcDbPolyline
 90
        2
 70
   129
 43
0.0
 10
1.42605599409882
 20
3.125523329144943
 10
1.469226205827341
 20
3.125523329144943
  0
LWPOLYLINE
  5
69
100
AcDbEntity
  8
USP-GEO
100
AcDbPolyline
 90
       10
 70
   129
 43
0.0
 10
1.469226205827341
 20
3.125523329144943
 10
1.512396417555862
 20
3.125523329144943
 10
1.469226205827341
 20
3.125523329144943
 10
1.512396417555862
 20
3.125523329144943
 10
1.469226205827341
 20
3.125523329144943
 10
1.512396417555862
 20
3.125523329144943
 10
1.469226205827341
 20
3.125523329144943
 10
1.512396417555862
 20
3.125523329144943
 10
1.469226205827341
 20
3.125523329144943
 10
1.512396417555862
 20
3.125523329144943
  0
LWPOLYLINE
  5
6A
100
AcDbEntity
  8
USP-GEO
100
AcDbPolyline
 90
       11
 70
   128
 43
0.0
 10
1.598736841012906
 20
3.197473682025812
 10
1.584346770436731
 20
3.197473682025812
 10
1.598736841012906
 20
3.197473682025812
 10
1.584346770436731
 20
3.197473682025812
 10
1.598736841012906
 20
3.197473682025812
 10
1.584346770436731
 20
3.197473682025812
 10
1.598736841012906
 20
3.197473682025812
 10
1.584346770436731
 20
3.197473682025812
 10
1.598736841012906
 20
3.197473682025812
 10
1.584346770436731
 20
3.197473682025812
 10
1.598736841012906
 20
3.197473682025812
  0
LWPOLYLINE
  5
6B
100
AcDbEntity
  8
USP-GEO
100
AcDbPolyline
 90
       10
 70
   129
 43
0.0
 10
1.584346770436731
 20
3.125523329144943
 10
1.555566629284383
 20
3.125523329144943
 10
1.584346770436731
 20
3.125523329144943
 10
1.555566629284383
 20
3.125523329144943
 10
1.584346770436731
 20
3.125523329144943
 10
1.555566629284383
 20
3.125523329144943
 10
1.584346770436731
 20
3.125523329144943
 10
1.555566629284383
 20
3.125523329144943
 10
1.584346770436731
 20
3.125523329144943
 10
1.555566629284383
 20
3.125523329144943
  0
LWPOLYLINE
  5
6C
100
AcDbEntity
  8
USP-GEO
100
AcDbPolyline
 90
       10
 70
   129
 43
0.0
 10
1.598736841012906
 20
3.125523329144943
 10
1.584346770436731
 20
3.125523329144943
 10
1.598736841012906
 20
3.125523329144943
 10
1.584346770436731
 20
3.125523329144943
 10
1.598736841012906
 20
3.125523329144943
 10
1.584346770436731
 20
3.125523329144943
 10
1.598736841012906
 20
3.125523329144943
 10
1.584346770436731
 20
3.125523329144943
 10
1.598736841012906
 20
3.125523329144943
 10
1.584346770436731
 20
3.125523329144943
  0
LWPOLYLINE
  5
6D
100
AcDbEntity
  8
USP-GEO
100
AcDbPolyline
 90
        2
 70
   129
 43
0.0
 10
2.00165881714577
 20
2.534810931993009
 10
2.00165881714577
 20
2.520420861416836
  0
LWPOLYLINE
  5
6E
100
AcDbEntity
  8
USP-GEO
100
AcDbPolyline
 90
        4
 70
   128
 43
0.0
 10
2.00165881714577
 20
2.520420861416836
 10
2.00165881714577
 20
2.477250649688315
 10
2.00165881714577
 20
2.434080437959792
 10
2.00165881714577
 20
2.390910226231271
  0
LWPOLYLINE
  5
6F
100
AcDbEntity
  8
USP-GEO
100
AcDbPolyline
 90
        2
 70
   129
 43
0.0
 10
2.00165881714577
 20
2.721881849483269
 10
2.00165881714577
 20
2.736271920059442
  0
LWPOLYLINE
  5
70
100
AcDbEntity
  8
USP-GEO
100
AcDbPolyline
 90
       10
 70
   128
 43
0.0
 10
2.00165881714577
 20
2.390910226231271
 10
2.00165881714577
 20
2.434080437959792
 10
2.00165881714577
 20
2.477250649688315
 10
2.00165881714577
 20
2.520420861416836
 10
2.00165881714577
 20
2.477250649688315
 10
2.00165881714577
 20
2.434080437959792
 10
2.00165881714577
 20
2.477250649688315
 10
2.00165881714577
 20
2.520420861416836
 10
2.00165881714577
 20
2.534810931993009
 10
2.00165881714577
 20
2.520420861416836
  0
LWPOLYLINE
  5
71
100
AcDbEntity
  8
USP-GEO
100
AcDbPolyline
 90
        4
 70
   129
 43
0.0
 10
2.00165881714577
 20
2.390910226231271
 10
2.00165881714577
 20
2.362130085078923
 10
2.00165881714577
 20
2.34774001450275
 10
2.00165881714577
 20
2.362130085078923
  0
LWPOLYLINE
  5
72
100
AcDbEntity
  8
USP-GEO
100
AcDbPolyline
 90
        2
 70
   129
 43
0.0
 10
2.00165881714577
 20
2.016048887721945
 10
2.00165881714577
 20
2.030438958298118
  0
LWPOLYLINE
  5
73
100
AcDbEntity
  8
USP-GEO
100
AcDbPolyline
 90
        2
 70
   129
 43
0.0
 10
2.00165881714577
 20
2.390910226231271
 10
2.00165881714577
 20
2.434080437959792
  0
LWPOLYLINE
  5
74
100
AcDbEntity
  8
USP-GEO
100
AcDbPolyline
 90
        4
 70
   129
 43
0.0
 10
2.00165881714577
 20
2.390910226231271
 10
2.00165881714577
 20
2.362130085078923
 10
2.00165881714577
 20
2.34774001450275
 10
2.00165881714577
 20
2.362130085078923
  0
LWPOLYLINE
  5
75
100
AcDbEntity
  8
USP-GEO
100
AcDbPolyline
 90
        5
 70
   128
 43
0.0
 10
2.00165881714577
 20
2.016048887721945
 10
2.00165881714577
 20
2.030438958298118
 10
2.00165881714577
 20
2.016048887721945
 10
2.00165881714577
 20
1.987268746569597
 10
2.00165881714577
 20
1.944098534841076
  0
LWPOLYLINE
  5
76
100
AcDbEntity
  8
USP-GEO
100
AcDbPolyline
 90
       10
 70
   129
 43
0.0
 10
2.00165881714577
 20
2.362130085078923
 10
2.00165881714577
 20
2.390910226231271
 10
2.00165881714577
 20
2.434080437959792
 10
2.00165881714577
 20
2.477250649688315
 10
2.00165881714577
 20
2.520420861416836
 10
2.00165881714577
 20
2.534810931993009
 10
2.00165881714577
 20
2.520420861416836
 10
2.00165881714577
 20
2.477250649688315
 10
2.00165881714577
 20
2.434080437959792
 10
2.00165881714577
 20
2.390910226231271
  0
LWPOLYLINE
  5
77
100
AcDbEntity
  8
USP-GEO
100
AcDbPolyline
 90
        4
 70
   129
 43
0.0
 10
2.00165881714577
 20
2.016048887721945
 10
2.00165881714577
 20
2.030438958298118
 10
2.00165881714577
 20
2.016048887721945
 10
2.00165881714577
 20
1.987268746569597
  0
LWPOLYLINE
  5
78
100
AcDbEntity
  8
USP-GEO
100
AcDbPolyline
 90
        3
 70
   128
 43
0.0
 10
2.00165881714577
 20
2.016048887721945
 10
2.00165881714577
 20
1.987268746569597
 10
2.00165881714577
 20
1.944098534841076
  0
LWPOLYLINE
  5
79
100
AcDbEntity
  8
USP-GEO
100
AcDbPolyline
 90
        2
 70
   129
 43
0.0
 10
2.00165881714577
 20
2.34774001450275
 10
2.00165881714577
 20
2.362130085078923
  0
LWPOLYLINE
  5
7A
100
AcDbEntity
  8
USP-GEO
100
AcDbPolyline
 90
        2
 70
   129
 43
0.0
 10
2.00165881714577
 20
1.944098534841076
 10
2.00165881714577
 20
1.987268746569597
  0
LWPOLYLINE
  5
7B
100
AcDbEntity
  8
USP-GEO
100
AcDbPolyline
 90
        2
 70
   128
 43
0.0
 10
2.00165881714577
 20
3.010402764535552
 10
2.00237832067458
 20
3.010402764535552
  0
LWPOLYLINE
  5
7C
100
AcDbEntity
  8
USP-GEO
100
AcDbPolyline
 90
       10
 70
   129
 43
0.0
 10
2.087999240602814
 20
2.880892129349989
 10
2.087999240602814
 20
2.952842482230858
 10
2.087999240602814
 20
3.010402764535552
 10
2.087999240602814
 20
3.0391829056879
 10
2.087999240602814
 20
3.010402764535552
 10
2.087999240602814
 20
2.952842482230858
 10
2.087999240602814
 20
2.880892129349989
 10
2.087999240602814
 20
2.793832202364137
 10
2.087999240602814
 20
2.736271920059442
 10
2.087999240602814
 20
2.793832202364137
  0
LWPOLYLINE
  5
7D
100
AcDbEntity
  8
USP-GEO
100
AcDbPolyline
 90
        2
 70
   129
 43
0.0
 10
2.087999240602814
 20
2.520420861416836
 10
2.087999240602814
 20
2.477250649688315
  0
LWPOLYLINE
  5
7E
100
AcDbEntity
  8
USP-GEO
100
AcDbPolyline
 90
        6
 70
   129
 43
0.0
 10
2.087999240602814
 20
2.34774001450275
 10
2.087999240602814
 20
2.362130085078923
 10
2.087999240602814
 20
2.390910226231271
 10
2.087999240602814
 20
2.434080437959792
 10
2.087999240602814
 20
2.390910226231271
 10
2.087999240602814
 20
2.362130085078923
  0
LWPOLYLINE
  5
7F
100
AcDbEntity
  8
USP-GEO
100
AcDbPolyline
 90
        2
 70
   129
 43
0.0
 10
2.087999240602814
 20
2.534810931993009
 10
2.087999240602814
 20
2.520420861416836
  0
LWPOLYLINE
  5
80
100
AcDbEntity
  8
USP-GEO
100
AcDbPolyline
 90
        2
 70
   129
 43
0.0
 10
2.087999240602814
 20
2.721881849483269
 10
2.087999240602814
 20
2.736271920059442
  0
LWPOLYLINE
  5
81
100
AcDbEntity
  8
USP-GEO
100
AcDbPolyline
 90
        4
 70
   129
 43
0.0
 10
2.087999240602814
 20
2.030438958298118
 10
2.087999240602814
 20
2.016048887721945
 10
2.087999240602814
 20
1.987268746569597
 10
2.087999240602814
 20
2.016048887721945
  0
LWPOLYLINE
  5
82
100
AcDbEntity
  8
USP-GEO
100
AcDbPolyline
 90
        2
 70
   129
 43
0.0
 10
2.087999240602814
 20
2.362130085078923
 10
2.087999240602814
 20
2.390910226231271
  0
LWPOLYLINE
  5
83
100
AcDbEntity
  8
USP-GEO
100
AcDbPolyline
 90
        3
 70
   128
 43
0.0
 10
2.087999240602814
 20
2.362130085078923
 10
2.087999240602814
 20
2.390910226231271
 10
2.087999240602814
 20
2.434080437959792
  0
LWPOLYLINE
  5
84
100
AcDbEntity
  8
USP-GEO
100
AcDbPolyline
 90
        2
 70
   129
 43
0.0
 10
2.087999240602814
 20
2.362130085078923
 10
2.087999240602814
 20
2.34774001450275
  0
LWPOLYLINE
  5
85
100
AcDbEntity
  8
USP-GEO
100
AcDbPolyline
 90
        2
 70
   129
 43
0.0
 10
2.087999240602814
 20
2.390910226231271
 10
2.087999240602814
 20
2.434080437959792
  0
LWPOLYLINE
  5
86
100
AcDbEntity
  8
USP-GEO
100
AcDbPolyline
 90
        2
 70
   129
 43
0.0
 10
2.087999240602814
 20
2.016048887721945
 10
2.087999240602814
 20
2.030438958298118
  0
LWPOLYLINE
  5
87
100
AcDbEntity
  8
USP-GEO
100
AcDbPolyline
 90
        2
 70
   129
 43
0.0
 10
2.087999240602814
 20
2.362130085078923
 10
2.087999240602814
 20
2.34774001450275
  0
LWPOLYLINE
  5
88
100
AcDbEntity
  8
USP-GEO
100
AcDbPolyline
 90
       13
 70
   128
 43
0.0
 10
2.087999240602814
 20
2.434080437959792
 10
2.087999240602814
 20
2.477250649688315
 10
2.087999240602814
 20
2.520420861416836
 10
2.087999240602814
 20
2.534810931993009
 10
2.087999240602814
 20
2.520420861416836
 10
2.087999240602814
 20
2.477250649688315
 10
2.087999240602814
 20
2.520420861416836
 10
2.087999240602814
 20
2.534810931993009
 10
2.087999240602814
 20
2.520420861416836
 10
2.087999240602814
 20
2.477250649688315
 10
2.087999240602814
 20
2.434080437959792
 10
2.087999240602814
 20
2.390910226231271
 10
2.087999240602814
 20
2.362130085078923
  0
LWPOLYLINE
  5
89
100
AcDbEntity
  8
USP-GEO
100
AcDbPolyline
 90
        3
 70
   128
 43
0.0
 10
2.087999240602814
 20
2.030438958298118
 10
2.087999240602814
 20
2.016048887721945
 10
2.087999240602814
 20
2.030438958298118
  0
LWPOLYLINE
  5
8A
100
AcDbEntity
  8
USP-GEO
100
AcDbPolyline
 90
        2
 70
   129
 43
0.0
 10
2.087999240602814
 20
1.944098534841076
 10
2.087999240602814
 20
1.987268746569597
  0
LWPOLYLINE
  5
8B
100
AcDbEntity
  8
USP-GEO
100
AcDbPolyline
 90
        2
 70
   129
 43
0.0
 10
2.087999240602814
 20
2.434080437959792
 10
2.087999240602814
 20
2.477250649688315
  0
LWPOLYLINE
  5
8C
100
AcDbEntity
  8
USP-GEO
100
AcDbPolyline
 90
        3
 70
   128
 43
0.0
 10
2.087999240602814
 20
2.477250649688315
 10
2.087999240602814
 20
2.434080437959792
 10
2.087999240602814
 20
2.477250649688315
  0
LWPOLYLINE
  5
8D
100
AcDbEntity
  8
USP-GEO
100
AcDbPolyline
 90
        2
 70
   128
 43
0.0
 10
2.087999240602814
 20
2.087999240602814
 10
2.087999240602814
 20
2.11749888528397
  0
LWPOLYLINE
  5
8E
100
AcDbEntity
  8
USP-GEO
100
AcDbPolyline
 90
        2
 70
   129
 43
0.0
 10
2.088718744131622
 20
2.11749888528397
 10
2.087999240602814
 20
2.11749888528397
  0
LWPOLYLINE
  5
8F
100
AcDbEntity
  8
USP-GEO
100
AcDbPolyline
 90
        2
 70
   128
 43
0.0
 10
2.087999240602814
 20
3.010402764535552
 10
2.088718744131622
 20
3.010402764535552
  0
LWPOLYLINE
  5
90
100
AcDbEntity
  8
USP-GEO
100
AcDbPolyline
 90
        2
 70
   129
 43
0.0
 10
3.139193896192308
 20
0.0863404234570418
 10
3.211144249073177
 20
0.0863404234570418
  0
LWPOLYLINE
  5
91
100
AcDbEntity
  8
USP-GEO
100
AcDbPolyline
 90
        2
 70
   129
 43
0.0
 10
3.211144249073177
 20
2.909672270502335
 10
3.139193896192308
 20
2.909672270502335
  0
LWPOLYLINE
  5
92
100
AcDbEntity
  8
USP-GEO
100
AcDbPolyline
 90
        3
 70
   129
 43
0.0
 10
5.514994548318597
 20
2.996012693959379
 10
4.550140316186146
 20
2.996012693959379
 10
5.601334971775639
 20
2.996012693959379
  0
LWPOLYLINE
  5
93
100
AcDbEntity
  8
USP-GEO
100
AcDbPolyline
 90
        4
 70
   129
 43
0.0
 10
5.601334971775639
 20
0.0
 10
4.550140316186146
 20
0.0
 10
5.514994548318597
 20
0.0
 10
4.550140316186146
 20
0.0
  0
LWPOLYLINE
  5
94
100
AcDbEntity
  8
USP-GEO
100
AcDbPolyline
 90
       53
 70
   128
 43
0.0
 10
5.602054475304448
 20
3.010402764535552
 10
5.601334971775639
 20
3.010402764535552
 10
5.601334971775639
 20
3.0391829056879
 10
5.514994548318597
 20
3.0391829056879
 10
5.514994548318597
 20
3.010402764535552
 10
5.515714051847407
 20
3.010402764535552
 10
5.514994548318597
 20
3.010402764535552
 10
5.514994548318597
 20
2.952842482230858
 10
5.514994548318597
 20
2.880892129349989
 10
5.514994548318597
 20
2.793832202364137
 10
5.514994548318597
 20
2.736271920059442
 10
5.514994548318597
 20
2.721881849483269
 10
5.514994548318597
 20
2.736271920059442
 10
5.514994548318597
 20
2.793832202364137
 10
5.514994548318597
 20
2.880892129349989
 10
5.514994548318597
 20
2.952842482230858
 10
5.514994548318597
 20
3.010402764535552
 10
5.514994548318597
 20
3.0391829056879
 10
5.514994548318597
 20
3.010402764535552
 10
5.514994548318597
 20
2.952842482230858
 10
5.514994548318597
 20
2.880892129349989
 10
5.514994548318597
 20
2.793832202364137
 10
5.514994548318597
 20
2.736271920059442
 10
5.514994548318597
 20
2.721881849483269
 10
5.601334971775639
 20
2.721881849483269
 10
5.601334971775639
 20
2.736271920059442
 10
5.601334971775639
 20
2.721881849483269
 10
5.601334971775639
 20
2.736271920059442
 10
5.601334971775639
 20
2.793832202364137
 10
5.601334971775639
 20
2.880892129349989
 10
5.601334971775639
 20
2.793832202364137
 10
5.601334971775639
 20
2.736271920059442
 10
5.601334971775639
 20
2.793832202364137
 10
5.601334971775639
 20
2.880892129349989
 10
5.601334971775639
 20
2.952842482230858
 10
5.601334971775639
 20
3.010402764535552
 10
5.601334971775639
 20
3.0391829056879
 10
5.601334971775639
 20
3.010402764535552
 10
5.601334971775639
 20
2.952842482230858
 10
5.601334971775639
 20
2.880892129349989
 10
5.601334971775639
 20
2.952842482230858
 10
5.601334971775639
 20
3.010402764535552
 10
5.601334971775639
 20
2.996012693959379
 10
4.550140316186146
 20
2.996012693959379
 10
5.514994548318597
 20
2.996012693959379
 10
5.514994548318597
 20
0.0
 10
5.514994548318597
 20
0.014390070576173
 10
5.514994548318597
 20
0.0287801411523479
 10
5.601334971775639
 20
0.0287801411523479
 10
5.601334971775639
 20
0.014390070576173
 10
5.601334971775639
 20
0.0
 10
5.514994548318597
 20
0.0
 10
5.515714051847407
 20
0.0
  0
LWPOLYLINE
  5
95
100
AcDbEntity
  8
USP-GEO
100
AcDbPolyline
 90
        2
 70
   129
 43
0.0
 10
4.391849539848234
 20
0.0863404234570418
 10
4.463799892729102
 20
0.0863404234570418
  0
LWPOLYLINE
  5
96
100
AcDbEntity
  8
USP-GEO
100
AcDbPolyline
 90
        2
 70
   129
 43
0.0
 10
4.463799892729102
 20
2.909672270502335
 10
4.391849539848234
 20
2.909672270502335
  0
LWPOLYLINE
  5
97
100
AcDbEntity
  8
USP-GEO
100
AcDbPolyline
 90
        2
 70
   128
 43
0.0
 10
5.601334971775639
 20
1.944098534841076
 10
5.601334971775639
 20
1.88653825253638
  0
LWPOLYLINE
  5
98
100
AcDbEntity
  8
USP-GEO
100
AcDbPolyline
 90
        8
 70
   128
 43
0.0
 10
5.601334971775639
 20
1.88653825253638
 10
5.601334971775639
 20
1.944098534841076
 10
5.601334971775639
 20
1.987268746569597
 10
5.601334971775639
 20
2.016048887721945
 10
5.601334971775639
 20
2.030438958298118
 10
5.601334971775639
 20
2.016048887721945
 10
5.601334971775639
 20
1.987268746569597
 10
5.601334971775639
 20
1.944098534841076
  0
LWPOLYLINE
  5
99
100
AcDbEntity
  8
USP-GEO
100
AcDbPolyline
 90
        7
 70
   128
 43
0.0
 10
5.601334971775639
 20
2.016048887721945
 10
5.601334971775639
 20
1.987268746569597
 10
5.601334971775639
 20
1.944098534841076
 10
5.601334971775639
 20
1.88653825253638
 10
5.601334971775639
 20
1.857758111384033
 10
5.601334971775639
 20
1.84336804080786
 10
5.601334971775639
 20
1.857758111384033
  0
LWPOLYLINE
  5
9A
100
AcDbEntity
  8
USP-GEO
100
AcDbPolyline
 90
        7
 70
   128
 43
0.0
 10
5.601334971775639
 20
1.857758111384033
 10
5.601334971775639
 20
1.88653825253638
 10
5.601334971775639
 20
1.944098534841076
 10
5.601334971775639
 20
1.987268746569597
 10
5.601334971775639
 20
2.016048887721945
 10
5.601334971775639
 20
2.030438958298118
 10
5.601334971775639
 20
2.016048887721945
  0
LWPOLYLINE
  5
9B
100
AcDbEntity
  8
USP-GEO
100
AcDbPolyline
 90
        4
 70
   129
 43
0.0
 10
5.601334971775639
 20
1.944098534841076
 10
5.601334971775639
 20
1.88653825253638
 10
5.601334971775639
 20
1.857758111384033
 10
5.601334971775639
 20
1.88653825253638
  0
LWPOLYLINE
  5
9C
100
AcDbEntity
  8
USP-GEO
100
AcDbPolyline
 90
       16
 70
   129
 43
0.0
 10
5.601334971775639
 20
2.996012693959379
 10
5.601334971775639
 20
0.0
 10
5.601334971775639
 20
0.014390070576173
 10
5.601334971775639
 20
0.0287801411523479
 10
5.601334971775639
 20
1.454836135251168
 10
5.601334971775639
 20
1.54117655870821
 10
5.601334971775639
 20
1.598736841012906
 10
5.601334971775639
 20
1.627516982165253
 10
5.601334971775639
 20
1.641907052741427
 10
5.601334971775639
 20
1.6562971233176
 10
5.601334971775639
 20
2.087999240602814
 10
5.601334971775639
 20
2.11749888528397
 10
5.601334971775639
 20
2.131888955860144
 10
5.601334971775639
 20
3.125523329144943
 10
5.601334971775639
 20
3.024792835111727
 10
5.601334971775639
 20
3.010402764535552
  0
LWPOLYLINE
  5
9D
100
AcDbEntity
  8
USP-GEO
100
AcDbPolyline
 90
        5
 70
   128
 43
0.0
 10
5.601334971775639
 20
0.0
 10
5.601334971775639
 20
2.996012693959379
 10
5.514994548318597
 20
2.996012693959379
 10
5.514994548318597
 20
3.010402764535552
 10
5.514994548318597
 20
3.024792835111727
  0
LWPOLYLINE
  5
9E
100
AcDbEntity
  8
USP-GEO
100
AcDbPolyline
 90
       19
 70
   128
 43
0.0
 10
5.514994548318597
 20
2.11749888528397
 10
5.514994548318597
 20
2.131888955860144
 10
5.514994548318597
 20
3.197473682025812
 10
5.514994548318597
 20
3.125523329144943
 10
5.514994548318597
 20
3.024792835111727
 10
5.514994548318597
 20
3.010402764535552
 10
5.514994548318597
 20
2.996012693959379
 10
5.514994548318597
 20
0.0
 10
5.514994548318597
 20
0.014390070576173
 10
5.514994548318597
 20
0.0287801411523479
 10
5.514994548318597
 20
1.454836135251168
 10
5.514994548318597
 20
1.54117655870821
 10
5.514994548318597
 20
1.598736841012906
 10
5.514994548318597
 20
1.627516982165253
 10
5.514994548318597
 20
1.641907052741427
 10
5.514994548318597
 20
1.6562971233176
 10
5.514994548318597
 20
2.087999240602814
 10
5.514994548318597
 20
2.11749888528397
 10
5.515714051847407
 20
2.11749888528397
  0
LWPOLYLINE
  5
9F
100
AcDbEntity
  8
USP-GEO
100
AcDbPolyline
 90
        7
 70
   128
 43
0.0
 10
5.514994548318597
 20
1.88653825253638
 10
5.514994548318597
 20
1.944098534841076
 10
5.514994548318597
 20
1.987268746569597
 10
5.514994548318597
 20
2.016048887721945
 10
5.514994548318597
 20
2.030438958298118
 10
5.514994548318597
 20
2.016048887721945
 10
5.514994548318597
 20
1.987268746569597
  0
LWPOLYLINE
  5
A0
100
AcDbEntity
  8
USP-GEO
100
AcDbPolyline
 90
        8
 70
   129
 43
0.0
 10
5.514994548318597
 20
1.84336804080786
 10
5.514994548318597
 20
1.857758111384033
 10
5.514994548318597
 20
1.88653825253638
 10
5.514994548318597
 20
1.944098534841076
 10
5.514994548318597
 20
1.987268746569597
 10
5.514994548318597
 20
1.944098534841076
 10
5.514994548318597
 20
1.88653825253638
 10
5.514994548318597
 20
1.857758111384033
  0
LWPOLYLINE
  5
A1
100
AcDbEntity
  8
USP-GEO
100
AcDbPolyline
 90
        7
 70
   128
 43
0.0
 10
5.514994548318597
 20
1.88653825253638
 10
5.514994548318597
 20
1.944098534841076
 10
5.514994548318597
 20
1.987268746569597
 10
5.514994548318597
 20
2.016048887721945
 10
5.514994548318597
 20
2.030438958298118
 10
5.514994548318597
 20
2.016048887721945
 10
5.514994548318597
 20
1.987268746569597
  0
LWPOLYLINE
  5
A2
100
AcDbEntity
  8
USP-GEO
100
AcDbPolyline
 90
       10
 70
   129
 43
0.0
 10
5.514994548318597
 20
1.944098534841076
 10
5.514994548318597
 20
1.987268746569597
 10
5.514994548318597
 20
2.016048887721945
 10
5.514994548318597
 20
1.987268746569597
 10
5.514994548318597
 20
1.944098534841076
 10
5.514994548318597
 20
1.88653825253638
 10
5.514994548318597
 20
1.857758111384033
 10
5.514994548318597
 20
1.84336804080786
 10
5.514994548318597
 20
1.857758111384033
 10
5.514994548318597
 20
1.88653825253638
  0
LWPOLYLINE
  5
A3
100
AcDbEntity
  8
USP-GEO
100
AcDbPolyline
 90
        2
 70
   128
 43
0.0
 10
5.601334971775639
 20
1.6562971233176
 10
5.601334971775639
 20
2.087999240602814
  0
LWPOLYLINE
  5
A4
100
AcDbEntity
  8
USP-GEO
100
AcDbPolyline
 90
        6
 70
   128
 43
0.0
 10
5.514994548318597
 20
2.087999240602814
 10
5.514994548318597
 20
1.6562971233176
 10
5.601334971775639
 20
1.6562971233176
 10
5.601334971775639
 20
1.641907052741427
 10
5.601334971775639
 20
1.627516982165253
 10
5.602054475304448
 20
1.627516982165253
  0
LWPOLYLINE
  5
A5
100
AcDbEntity
  8
USP-GEO
100
AcDbPolyline
 90
       14
 70
   129
 43
0.0
 10
5.601334971775639
 20
2.016048887721945
 10
5.601334971775639
 20
2.030438958298118
 10
5.514994548318597
 20
2.030438958298118
 10
5.514994548318597
 20
2.016048887721945
 10
5.514994548318597
 20
1.987268746569597
 10
5.514994548318597
 20
1.944098534841076
 10
5.514994548318597
 20
1.88653825253638
 10
5.514994548318597
 20
1.857758111384033
 10
5.514994548318597
 20
1.84336804080786
 10
5.601334971775639
 20
1.84336804080786
 10
5.601334971775639
 20
1.857758111384033
 10
5.601334971775639
 20
1.88653825253638
 10
5.601334971775639
 20
1.944098534841076
 10
5.601334971775639
 20
1.987268746569597
  0
LWPOLYLINE
  5
A6
100
AcDbEntity
  8
USP-GEO
100
AcDbPolyline
 90
        2
 70
   128
 43
0.0
 10
5.601334971775639
 20
0.0287801411523479
 10
5.601334971775639
 20
1.454836135251168
  0
LWPOLYLINE
  5
A7
100
AcDbEntity
  8
USP-GEO
100
AcDbPolyline
 90
        2
 70
   128
 43
0.0
 10
5.514994548318597
 20
1.454836135251168
 10
5.514994548318597
 20
0.0287801411523479
  0
LWPOLYLINE
  5
A8
100
AcDbEntity
  8
USP-GEO
100
AcDbPolyline
 90
        2
 70
   128
 43
0.0
 10
5.514994548318597
 20
0.0
 10
5.601334971775639
 20
0.0
  0
LWPOLYLINE
  5
A9
100
AcDbEntity
  8
USP-GEO
100
AcDbPolyline
 90
        2
 70
   128
 43
0.0
 10
5.601334971775639
 20
0.0
 10
5.602054475304448
 20
0.0
  0
LWPOLYLINE
  5
AA
100
AcDbEntity
  8
USP-GEO
100
AcDbPolyline
 90
        4
 70
   129
 43
0.0
 10
5.601334971775639
 20
1.88653825253638
 10
5.601334971775639
 20
1.857758111384033
 10
5.601334971775639
 20
1.84336804080786
 10
5.601334971775639
 20
1.857758111384033
  0
LWPOLYLINE
  5
AB
100
AcDbEntity
  8
USP-GEO
100
AcDbPolyline
 90
        2
 70
   129
 43
0.0
 10
5.601334971775639
 20
1.857758111384033
 10
5.601334971775639
 20
1.84336804080786
  0
LWPOLYLINE
  5
AC
100
AcDbEntity
  8
USP-GEO
100
AcDbPolyline
 90
        2
 70
   129
 43
0.0
 10
5.514994548318597
 20
1.88653825253638
 10
5.514994548318597
 20
1.857758111384033
  0
LWPOLYLINE
  5
AD
100
AcDbEntity
  8
USP-GEO
100
AcDbPolyline
 90
        2
 70
   129
 43
0.0
 10
5.514994548318597
 20
1.84336804080786
 10
5.514994548318597
 20
1.857758111384033
  0
LWPOLYLINE
  5
AE
100
AcDbEntity
  8
USP-GEO
100
AcDbPolyline
 90
        4
 70
   128
 43
0.0
 10
5.515714051847407
 20
1.627516982165253
 10
5.514994548318597
 20
1.627516982165253
 10
5.514994548318597
 20
1.641907052741427
 10
5.514994548318597
 20
1.6562971233176
  0
LWPOLYLINE
  5
AF
100
AcDbEntity
  8
USP-GEO
100
AcDbPolyline
 90
        2
 70
   129
 43
0.0
 10
5.601334971775639
 20
1.627516982165253
 10
5.514994548318597
 20
1.627516982165253
  0
LWPOLYLINE
  5
B0
100
AcDbEntity
  8
USP-GEO
100
AcDbPolyline
 90
        8
 70
   129
 43
0.0
 10
5.514994548318597
 20
1.627516982165253
 10
5.514994548318597
 20
1.598736841012906
 10
5.514994548318597
 20
1.54117655870821
 10
5.514994548318597
 20
1.454836135251168
 10
5.601334971775639
 20
1.454836135251168
 10
5.601334971775639
 20
1.54117655870821
 10
5.601334971775639
 20
1.598736841012906
 10
5.601334971775639
 20
1.627516982165253
  0
LWPOLYLINE
  5
B1
100
AcDbEntity
  8
USP-GEO
100
AcDbPolyline
 90
       11
 70
   128
 43
0.0
 10
6.134487086622879
 20
3.125523329144943
 10
6.177657298351398
 20
3.125523329144943
 10
6.134487086622879
 20
3.125523329144943
 10
6.177657298351398
 20
3.125523329144943
 10
6.134487086622879
 20
3.125523329144943
 10
6.177657298351398
 20
3.125523329144943
 10
6.134487086622879
 20
3.125523329144943
 10
6.177657298351398
 20
3.125523329144943
 10
6.134487086622879
 20
3.125523329144943
 10
6.177657298351398
 20
3.125523329144943
 10
6.134487086622879
 20
3.125523329144943
  0
LWPOLYLINE
  5
B2
100
AcDbEntity
  8
USP-GEO
100
AcDbPolyline
 90
       14
 70
   129
 43
0.0
 10
6.134487086622879
 20
3.125523329144943
 10
6.177657298351398
 20
3.125523329144943
 10
6.192047368927575
 20
3.125523329144943
 10
6.192047368927575
 20
3.197473682025812
 10
6.177657298351398
 20
3.197473682025812
 10
6.134487086622879
 20
3.197473682025812
 10
6.090597371365547
 20
3.197473682025812
 10
6.047427159637027
 20
3.197473682025812
 10
6.018647018484678
 20
3.197473682025812
 10
6.004256947908505
 20
3.197473682025812
 10
6.004256947908505
 20
3.125523329144943
 10
6.018647018484678
 20
3.125523329144943
 10
6.047427159637027
 20
3.125523329144943
 10
6.090597371365547
 20
3.125523329144943
  0
LWPOLYLINE
  5
B3
100
AcDbEntity
  8
USP-GEO
100
AcDbPolyline
 90
       14
 70
   129
 43
0.0
 10
6.134487086622879
 20
3.197473682025812
 10
6.177657298351398
 20
3.197473682025812
 10
6.134487086622879
 20
3.197473682025812
 10
6.177657298351398
 20
3.197473682025812
 10
6.134487086622879
 20
3.197473682025812
 10
6.177657298351398
 20
3.197473682025812
 10
6.134487086622879
 20
3.197473682025812
 10
6.177657298351398
 20
3.197473682025812
 10
6.134487086622879
 20
3.197473682025812
 10
6.177657298351398
 20
3.197473682025812
 10
6.192047368927575
 20
3.197473682025812
 10
6.177657298351398
 20
3.197473682025812
 10
6.192047368927575
 20
3.197473682025812
 10
6.177657298351398
 20
3.197473682025812
  0
LWPOLYLINE
  5
B4
100
AcDbEntity
  8
USP-GEO
100
AcDbPolyline
 90
        8
 70
   129
 43
0.0
 10
5.601334971775639
 20
2.434080437959792
 10
5.601334971775639
 20
2.477250649688315
 10
5.601334971775639
 20
2.520420861416836
 10
5.601334971775639
 20
2.534810931993009
 10
5.601334971775639
 20
2.520420861416836
 10
5.601334971775639
 20
2.534810931993009
 10
5.601334971775639
 20
2.520420861416836
 10
5.601334971775639
 20
2.477250649688315
  0
LWPOLYLINE
  5
B5
100
AcDbEntity
  8
USP-GEO
100
AcDbPolyline
 90
        3
 70
   128
 43
0.0
 10
5.601334971775639
 20
2.390910226231271
 10
5.601334971775639
 20
2.434080437959792
 10
5.601334971775639
 20
2.390910226231271
  0
LWPOLYLINE
  5
B6
100
AcDbEntity
  8
USP-GEO
100
AcDbPolyline
 90
        3
 70
   128
 43
0.0
 10
5.601334971775639
 20
2.362130085078923
 10
5.601334971775639
 20
2.34774001450275
 10
5.601334971775639
 20
2.362130085078923
  0
LWPOLYLINE
  5
B7
100
AcDbEntity
  8
USP-GEO
100
AcDbPolyline
 90
        3
 70
   128
 43
0.0
 10
5.601334971775639
 20
2.016048887721945
 10
5.601334971775639
 20
2.030438958298118
 10
5.601334971775639
 20
2.016048887721945
  0
LWPOLYLINE
  5
B8
100
AcDbEntity
  8
USP-GEO
100
AcDbPolyline
 90
        3
 70
   128
 43
0.0
 10
5.601334971775639
 20
2.434080437959792
 10
5.601334971775639
 20
2.390910226231271
 10
5.601334971775639
 20
2.362130085078923
  0
LWPOLYLINE
  5
B9
100
AcDbEntity
  8
USP-GEO
100
AcDbPolyline
 90
        2
 70
   129
 43
0.0
 10
5.601334971775639
 20
1.944098534841076
 10
5.601334971775639
 20
1.987268746569597
  0
LWPOLYLINE
  5
BA
100
AcDbEntity
  8
USP-GEO
100
AcDbPolyline
 90
        2
 70
   129
 43
0.0
 10
5.601334971775639
 20
2.434080437959792
 10
5.601334971775639
 20
2.477250649688315
  0
LWPOLYLINE
  5
BB
100
AcDbEntity
  8
USP-GEO
100
AcDbPolyline
 90
        3
 70
   128
 43
0.0
 10
5.601334971775639
 20
2.390910226231271
 10
5.601334971775639
 20
2.434080437959792
 10
5.601334971775639
 20
2.390910226231271
  0
LWPOLYLINE
  5
BC
100
AcDbEntity
  8
USP-GEO
100
AcDbPolyline
 90
        2
 70
   129
 43
0.0
 10
5.601334971775639
 20
2.362130085078923
 10
5.601334971775639
 20
2.34774001450275
  0
LWPOLYLINE
  5
BD
100
AcDbEntity
  8
USP-GEO
100
AcDbPolyline
 90
        2
 70
   129
 43
0.0
 10
5.601334971775639
 20
2.362130085078923
 10
5.601334971775639
 20
2.390910226231271
  0
LWPOLYLINE
  5
BE
100
AcDbEntity
  8
USP-GEO
100
AcDbPolyline
 90
        4
 70
   128
 43
0.0
 10
5.601334971775639
 20
2.477250649688315
 10
5.601334971775639
 20
2.520420861416836
 10
5.601334971775639
 20
2.477250649688315
 10
5.601334971775639
 20
2.434080437959792
  0
LWPOLYLINE
  5
BF
100
AcDbEntity
  8
USP-GEO
100
AcDbPolyline
 90
        4
 70
   128
 43
0.0
 10
5.601334971775639
 20
2.362130085078923
 10
5.601334971775639
 20
2.390910226231271
 10
5.601334971775639
 20
2.434080437959792
 10
5.601334971775639
 20
2.477250649688315
  0
LWPOLYLINE
  5
C0
100
AcDbEntity
  8
USP-GEO
100
AcDbPolyline
 90
        2
 70
   129
 43
0.0
 10
5.601334971775639
 20
1.987268746569597
 10
5.601334971775639
 20
2.016048887721945
  0
LWPOLYLINE
  5
C1
100
AcDbEntity
  8
USP-GEO
100
AcDbPolyline
 90
        2
 70
   129
 43
0.0
 10
5.601334971775639
 20
2.34774001450275
 10
5.601334971775639
 20
2.362130085078923
  0
LWPOLYLINE
  5
C2
100
AcDbEntity
  8
USP-GEO
100
AcDbPolyline
 90
        3
 70
   128
 43
0.0
 10
5.601334971775639
 20
2.362130085078923
 10
5.601334971775639
 20
2.390910226231271
 10
5.601334971775639
 20
2.362130085078923
  0
LWPOLYLINE
  5
C3
100
AcDbEntity
  8
USP-GEO
100
AcDbPolyline
 90
        4
 70
   129
 43
0.0
 10
5.601334971775639
 20
2.534810931993009
 10
5.601334971775639
 20
2.520420861416836
 10
5.601334971775639
 20
2.477250649688315
 10
5.601334971775639
 20
2.520420861416836
  0
LWPOLYLINE
  5
C4
100
AcDbEntity
  8
USP-GEO
100
AcDbPolyline
 90
       10
 70
   129
 43
0.0
 10
5.514994548318597
 20
2.534810931993009
 10
5.514994548318597
 20
2.520420861416836
 10
5.514994548318597
 20
2.477250649688315
 10
5.514994548318597
 20
2.434080437959792
 10
5.514994548318597
 20
2.390910226231271
 10
5.514994548318597
 20
2.362130085078923
 10
5.514994548318597
 20
2.390910226231271
 10
5.514994548318597
 20
2.434080437959792
 10
5.514994548318597
 20
2.477250649688315
 10
5.514994548318597
 20
2.520420861416836
  0
LWPOLYLINE
  5
C5
100
AcDbEntity
  8
USP-GEO
100
AcDbPolyline
 90
        2
 70
   129
 43
0.0
 10
5.514994548318597
 20
2.362130085078923
 10
5.514994548318597
 20
2.34774001450275
  0
LWPOLYLINE
  5
C6
100
AcDbEntity
  8
USP-GEO
100
AcDbPolyline
 90
        5
 70
   128
 43
0.0
 10
5.514994548318597
 20
2.434080437959792
 10
5.514994548318597
 20
2.477250649688315
 10
5.514994548318597
 20
2.434080437959792
 10
5.514994548318597
 20
2.390910226231271
 10
5.514994548318597
 20
2.362130085078923
  0
LWPOLYLINE
  5
C7
100
AcDbEntity
  8
USP-GEO
100
AcDbPolyline
 90
        2
 70
   129
 43
0.0
 10
5.514994548318597
 20
2.362130085078923
 10
5.514994548318597
 20
2.390910226231271
  0
LWPOLYLINE
  5
C8
100
AcDbEntity
  8
USP-GEO
100
AcDbPolyline
 90
        8
 70
   129
 43
0.0
 10
5.514994548318597
 20
2.477250649688315
 10
5.514994548318597
 20
2.520420861416836
 10
5.514994548318597
 20
2.534810931993009
 10
5.514994548318597
 20
2.520420861416836
 10
5.514994548318597
 20
2.534810931993009
 10
5.514994548318597
 20
2.520420861416836
 10
5.514994548318597
 20
2.477250649688315
 10
5.514994548318597
 20
2.434080437959792
  0
LWPOLYLINE
  5
C9
100
AcDbEntity
  8
USP-GEO
100
AcDbPolyline
 90
        2
 70
   129
 43
0.0
 10
5.514994548318597
 20
2.477250649688315
 10
5.514994548318597
 20
2.520420861416836
  0
LWPOLYLINE
  5
CA
100
AcDbEntity
  8
USP-GEO
100
AcDbPolyline
 90
        7
 70
   128
 43
0.0
 10
5.514994548318597
 20
2.362130085078923
 10
5.514994548318597
 20
2.34774001450275
 10
5.514994548318597
 20
2.362130085078923
 10
5.514994548318597
 20
2.34774001450275
 10
5.514994548318597
 20
2.362130085078923
 10
5.514994548318597
 20
2.390910226231271
 10
5.514994548318597
 20
2.434080437959792
  0
LWPOLYLINE
  5
CB
100
AcDbEntity
  8
USP-GEO
100
AcDbPolyline
 90
        2
 70
   129
 43
0.0
 10
5.514994548318597
 20
2.030438958298118
 10
5.514994548318597
 20
2.016048887721945
  0
LWPOLYLINE
  5
CC
100
AcDbEntity
  8
USP-GEO
100
AcDbPolyline
 90
        2
 70
   129
 43
0.0
 10
5.514994548318597
 20
2.390910226231271
 10
5.514994548318597
 20
2.434080437959792
  0
LWPOLYLINE
  5
CD
100
AcDbEntity
  8
USP-GEO
100
AcDbPolyline
 90
        2
 70
   128
 43
0.0
 10
5.601334971775639
 20
2.131888955860144
 10
5.514994548318597
 20
2.131888955860144
  0
LWPOLYLINE
  5
CE
100
AcDbEntity
  8
USP-GEO
100
AcDbPolyline
 90
        6
 70
   129
 43
0.0
 10
5.514994548318597
 20
2.131888955860144
 10
5.601334971775639
 20
2.131888955860144
 10
5.601334971775639
 20
2.11749888528397
 10
5.601334971775639
 20
2.087999240602814
 10
5.514994548318597
 20
2.087999240602814
 10
5.514994548318597
 20
2.11749888528397
  0
LWPOLYLINE
  5
CF
100
AcDbEntity
  8
USP-GEO
100
AcDbPolyline
 90
       14
 70
   129
 43
0.0
 10
5.601334971775639
 20
2.520420861416836
 10
5.601334971775639
 20
2.534810931993009
 10
5.514994548318597
 20
2.534810931993009
 10
5.514994548318597
 20
2.520420861416836
 10
5.514994548318597
 20
2.477250649688315
 10
5.514994548318597
 20
2.434080437959792
 10
5.514994548318597
 20
2.390910226231271
 10
5.514994548318597
 20
2.362130085078923
 10
5.514994548318597
 20
2.34774001450275
 10
5.601334971775639
 20
2.34774001450275
 10
5.601334971775639
 20
2.362130085078923
 10
5.601334971775639
 20
2.390910226231271
 10
5.601334971775639
 20
2.434080437959792
 10
5.601334971775639
 20
2.477250649688315
  0
LWPOLYLINE
  5
D0
100
AcDbEntity
  8
USP-GEO
100
AcDbPolyline
 90
        2
 70
   128
 43
0.0
 10
5.601334971775639
 20
3.010402764535552
 10
5.601334971775639
 20
3.024792835111727
  0
LWPOLYLINE
  5
D1
100
AcDbEntity
  8
USP-GEO
100
AcDbPolyline
 90
        4
 70
   129
 43
0.0
 10
5.601334971775639
 20
3.024792835111727
 10
5.601334971775639
 20
3.125523329144943
 10
5.514994548318597
 20
3.125523329144943
 10
5.514994548318597
 20
3.024792835111727
  0
LWPOLYLINE
  5
D2
100
AcDbEntity
  8
USP-GEO
100
AcDbPolyline
 90
       11
 70
   128
 43
0.0
 10
6.018647018484678
 20
3.125523329144943
 10
6.004256947908505
 20
3.125523329144943
 10
6.018647018484678
 20
3.125523329144943
 10
6.004256947908505
 20
3.125523329144943
 10
6.018647018484678
 20
3.125523329144943
 10
6.004256947908505
 20
3.125523329144943
 10
6.018647018484678
 20
3.125523329144943
 10
6.004256947908505
 20
3.125523329144943
 10
6.018647018484678
 20
3.125523329144943
 10
6.004256947908505
 20
3.125523329144943
 10
6.018647018484678
 20
3.125523329144943
  0
LWPOLYLINE
  5
D3
100
AcDbEntity
  8
USP-GEO
100
AcDbPolyline
 90
        3
 70
   128
 43
0.0
 10
6.047427159637027
 20
3.125523329144943
 10
6.018647018484678
 20
3.125523329144943
 10
6.047427159637027
 20
3.125523329144943
  0
LWPOLYLINE
  5
D4
100
AcDbEntity
  8
USP-GEO
100
AcDbPolyline
 90
        3
 70
   128
 43
0.0
 10
6.018647018484678
 20
3.125523329144943
 10
6.047427159637027
 20
3.125523329144943
 10
6.018647018484678
 20
3.125523329144943
  0
LWPOLYLINE
  5
D5
100
AcDbEntity
  8
USP-GEO
100
AcDbPolyline
 90
        2
 70
   129
 43
0.0
 10
6.047427159637027
 20
3.125523329144943
 10
6.018647018484678
 20
3.125523329144943
  0
LWPOLYLINE
  5
D6
100
AcDbEntity
  8
USP-GEO
100
AcDbPolyline
 90
        8
 70
   129
 43
0.0
 10
6.047427159637027
 20
3.125523329144943
 10
6.090597371365547
 20
3.125523329144943
 10
6.047427159637027
 20
3.125523329144943
 10
6.090597371365547
 20
3.125523329144943
 10
6.047427159637027
 20
3.125523329144943
 10
6.018647018484678
 20
3.125523329144943
 10
6.047427159637027
 20
3.125523329144943
 10
6.018647018484678
 20
3.125523329144943
  0
LWPOLYLINE
  5
D7
100
AcDbEntity
  8
USP-GEO
100
AcDbPolyline
 90
        3
 70
   128
 43
0.0
 10
6.090597371365547
 20
3.125523329144943
 10
6.047427159637027
 20
3.125523329144943
 10
6.090597371365547
 20
3.125523329144943
  0
LWPOLYLINE
  5
D8
100
AcDbEntity
  8
USP-GEO
100
AcDbPolyline
 90
        2
 70
   129
 43
0.0
 10
6.047427159637027
 20
3.125523329144943
 10
6.090597371365547
 20
3.125523329144943
  0
LWPOLYLINE
  5
D9
100
AcDbEntity
  8
USP-GEO
100
AcDbPolyline
 90
        2
 70
   129
 43
0.0
 10
6.047427159637027
 20
3.125523329144943
 10
6.090597371365547
 20
3.125523329144943
  0
LWPOLYLINE
  5
DA
100
AcDbEntity
  8
USP-GEO
100
AcDbPolyline
 90
        8
 70
   129
 43
0.0
 10
6.134487086622879
 20
3.125523329144943
 10
6.090597371365547
 20
3.125523329144943
 10
6.134487086622879
 20
3.125523329144943
 10
6.090597371365547
 20
3.125523329144943
 10
6.134487086622879
 20
3.125523329144943
 10
6.090597371365547
 20
3.125523329144943
 10
6.134487086622879
 20
3.125523329144943
 10
6.090597371365547
 20
3.125523329144943
  0
LWPOLYLINE
  5
DB
100
AcDbEntity
  8
USP-GEO
100
AcDbPolyline
 90
        2
 70
   129
 43
0.0
 10
6.090597371365547
 20
3.125523329144943
 10
6.134487086622879
 20
3.125523329144943
  0
LWPOLYLINE
  5
DC
100
AcDbEntity
  8
USP-GEO
100
AcDbPolyline
 90
       10
 70
   129
 43
0.0
 10
6.018647018484678
 20
3.197473682025812
 10
6.004256947908505
 20
3.197473682025812
 10
6.018647018484678
 20
3.197473682025812
 10
6.004256947908505
 20
3.197473682025812
 10
6.018647018484678
 20
3.197473682025812
 10
6.004256947908505
 20
3.197473682025812
 10
6.018647018484678
 20
3.197473682025812
 10
6.004256947908505
 20
3.197473682025812
 10
6.018647018484678
 20
3.197473682025812
 10
6.004256947908505
 20
3.197473682025812
  0
LWPOLYLINE
  5
DD
100
AcDbEntity
  8
USP-GEO
100
AcDbPolyline
 90
       10
 70
   129
 43
0.0
 10
6.018647018484678
 20
3.197473682025812
 10
6.047427159637027
 20
3.197473682025812
 10
6.018647018484678
 20
3.197473682025812
 10
6.047427159637027
 20
3.197473682025812
 10
6.018647018484678
 20
3.197473682025812
 10
6.047427159637027
 20
3.197473682025812
 10
6.018647018484678
 20
3.197473682025812
 10
6.047427159637027
 20
3.197473682025812
 10
6.018647018484678
 20
3.197473682025812
 10
6.047427159637027
 20
3.197473682025812
  0
LWPOLYLINE
  5
DE
100
AcDbEntity
  8
USP-GEO
100
AcDbPolyline
 90
       10
 70
   129
 43
0.0
 10
6.090597371365547
 20
3.197473682025812
 10
6.047427159637027
 20
3.197473682025812
 10
6.090597371365547
 20
3.197473682025812
 10
6.047427159637027
 20
3.197473682025812
 10
6.090597371365547
 20
3.197473682025812
 10
6.047427159637027
 20
3.197473682025812
 10
6.090597371365547
 20
3.197473682025812
 10
6.047427159637027
 20
3.197473682025812
 10
6.090597371365547
 20
3.197473682025812
 10
6.047427159637027
 20
3.197473682025812
  0
LWPOLYLINE
  5
DF
100
AcDbEntity
  8
USP-GEO
100
AcDbPolyline
 90
        2
 70
   129
 43
0.0
 10
6.134487086622879
 20
3.197473682025812
 10
6.090597371365547
 20
3.197473682025812
  0
LWPOLYLINE
  5
E0
100
AcDbEntity
  8
USP-GEO
100
AcDbPolyline
 90
        8
 70
   129
 43
0.0
 10
6.090597371365547
 20
3.197473682025812
 10
6.134487086622879
 20
3.197473682025812
 10
6.090597371365547
 20
3.197473682025812
 10
6.134487086622879
 20
3.197473682025812
 10
6.090597371365547
 20
3.197473682025812
 10
6.134487086622879
 20
3.197473682025812
 10
6.090597371365547
 20
3.197473682025812
 10
6.134487086622879
 20
3.197473682025812
  0
LWPOLYLINE
  5
E1
100
AcDbEntity
  8
USP-GEO
100
AcDbPolyline
 90
       11
 70
   128
 43
0.0
 10
6.192047368927575
 20
3.125523329144943
 10
6.177657298351398
 20
3.125523329144943
 10
6.192047368927575
 20
3.125523329144943
 10
6.177657298351398
 20
3.125523329144943
 10
6.192047368927575
 20
3.125523329144943
 10
6.177657298351398
 20
3.125523329144943
 10
6.192047368927575
 20
3.125523329144943
 10
6.177657298351398
 20
3.125523329144943
 10
6.192047368927575
 20
3.125523329144943
 10
6.177657298351398
 20
3.125523329144943
 10
6.192047368927575
 20
3.125523329144943
  0
LWPOLYLINE
  5
E2
100
AcDbEntity
  8
USP-GEO
100
AcDbPolyline
 90
        6
 70
   129
 43
0.0
 10
6.177657298351398
 20
3.197473682025812
 10
6.192047368927575
 20
3.197473682025812
 10
6.177657298351398
 20
3.197473682025812
 10
6.192047368927575
 20
3.197473682025812
 10
6.177657298351398
 20
3.197473682025812
 10
6.192047368927575
 20
3.197473682025812
  0
LWPOLYLINE
  5
E3
100
AcDbEntity
  8
USP-GEO
100
AcDbPolyline
 90
        7
 70
   128
 43
0.0
 10
6.710089909669829
 20
3.125523329144943
 10
6.724479980246002
 20
3.125523329144943
 10
6.710089909669829
 20
3.125523329144943
 10
6.724479980246002
 20
3.125523329144943
 10
6.710089909669829
 20
3.125523329144943
 10
6.724479980246002
 20
3.125523329144943
 10
6.710089909669829
 20
3.125523329144943
  0
LWPOLYLINE
  5
E4
100
AcDbEntity
  8
USP-GEO
100
AcDbPolyline
 90
        8
 70
   129
 43
0.0
 10
6.753260121398351
 20
3.125523329144943
 10
6.79643033312687
 20
3.125523329144943
 10
6.753260121398351
 20
3.125523329144943
 10
6.724479980246002
 20
3.125523329144943
 10
6.753260121398351
 20
3.125523329144943
 10
6.724479980246002
 20
3.125523329144943
 10
6.753260121398351
 20
3.125523329144943
 10
6.724479980246002
 20
3.125523329144943
  0
LWPOLYLINE
  5
E5
100
AcDbEntity
  8
USP-GEO
100
AcDbPolyline
 90
        7
 70
   128
 43
0.0
 10
6.710089909669829
 20
3.197473682025812
 10
6.724479980246002
 20
3.197473682025812
 10
6.710089909669829
 20
3.197473682025812
 10
6.724479980246002
 20
3.197473682025812
 10
6.710089909669829
 20
3.197473682025812
 10
6.724479980246002
 20
3.197473682025812
 10
6.710089909669829
 20
3.197473682025812
  0
LWPOLYLINE
  5
E6
100
AcDbEntity
  8
USP-GEO
100
AcDbPolyline
 90
        7
 70
   128
 43
0.0
 10
6.753260121398351
 20
3.197473682025812
 10
6.724479980246002
 20
3.197473682025812
 10
6.753260121398351
 20
3.197473682025812
 10
6.724479980246002
 20
3.197473682025812
 10
6.753260121398351
 20
3.197473682025812
 10
6.724479980246002
 20
3.197473682025812
 10
6.753260121398351
 20
3.197473682025812
  0
LWPOLYLINE
  5
E7
100
AcDbEntity
  8
USP-GEO
100
AcDbPolyline
 90
        2
 70
   128
 43
0.0
 10
7.127401956378868
 20
3.125523329144943
 10
7.55982357719289
 20
3.125523329144943
  0
LWPOLYLINE
  5
E8
100
AcDbEntity
  8
USP-GEO
100
AcDbPolyline
 90
        4
 70
   128
 43
0.0
 10
7.588603718345236
 20
3.125523329144943
 10
7.55982357719289
 20
3.125523329144943
 10
7.55982357719289
 20
3.197473682025812
 10
7.127401956378868
 20
3.197473682025812
  0
LWPOLYLINE
  5
E9
100
AcDbEntity
  8
USP-GEO
100
AcDbPolyline
 90
        7
 70
   128
 43
0.0
 10
6.839600544855393
 20
3.125523329144943
 10
6.868380686007739
 20
3.125523329144943
 10
6.839600544855393
 20
3.125523329144943
 10
6.868380686007739
 20
3.125523329144943
 10
6.839600544855393
 20
3.125523329144943
 10
6.868380686007739
 20
3.125523329144943
 10
6.839600544855393
 20
3.125523329144943
  0
LWPOLYLINE
  5
EA
100
AcDbEntity
  8
USP-GEO
100
AcDbPolyline
 90
        7
 70
   128
 43
0.0
 10
6.882770756583916
 20
3.125523329144943
 10
6.868380686007739
 20
3.125523329144943
 10
6.882770756583916
 20
3.125523329144943
 10
6.868380686007739
 20
3.125523329144943
 10
6.882770756583916
 20
3.125523329144943
 10
6.868380686007739
 20
3.125523329144943
 10
6.882770756583916
 20
3.125523329144943
  0
LWPOLYLINE
  5
EB
100
AcDbEntity
  8
USP-GEO
100
AcDbPolyline
 90
       10
 70
   129
 43
0.0
 10
6.839600544855393
 20
3.197473682025812
 10
6.868380686007739
 20
3.197473682025812
 10
6.839600544855393
 20
3.197473682025812
 10
6.868380686007739
 20
3.197473682025812
 10
6.882770756583916
 20
3.197473682025812
 10
6.868380686007739
 20
3.197473682025812
 10
6.882770756583916
 20
3.197473682025812
 10
6.868380686007739
 20
3.197473682025812
 10
6.882770756583916
 20
3.197473682025812
 10
6.868380686007739
 20
3.197473682025812
  0
LWPOLYLINE
  5
EC
100
AcDbEntity
  8
USP-GEO
100
AcDbPolyline
 90
        2
 70
   129
 43
0.0
 10
7.098621815226522
 20
3.125523329144943
 10
7.098621815226522
 20
3.197473682025812
  0
LWPOLYLINE
  5
ED
100
AcDbEntity
  8
USP-GEO
100
AcDbPolyline
 90
        8
 70
   128
 43
0.0
 10
7.099341318755328
 20
3.125523329144943
 10
7.098621815226522
 20
3.125523329144943
 10
7.113011885802695
 20
3.125523329144943
 10
7.127401956378868
 20
3.125523329144943
 10
7.127401956378868
 20
3.197473682025812
 10
7.113011885802695
 20
3.197473682025812
 10
7.098621815226522
 20
3.197473682025812
 10
7.099341318755328
 20
3.197473682025812
  0
LWPOLYLINE
  5
EE
100
AcDbEntity
  8
USP-GEO
100
AcDbPolyline
 90
        5
 70
   128
 43
0.0
 10
7.343972518550284
 20
3.125523329144943
 10
7.37275265970263
 20
3.125523329144943
 10
7.343972518550284
 20
3.125523329144943
 10
7.300082803292955
 20
3.125523329144943
 10
7.343972518550284
 20
3.125523329144943
  0
LWPOLYLINE
  5
EF
100
AcDbEntity
  8
USP-GEO
100
AcDbPolyline
 90
       14
 70
   129
 43
0.0
 10
7.343972518550284
 20
3.125523329144943
 10
7.37275265970263
 20
3.125523329144943
 10
7.387142730278807
 20
3.125523329144943
 10
7.387142730278807
 20
3.197473682025812
 10
7.37275265970263
 20
3.197473682025812
 10
7.343972518550284
 20
3.197473682025812
 10
7.300082803292955
 20
3.197473682025812
 10
7.256912591564432
 20
3.197473682025812
 10
7.21374237983591
 20
3.197473682025812
 10
7.199352309259737
 20
3.197473682025812
 10
7.199352309259737
 20
3.125523329144943
 10
7.21374237983591
 20
3.125523329144943
 10
7.256912591564432
 20
3.125523329144943
 10
7.300082803292955
 20
3.125523329144943
  0
LWPOLYLINE
  5
F0
100
AcDbEntity
  8
USP-GEO
100
AcDbPolyline
 90
        4
 70
   129
 43
0.0
 10
7.300082803292955
 20
3.197473682025812
 10
7.256912591564432
 20
3.197473682025812
 10
7.300082803292955
 20
3.197473682025812
 10
7.343972518550284
 20
3.197473682025812
  0
LWPOLYLINE
  5
F1
100
AcDbEntity
  8
USP-GEO
100
AcDbPolyline
 90
        3
 70
   128
 43
0.0
 10
7.21374237983591
 20
3.125523329144943
 10
7.199352309259737
 20
3.125523329144943
 10
7.21374237983591
 20
3.125523329144943
  0
LWPOLYLINE
  5
F2
100
AcDbEntity
  8
USP-GEO
100
AcDbPolyline
 90
        5
 70
   128
 43
0.0
 10
7.256912591564432
 20
3.125523329144943
 10
7.300082803292955
 20
3.125523329144943
 10
7.256912591564432
 20
3.125523329144943
 10
7.21374237983591
 20
3.125523329144943
 10
7.256912591564432
 20
3.125523329144943
  0
LWPOLYLINE
  5
F3
100
AcDbEntity
  8
USP-GEO
100
AcDbPolyline
 90
        5
 70
   128
 43
0.0
 10
7.21374237983591
 20
3.197473682025812
 10
7.256912591564432
 20
3.197473682025812
 10
7.21374237983591
 20
3.197473682025812
 10
7.199352309259737
 20
3.197473682025812
 10
7.21374237983591
 20
3.197473682025812
  0
LWPOLYLINE
  5
F4
100
AcDbEntity
  8
USP-GEO
100
AcDbPolyline
 90
        3
 70
   128
 43
0.0
 10
7.387142730278807
 20
3.125523329144943
 10
7.37275265970263
 20
3.125523329144943
 10
7.387142730278807
 20
3.125523329144943
  0
LWPOLYLINE
  5
F5
100
AcDbEntity
  8
USP-GEO
100
AcDbPolyline
 90
        5
 70
   128
 43
0.0
 10
7.37275265970263
 20
3.197473682025812
 10
7.387142730278807
 20
3.197473682025812
 10
7.37275265970263
 20
3.197473682025812
 10
7.343972518550284
 20
3.197473682025812
 10
7.37275265970263
 20
3.197473682025812
  0
LWPOLYLINE
  5
F6
100
AcDbEntity
  8
USP-GEO
100
AcDbPolyline
 90
        6
 70
   128
 43
0.0
 10
7.55982357719289
 20
3.197473682025812
 10
7.588603718345236
 20
3.197473682025812
 10
7.602993788921413
 20
3.197473682025812
 10
7.602993788921413
 20
3.125523329144943
 10
7.588603718345236
 20
3.125523329144943
 10
7.589323221874046
 20
3.125523329144943
  0
ENDBLK
  5
F9
100
AcDbEntity
  8
0
100
AcDbBlockEnd
  0
BLOCK
  5
1BE
100
AcDbEntity
  8
0
100
AcDbBlockBegin
  2
THD26-2_F
 70
     0
 10
0.0
 20
0.0
 30
0.0
  3
THD26-2_F
  1

  0
TEXT
  5
FC
100
AcDbEntity
  8
USP-TXT
100
AcDbText
 10
0.8327468944607051
 20
-1.077179846957871
 30
-1.050183983838884
 40
0.296875
  1
THD26-2 - FRONT VIEW
 72
     1
 11
3.801496894460704
 21
-1.077179846957871
 31
-1.050183983838884
100
AcDbText
  0
LWPOLYLINE
  5
FD
100
AcDbEntity
  8
USP-GEO
100
AcDbPolyline
 90
        6
 70
   128
 43
0.0
 10
7.602993788921413
 20
5.488372917752675
 10
5.601334971775639
 20
5.488372917752675
 10
5.601334971775639
 20
0.4180315502378474
 10
5.601334971775639
 20
0.3029109856284577
 10
5.514994548318597
 20
0.3029109856284577
 10
5.514994548318597
 20
2.00237832067458
  0
LWPOLYLINE
  5
FE
100
AcDbEntity
  8
USP-GEO
100
AcDbPolyline
 90
        3
 70
   129
 43
0.0
 10
5.601334971775639
 20
5.488372917752675
 10
5.514994548318597
 20
5.488372917752675
 10
7.602993788921413
 20
5.488372917752675
  0
LWPOLYLINE
  5
FF
100
AcDbEntity
  8
USP-GEO
100
AcDbPolyline
 90
       12
 70
   129
 43
0.0
 10
6.710089909669829
 20
4.85449030887222
 10
6.724479980246002
 20
4.897660520600743
 10
6.753260121398351
 20
4.940830732329263
 10
6.79643033312687
 20
4.940830732329263
 10
6.839600544855393
 20
4.940830732329263
 10
6.868380686007739
 20
4.897660520600743
 10
6.882770756583916
 20
4.85449030887222
 10
6.868380686007739
 20
4.811320097143699
 10
6.839600544855393
 20
4.782539955991351
 10
6.79643033312687
 20
4.768149885415178
 10
6.753260121398351
 20
4.782539955991351
 10
6.724479980246002
 20
4.811320097143699
  0
LWPOLYLINE
  5
100
100
AcDbEntity
  8
USP-GEO
100
AcDbPolyline
 90
       12
 70
   129
 43
0.0
 10
6.724479980246002
 20
3.053572976264073
 10
6.710089909669829
 20
3.111852762097576
 10
6.724479980246002
 20
3.155022973826099
 10
6.753260121398351
 20
3.183803114978445
 10
6.79643033312687
 20
3.19819318555462
 10
6.839600544855393
 20
3.183803114978445
 10
6.868380686007739
 20
3.155022973826099
 10
6.882770756583916
 20
3.111852762097576
 10
6.868380686007739
 20
3.053572976264073
 10
6.839600544855393
 20
3.024792835111725
 10
6.79643033312687
 20
3.010402764535552
 10
6.753260121398351
 20
3.024792835111725
  0
LWPOLYLINE
  5
101
100
AcDbEntity
  8
USP-GEO
100
AcDbPolyline
 90
       12
 70
   129
 43
0.0
 10
6.710089909669829
 20
3.975976500196813
 10
6.724479980246002
 20
4.033536782501506
 10
6.753260121398351
 20
4.062316923653854
 10
6.79643033312687
 20
4.076706994230029
 10
6.839600544855393
 20
4.062316923653854
 10
6.868380686007739
 20
4.033536782501506
 10
6.882770756583916
 20
3.975976500196813
 10
6.868380686007739
 20
3.93280628846829
 10
6.839600544855393
 20
3.904026147315944
 10
6.79643033312687
 20
3.889636076739769
 10
6.753260121398351
 20
3.904026147315944
 10
6.724479980246002
 20
3.93280628846829
  0
LWPOLYLINE
  5
102
100
AcDbEntity
  8
USP-GEO
100
AcDbPolyline
 90
      102
 70
   128
 43
0.0
 10
5.514994548318597
 20
0.230960632747589
 10
5.514994548318597
 20
0.0870599269858499
 10
4.550140316186146
 20
0.0870599269858499
 10
5.514994548318597
 20
0.0870599269858499
 10
4.550140316186146
 20
0.0870599269858499
 10
4.550140316186146
 20
0.0
 10
5.601334971775639
 20
0.0
 10
5.601334971775639
 20
0.230960632747589
 10
5.514994548318597
 20
0.230960632747589
 10
5.514994548318597
 20
0.0870599269858499
 10
5.514994548318597
 20
0.230960632747589
 10
5.514994548318597
 20
0.2597407738999351
 10
5.514994548318597
 20
0.2885209150522829
 10
5.514994548318597
 20
0.3029109856284577
 10
5.514994548318597
 20
2.00237832067458
 10
5.514994548318597
 20
2.146279026436317
 10
5.514994548318597
 20
2.319679376879211
 10
5.514994548318597
 20
2.492360223793296
 10
5.514994548318597
 20
4.551579323243762
 10
5.514994548318597
 20
4.58035946439611
 10
5.514994548318597
 20
4.609859109077266
 10
5.514994548318597
 20
4.638639250229614
 10
5.514994548318597
 20
5.127901649819522
 10
5.514994548318597
 20
5.15668179097187
 10
5.514994548318597
 20
5.185461932124217
 10
5.514994548318597
 20
5.257412285005086
 10
5.514994548318597
 20
5.314972567309782
 10
5.514994548318597
 20
5.329362637885955
 10
5.514994548318597
 20
5.314972567309782
 10
5.514994548318597
 20
5.257412285005086
 10
5.514994548318597
 20
5.185461932124217
 10
5.514994548318597
 20
5.099121508667176
 10
5.514994548318597
 20
5.04156122636248
 10
5.514994548318597
 20
5.027171155786305
 10
5.514994548318597
 20
5.04156122636248
 10
5.514994548318597
 20
5.027171155786305
 10
5.601334971775639
 20
5.027171155786305
 10
5.601334971775639
 20
5.04156122636248
 10
5.601334971775639
 20
5.027171155786305
 10
5.601334971775639
 20
5.04156122636248
 10
5.601334971775639
 20
5.099121508667176
 10
5.601334971775639
 20
5.185461932124217
 10
5.601334971775639
 20
5.099121508667176
 10
5.601334971775639
 20
5.04156122636248
 10
5.601334971775639
 20
5.099121508667176
 10
5.601334971775639
 20
5.185461932124217
 10
5.601334971775639
 20
5.257412285005086
 10
5.601334971775639
 20
5.314972567309782
 10
5.601334971775639
 20
5.329362637885955
 10
5.601334971775639
 20
5.314972567309782
 10
5.601334971775639
 20
5.257412285005086
 10
5.601334971775639
 20
5.185461932124217
 10
5.601334971775639
 20
5.257412285005086
 10
5.601334971775639
 20
5.314972567309782
 10
5.601334971775639
 20
5.329362637885955
 10
5.514994548318597
 20
5.329362637885955
 10
5.514994548318597
 20
5.314972567309782
 10
5.514994548318597
 20
5.257412285005086
 10
5.514994548318597
 20
5.185461932124217
 10
5.514994548318597
 20
5.099121508667176
 10
5.514994548318597
 20
5.04156122636248
 10
5.514994548318597
 20
5.099121508667176
 10
5.514994548318597
 20
5.185461932124217
 10
5.514994548318597
 20
5.214242073276565
 10
5.514994548318597
 20
5.488372917752675
 10
5.514994548318597
 20
0.4180315502378474
 10
5.514994548318597
 20
0.3029109856284577
 10
5.514994548318597
 20
0.2885209150522829
 10
5.514994548318597
 20
0.2597407738999351
 10
5.514994548318597
 20
0.230960632747589
 10
5.514994548318597
 20
0.2597407738999351
 10
5.514994548318597
 20
0.2885209150522829
 10
5.514994548318597
 20
0.3029109856284577
 10
5.514994548318597
 20
0.4180315502378474
 10
5.601334971775639
 20
0.4180315502378474
 10
6.925940968312435
 20
2.00237832067458
 10
5.601334971775639
 20
0.4180315502378474
 10
6.925940968312435
 20
2.00237832067458
 10
7.012281391769477
 20
2.146279026436317
 10
7.069841674074172
 20
2.319679376879211
 10
7.098621815226522
 20
2.492360223793296
 10
7.098621815226522
 20
4.551579323243762
 10
7.098621815226522
 20
2.492360223793296
 10
7.098621815226522
 20
4.551579323243762
 10
7.098621815226522
 20
4.58035946439611
 10
7.098621815226522
 20
4.551579323243762
 10
7.098621815226522
 20
4.58035946439611
 10
7.113011885802695
 20
4.609859109077266
 10
7.127401956378868
 20
4.638639250229614
 10
7.55982357719289
 20
5.127901649819522
 10
7.127401956378868
 20
4.638639250229614
 10
7.55982357719289
 20
5.127901649819522
 10
7.588603718345236
 20
5.15668179097187
 10
7.55982357719289
 20
5.127901649819522
 10
7.588603718345236
 20
5.15668179097187
 10
7.588603718345236
 20
5.185461932124217
 10
7.602993788921413
 20
5.214242073276565
 10
7.602993788921413
 20
5.488372917752675
 10
5.514994548318597
 20
5.488372917752675
 10
5.514994548318597
 20
0.4180315502378474
 10
5.601334971775639
 20
0.4180315502378474
 10
5.514994548318597
 20
0.4180315502378474
  0
LWPOLYLINE
  5
103
100
AcDbEntity
  8
USP-GEO
100
AcDbPolyline
 90
        4
 70
   128
 43
0.0
 10
2.00165881714577
 20
0.4180315502378474
 10
2.087999240602814
 20
0.4180315502378474
 10
2.087999240602814
 20
5.488372917752675
 10
0.0
 20
5.488372917752675
  0
LWPOLYLINE
  5
104
100
AcDbEntity
  8
USP-GEO
100
AcDbPolyline
 90
        2
 70
   129
 43
0.0
 10
2.00165881714577
 20
0.4180315502378474
 10
0.6770528206089761
 20
2.00237832067458
  0
LWPOLYLINE
  5
105
100
AcDbEntity
  8
USP-GEO
100
AcDbPolyline
 90
       29
 70
   128
 43
0.0
 10
2.00165881714577
 20
4.551579323243762
 10
2.00165881714577
 20
2.492360223793296
 10
2.087999240602814
 20
2.492360223793296
 10
2.087999240602814
 20
2.319679376879211
 10
2.087999240602814
 20
2.146279026436317
 10
2.087999240602814
 20
2.00237832067458
 10
2.087999240602814
 20
0.3029109856284577
 10
2.087999240602814
 20
0.4180315502378474
 10
2.00165881714577
 20
0.4180315502378474
 10
0.6770528206089761
 20
2.00237832067458
 10
0.5907123971519326
 20
2.146279026436317
 10
0.5331521148472387
 20
2.319679376879211
 10
0.5043719736948909
 20
2.492360223793296
 10
0.5043719736948909
 20
4.551579323243762
 10
0.5043719736948909
 20
4.58035946439611
 10
0.4899819031187161
 20
4.609859109077266
 10
0.475591832542543
 20
4.638639250229614
 10
0.0431702117285209
 20
5.127901649819522
 10
0.014390070576173
 20
5.15668179097187
 10
0.014390070576173
 20
5.185461932124217
 10
0.0
 20
5.214242073276565
 10
0.0
 20
5.488372917752675
 10
2.00165881714577
 20
5.488372917752675
 10
2.00165881714577
 20
0.4180315502378474
 10
2.00165881714577
 20
0.3029109856284577
 10
2.00165881714577
 20
2.00237832067458
 10
2.00165881714577
 20
2.146279026436317
 10
2.00165881714577
 20
2.319679376879211
 10
2.00165881714577
 20
2.492360223793296
  0
LWPOLYLINE
  5
106
100
AcDbEntity
  8
USP-GEO
100
AcDbPolyline
 90
        3
 70
   129
 43
0.0
 10
2.087999240602814
 20
5.488372917752675
 10
2.00165881714577
 20
5.488372917752675
 10
0.0
 20
5.488372917752675
  0
LWPOLYLINE
  5
107
100
AcDbEntity
  8
USP-GEO
100
AcDbPolyline
 90
        3
 70
   128
 43
0.0
 10
0.014390070576173
 20
5.185461932124217
 10
0.0
 20
5.214242073276565
 10
0.014390070576173
 20
5.185461932124217
  0
LWPOLYLINE
  5
108
100
AcDbEntity
  8
USP-GEO
100
AcDbPolyline
 90
        2
 70
   129
 43
0.0
 10
0.0
 20
5.214242073276565
 10
0.0
 20
5.488372917752675
  0
LWPOLYLINE
  5
109
100
AcDbEntity
  8
USP-GEO
100
AcDbPolyline
 90
        2
 70
   129
 43
0.0
 10
0.5043719736948909
 20
2.492360223793296
 10
0.5043719736948909
 20
4.551579323243762
  0
LWPOLYLINE
  5
10A
100
AcDbEntity
  8
USP-GEO
100
AcDbPolyline
 90
        3
 70
   128
 43
0.0
 10
0.8497336675230613
 20
3.183803114978445
 10
0.8785138086754091
 20
3.155022973826099
 10
0.8497336675230613
 20
3.183803114978445
  0
LWPOLYLINE
  5
10B
100
AcDbEntity
  8
USP-GEO
100
AcDbPolyline
 90
       12
 70
   129
 43
0.0
 10
0.7633932440660179
 20
3.024792835111725
 10
0.73461310291367
 20
3.053572976264073
 10
0.720223032337497
 20
3.111852762097576
 10
0.73461310291367
 20
3.155022973826099
 10
0.7633932440660179
 20
3.183803114978445
 10
0.8065634557945386
 20
3.19819318555462
 10
0.8497336675230613
 20
3.183803114978445
 10
0.8785138086754091
 20
3.155022973826099
 10
0.8929038792515822
 20
3.111852762097576
 10
0.8785138086754091
 20
3.053572976264073
 10
0.8497336675230613
 20
3.024792835111725
 10
0.8065634557945386
 20
3.010402764535552
  0
LWPOLYLINE
  5
10C
100
AcDbEntity
  8
USP-GEO
100
AcDbPolyline
 90
        3
 70
   128
 43
0.0
 10
0.8497336675230613
 20
4.062316923653854
 10
0.8785138086754091
 20
4.033536782501506
 10
0.8497336675230613
 20
4.062316923653854
  0
LWPOLYLINE
  5
10D
100
AcDbEntity
  8
USP-GEO
100
AcDbPolyline
 90
       12
 70
   129
 43
0.0
 10
0.8497336675230613
 20
4.062316923653854
 10
0.8785138086754091
 20
4.033536782501506
 10
0.8929038792515822
 20
3.975976500196813
 10
0.8785138086754091
 20
3.93280628846829
 10
0.8497336675230613
 20
3.904026147315944
 10
0.8065634557945386
 20
3.889636076739769
 10
0.7633932440660179
 20
3.904026147315944
 10
0.73461310291367
 20
3.93280628846829
 10
0.720223032337497
 20
3.975976500196813
 10
0.73461310291367
 20
4.033536782501506
 10
0.7633932440660179
 20
4.062316923653854
 10
0.8065634557945386
 20
4.076706994230029
  0
LWPOLYLINE
  5
10E
100
AcDbEntity
  8
USP-GEO
100
AcDbPolyline
 90
        2
 70
   129
 43
0.0
 10
0.475591832542543
 20
4.638639250229614
 10
0.0431702117285209
 20
5.127901649819522
  0
LWPOLYLINE
  5
10F
100
AcDbEntity
  8
USP-GEO
100
AcDbPolyline
 90
        3
 70
   128
 43
0.0
 10
0.3460811973569786
 20
5.314972567309782
 10
0.3892514090854995
 20
5.286192426157434
 10
0.3460811973569786
 20
5.314972567309782
  0
LWPOLYLINE
  5
110
100
AcDbEntity
  8
USP-GEO
100
AcDbPolyline
 90
       12
 70
   129
 43
0.0
 10
0.2165705621714142
 20
5.243022214428913
 10
0.230960632747589
 20
5.286192426157434
 10
0.2597407738999369
 20
5.314972567309782
 10
0.3029109856284577
 20
5.329362637885955
 10
0.3460811973569786
 20
5.314972567309782
 10
0.3892514090854995
 20
5.286192426157434
 10
0.4036414796616743
 20
5.243022214428913
 10
0.3892514090854995
 20
5.19985200270039
 10
0.3460811973569786
 20
5.171071861548044
 10
0.3029109856284577
 20
5.15668179097187
 10
0.2597407738999369
 20
5.171071861548044
 10
0.230960632747589
 20
5.19985200270039
  0
LWPOLYLINE
  5
111
100
AcDbEntity
  8
USP-GEO
100
AcDbPolyline
 90
        3
 70
   128
 43
0.0
 10
0.4899819031187161
 20
4.609859109077266
 10
0.475591832542543
 20
4.638639250229614
 10
0.4899819031187161
 20
4.609859109077266
  0
LWPOLYLINE
  5
112
100
AcDbEntity
  8
USP-GEO
100
AcDbPolyline
 90
        3
 70
   128
 43
0.0
 10
0.5043719736948909
 20
4.551579323243762
 10
0.5043719736948909
 20
4.58035946439611
 10
0.5043719736948909
 20
4.551579323243762
  0
LWPOLYLINE
  5
113
100
AcDbEntity
  8
USP-GEO
100
AcDbPolyline
 90
        3
 70
   128
 43
0.0
 10
0.8497336675230613
 20
4.940830732329263
 10
0.8785138086754091
 20
4.897660520600743
 10
0.8497336675230613
 20
4.940830732329263
  0
LWPOLYLINE
  5
114
100
AcDbEntity
  8
USP-GEO
100
AcDbPolyline
 90
       12
 70
   129
 43
0.0
 10
0.7633932440660179
 20
4.940830732329263
 10
0.8065634557945386
 20
4.940830732329263
 10
0.8497336675230613
 20
4.940830732329263
 10
0.8785138086754091
 20
4.897660520600743
 10
0.8929038792515822
 20
4.85449030887222
 10
0.8785138086754091
 20
4.811320097143699
 10
0.8497336675230613
 20
4.782539955991351
 10
0.8065634557945386
 20
4.768149885415178
 10
0.7633932440660179
 20
4.782539955991351
 10
0.73461310291367
 20
4.811320097143699
 10
0.720223032337497
 20
4.85449030887222
 10
0.73461310291367
 20
4.897660520600743
  0
LWPOLYLINE
  5
115
100
AcDbEntity
  8
USP-GEO
100
AcDbPolyline
 90
        9
 70
   128
 43
0.0
 10
3.297484672530218
 20
0.0870599269858499
 10
3.297484672530218
 20
0.0
 10
4.305509116391192
 20
0.0
 10
4.319899186967365
 20
0.0
 10
4.348679328119713
 20
0.0
 10
4.391849539848234
 20
0.0
 10
4.463799892729102
 20
0.0
 10
4.506970104457625
 20
0.0
 10
4.535750245609971
 20
0.0
  0
LWPOLYLINE
  5
116
100
AcDbEntity
  8
USP-GEO
100
AcDbPolyline
 90
        5
 70
   128
 43
0.0
 10
4.305509116391192
 20
0.0870599269858499
 10
3.297484672530218
 20
0.0870599269858499
 10
3.283094601954045
 20
0.0870599269858499
 10
3.254314460801698
 20
0.0870599269858499
 10
3.211144249073177
 20
0.0870599269858499
  0
LWPOLYLINE
  5
117
100
AcDbEntity
  8
USP-GEO
100
AcDbPolyline
 90
        3
 70
   128
 43
0.0
 10
4.305509116391192
 20
0.0870599269858499
 10
3.297484672530218
 20
0.0870599269858499
 10
4.305509116391192
 20
0.0870599269858499
  0
LWPOLYLINE
  5
118
100
AcDbEntity
  8
USP-GEO
100
AcDbPolyline
 90
        3
 70
   128
 43
0.0
 10
4.305509116391192
 20
0.0
 10
3.297484672530218
 20
0.0
 10
4.305509116391192
 20
0.0
  0
LWPOLYLINE
  5
119
100
AcDbEntity
  8
USP-GEO
100
AcDbPolyline
 90
       15
 70
   128
 43
0.0
 10
2.00165881714577
 20
5.19985200270039
 10
2.00165881714577
 20
5.15668179097187
 10
2.00165881714577
 20
5.127901649819522
 10
2.00165881714577
 20
4.638639250229614
 10
2.00165881714577
 20
4.609859109077266
 10
2.00165881714577
 20
4.58035946439611
 10
2.00165881714577
 20
4.551579323243762
 10
2.00165881714577
 20
2.492360223793296
 10
2.00165881714577
 20
2.319679376879211
 10
2.00165881714577
 20
2.146279026436317
 10
2.00165881714577
 20
2.00237832067458
 10
2.00165881714577
 20
0.3029109856284577
 10
2.00165881714577
 20
0.2885209150522829
 10
2.00165881714577
 20
0.2597407738999351
 10
2.00165881714577
 20
0.230960632747589
  0
LWPOLYLINE
  5
11A
100
AcDbEntity
  8
USP-GEO
100
AcDbPolyline
 90
       15
 70
   128
 43
0.0
 10
2.087999240602814
 20
5.113511579243349
 10
2.087999240602814
 20
5.15668179097187
 10
2.087999240602814
 20
5.127901649819522
 10
2.087999240602814
 20
4.638639250229614
 10
2.087999240602814
 20
4.609859109077266
 10
2.087999240602814
 20
4.58035946439611
 10
2.087999240602814
 20
4.551579323243762
 10
2.087999240602814
 20
2.492360223793296
 10
2.087999240602814
 20
2.319679376879211
 10
2.087999240602814
 20
2.146279026436317
 10
2.087999240602814
 20
2.00237832067458
 10
2.087999240602814
 20
0.3029109856284577
 10
2.087999240602814
 20
0.2885209150522829
 10
2.087999240602814
 20
0.2597407738999351
 10
2.087999240602814
 20
0.230960632747589
  0
LWPOLYLINE
  5
11B
100
AcDbEntity
  8
USP-GEO
100
AcDbPolyline
 90
       54
 70
   128
 43
0.0
 10
2.087999240602814
 20
5.113511579243349
 10
2.087999240602814
 20
5.15668179097187
 10
2.087999240602814
 20
5.185461932124217
 10
2.087999240602814
 20
5.099121508667176
 10
2.087999240602814
 20
5.04156122636248
 10
2.087999240602814
 20
5.027171155786305
 10
2.087999240602814
 20
5.04156122636248
 10
2.087999240602814
 20
5.099121508667176
 10
2.087999240602814
 20
5.185461932124217
 10
2.087999240602814
 20
5.257412285005086
 10
2.087999240602814
 20
5.314972567309782
 10
2.087999240602814
 20
5.329362637885955
 10
2.087999240602814
 20
5.314972567309782
 10
2.087999240602814
 20
5.257412285005086
 10
2.087999240602814
 20
5.185461932124217
 10
2.087999240602814
 20
5.214242073276565
 10
2.087999240602814
 20
5.488372917752675
 10
2.087999240602814
 20
0.4180315502378474
 10
2.087999240602814
 20
0.3029109856284577
 10
2.087999240602814
 20
0.2885209150522829
 10
2.087999240602814
 20
0.2597407738999351
 10
2.087999240602814
 20
0.230960632747589
 10
2.087999240602814
 20
0.0870599269858499
 10
2.087999240602814
 20
0.230960632747589
 10
2.087999240602814
 20
0.2597407738999351
 10
2.087999240602814
 20
0.2885209150522829
 10
2.087999240602814
 20
0.3029109856284577
 10
2.00165881714577
 20
0.3029109856284577
 10
2.00165881714577
 20
0.2885209150522829
 10
2.00165881714577
 20
0.2597407738999351
 10
2.00165881714577
 20
0.230960632747589
 10
2.087999240602814
 20
0.230960632747589
 10
2.087999240602814
 20
0.0870599269858499
 10
3.052853472735264
 20
0.0870599269858499
 10
3.067243543311439
 20
0.0870599269858499
 10
3.096023684463785
 20
0.0870599269858499
 10
3.139193896192308
 20
0.0870599269858499
 10
3.139193896192308
 20
0.0
 10
3.096023684463785
 20
0.0
 10
3.067243543311439
 20
0.0
 10
3.052853472735264
 20
0.0
 10
2.00165881714577
 20
0.0
 10
2.00165881714577
 20
0.230960632747589
 10
2.00165881714577
 20
0.2597407738999351
 10
2.00165881714577
 20
0.2885209150522829
 10
2.00165881714577
 20
0.3029109856284577
 10
2.00165881714577
 20
0.4180315502378474
 10
2.00165881714577
 20
5.488372917752675
 10
2.00165881714577
 20
5.214242073276565
 10
2.00165881714577
 20
5.185461932124217
 10
2.00165881714577
 20
5.15668179097187
 10
2.00165881714577
 20
5.113511579243349
 10
2.00165881714577
 20
5.070341367514828
 10
2.00165881714577
 20
5.04156122636248
  0
LWPOLYLINE
  5
11C
100
AcDbEntity
  8
USP-GEO
100
AcDbPolyline
 90
        2
 70
   129
 43
0.0
 10
2.087999240602814
 20
0.0870599269858499
 10
3.052853472735264
 20
0.0870599269858499
  0
LWPOLYLINE
  5
11D
100
AcDbEntity
  8
USP-GEO
100
AcDbPolyline
 90
        2
 70
   129
 43
0.0
 10
2.00165881714577
 20
0.0
 10
3.052853472735264
 20
0.0
  0
LWPOLYLINE
  5
11E
100
AcDbEntity
  8
USP-GEO
100
AcDbPolyline
 90
        2
 70
   128
 43
0.0
 10
2.00165881714577
 20
0.4180315502378474
 10
2.087999240602814
 20
0.4180315502378474
  0
LWPOLYLINE
  5
11F
100
AcDbEntity
  8
USP-GEO
100
AcDbPolyline
 90
        2
 70
   129
 43
0.0
 10
2.00165881714577
 20
0.230960632747589
 10
2.00165881714577
 20
0.0
  0
LWPOLYLINE
  5
120
100
AcDbEntity
  8
USP-GEO
100
AcDbPolyline
 90
        5
 70
   128
 43
0.0
 10
3.096023684463785
 20
0.0870599269858499
 10
3.139193896192308
 20
0.0870599269858499
 10
3.096023684463785
 20
0.0870599269858499
 10
3.067243543311439
 20
0.0870599269858499
 10
3.096023684463785
 20
0.0870599269858499
  0
LWPOLYLINE
  5
121
100
AcDbEntity
  8
USP-GEO
100
AcDbPolyline
 90
        3
 70
   128
 43
0.0
 10
3.067243543311439
 20
0.0
 10
3.096023684463785
 20
0.0
 10
3.067243543311439
 20
0.0
  0
LWPOLYLINE
  5
122
100
AcDbEntity
  8
USP-GEO
100
AcDbPolyline
 90
        2
 70
   128
 43
0.0
 10
3.052853472735264
 20
0.0
 10
3.052853472735264
 20
0.0870599269858499
  0
LWPOLYLINE
  5
123
100
AcDbEntity
  8
USP-GEO
100
AcDbPolyline
 90
        2
 70
   129
 43
0.0
 10
3.067243543311439
 20
0.0870599269858499
 10
3.052853472735264
 20
0.0870599269858499
  0
LWPOLYLINE
  5
124
100
AcDbEntity
  8
USP-GEO
100
AcDbPolyline
 90
        2
 70
   129
 43
0.0
 10
3.052853472735264
 20
0.0
 10
3.067243543311439
 20
0.0
  0
LWPOLYLINE
  5
125
100
AcDbEntity
  8
USP-GEO
100
AcDbPolyline
 90
        4
 70
   128
 43
0.0
 10
3.211144249073177
 20
0.0
 10
3.254314460801698
 20
0.0
 10
3.283094601954045
 20
0.0
 10
3.297484672530218
 20
0.0
  0
LWPOLYLINE
  5
126
100
AcDbEntity
  8
USP-GEO
100
AcDbPolyline
 90
        3
 70
   128
 43
0.0
 10
3.254314460801698
 20
0.0870599269858499
 10
3.211144249073177
 20
0.0870599269858499
 10
3.254314460801698
 20
0.0870599269858499
  0
LWPOLYLINE
  5
127
100
AcDbEntity
  8
USP-GEO
100
AcDbPolyline
 90
        3
 70
   128
 43
0.0
 10
3.254314460801698
 20
0.0
 10
3.211144249073177
 20
0.0
 10
3.254314460801698
 20
0.0
  0
LWPOLYLINE
  5
128
100
AcDbEntity
  8
USP-GEO
100
AcDbPolyline
 90
        4
 70
   128
 43
0.0
 10
3.139193896192308
 20
0.0
 10
3.211144249073177
 20
0.0
 10
3.211144249073177
 20
0.0870599269858499
 10
3.139193896192308
 20
0.0870599269858499
  0
LWPOLYLINE
  5
129
100
AcDbEntity
  8
USP-GEO
100
AcDbPolyline
 90
        3
 70
   128
 43
0.0
 10
3.211144249073177
 20
0.0870599269858499
 10
3.139193896192308
 20
0.0870599269858499
 10
3.211144249073177
 20
0.0870599269858499
  0
LWPOLYLINE
  5
12A
100
AcDbEntity
  8
USP-GEO
100
AcDbPolyline
 90
        5
 70
   128
 43
0.0
 10
3.139193896192308
 20
0.0
 10
3.211144249073177
 20
0.0
 10
3.139193896192308
 20
0.0
 10
3.096023684463785
 20
0.0
 10
3.139193896192308
 20
0.0
  0
LWPOLYLINE
  5
12B
100
AcDbEntity
  8
USP-GEO
100
AcDbPolyline
 90
        3
 70
   128
 43
0.0
 10
3.283094601954045
 20
0.0870599269858499
 10
3.254314460801698
 20
0.0870599269858499
 10
3.283094601954045
 20
0.0870599269858499
  0
LWPOLYLINE
  5
12C
100
AcDbEntity
  8
USP-GEO
100
AcDbPolyline
 90
        3
 70
   128
 43
0.0
 10
3.297484672530218
 20
0.0870599269858499
 10
3.283094601954045
 20
0.0870599269858499
 10
3.297484672530218
 20
0.0870599269858499
  0
LWPOLYLINE
  5
12D
100
AcDbEntity
  8
USP-GEO
100
AcDbPolyline
 90
        3
 70
   128
 43
0.0
 10
3.283094601954045
 20
0.0
 10
3.254314460801698
 20
0.0
 10
3.283094601954045
 20
0.0
  0
LWPOLYLINE
  5
12E
100
AcDbEntity
  8
USP-GEO
100
AcDbPolyline
 90
        3
 70
   128
 43
0.0
 10
3.297484672530218
 20
0.0
 10
3.283094601954045
 20
0.0
 10
3.297484672530218
 20
0.0
  0
LWPOLYLINE
  5
12F
100
AcDbEntity
  8
USP-GEO
100
AcDbPolyline
 90
        2
 70
   128
 43
0.0
 10
2.087999240602814
 20
2.492360223793296
 10
2.087999240602814
 20
4.551579323243762
  0
LWPOLYLINE
  5
130
100
AcDbEntity
  8
USP-GEO
100
AcDbPolyline
 90
        2
 70
   128
 43
0.0
 10
2.087999240602814
 20
2.00237832067458
 10
2.00165881714577
 20
2.00237832067458
  0
LWPOLYLINE
  5
131
100
AcDbEntity
  8
USP-GEO
100
AcDbPolyline
 90
       14
 70
   129
 43
0.0
 10
2.087999240602814
 20
1.023134017965954
 10
2.087999240602814
 20
1.037524088542127
 10
2.087999240602814
 20
1.066304229694475
 10
2.087999240602814
 20
1.109474441422996
 10
2.087999240602814
 20
1.152644653151519
 10
2.087999240602814
 20
1.195814864880039
 10
2.087999240602814
 20
1.210204935456212
 10
2.00165881714577
 20
1.210204935456212
 10
2.00165881714577
 20
1.195814864880039
 10
2.00165881714577
 20
1.152644653151519
 10
2.00165881714577
 20
1.109474441422996
 10
2.00165881714577
 20
1.066304229694475
 10
2.00165881714577
 20
1.037524088542127
 10
2.00165881714577
 20
1.023134017965954
  0
LWPOLYLINE
  5
132
100
AcDbEntity
  8
USP-GEO
100
AcDbPolyline
 90
       14
 70
   129
 43
0.0
 10
2.087999240602814
 20
1.657016626846409
 10
2.087999240602814
 20
1.685796767998755
 10
2.087999240602814
 20
1.70018683857493
 10
2.00165881714577
 20
1.70018683857493
 10
2.00165881714577
 20
1.685796767998755
 10
2.00165881714577
 20
1.657016626846409
 10
2.00165881714577
 20
1.613846415117887
 10
2.00165881714577
 20
1.570676203389366
 10
2.00165881714577
 20
1.54117655870821
 10
2.00165881714577
 20
1.526786488132035
 10
2.087999240602814
 20
1.526786488132035
 10
2.087999240602814
 20
1.54117655870821
 10
2.087999240602814
 20
1.570676203389366
 10
2.087999240602814
 20
1.613846415117887
  0
LWPOLYLINE
  5
133
100
AcDbEntity
  8
USP-GEO
100
AcDbPolyline
 90
       14
 70
   129
 43
0.0
 10
2.087999240602814
 20
3.270143538435489
 10
2.087999240602814
 20
3.284533609011662
 10
2.087999240602814
 20
3.313313750164009
 10
2.087999240602814
 20
3.370874032468705
 10
2.087999240602814
 20
3.414044244197226
 10
2.087999240602814
 20
3.442824385349574
 10
2.087999240602814
 20
3.457214455925747
 10
2.00165881714577
 20
3.457214455925747
 10
2.00165881714577
 20
3.442824385349574
 10
2.00165881714577
 20
3.414044244197226
 10
2.00165881714577
 20
3.370874032468705
 10
2.00165881714577
 20
3.313313750164009
 10
2.00165881714577
 20
3.284533609011662
 10
2.00165881714577
 20
3.270143538435489
  0
LWPOLYLINE
  5
134
100
AcDbEntity
  8
USP-GEO
100
AcDbPolyline
 90
       12
 70
   129
 43
0.0
 10
2.00165881714577
 20
2.952842482230856
 10
2.00165881714577
 20
2.938452411654683
 10
2.00165881714577
 20
2.909672270502335
 10
2.00165881714577
 20
2.866502058773814
 10
2.00165881714577
 20
2.823331847045293
 10
2.00165881714577
 20
2.780161635316771
 10
2.087999240602814
 20
2.780161635316771
 10
2.087999240602814
 20
2.823331847045293
 10
2.087999240602814
 20
2.866502058773814
 10
2.087999240602814
 20
2.909672270502335
 10
2.087999240602814
 20
2.938452411654683
 10
2.087999240602814
 20
2.952842482230856
  0
LWPOLYLINE
  5
135
100
AcDbEntity
  8
USP-GEO
100
AcDbPolyline
 90
       12
 70
   129
 43
0.0
 10
1.555566629284383
 20
2.564310576674165
 10
1.584346770436731
 20
2.521140364945644
 10
1.598736841012906
 20
2.477970153217123
 10
1.584346770436731
 20
2.4347999414886
 10
1.555566629284383
 20
2.406019800336254
 10
1.512396417555862
 20
2.391629729760079
 10
1.469226205827341
 20
2.406019800336254
 10
1.42605599409882
 20
2.4347999414886
 10
1.411665923522646
 20
2.477970153217123
 10
1.42605599409882
 20
2.521140364945644
 10
1.469226205827341
 20
2.564310576674165
 10
1.512396417555862
 20
2.564310576674165
  0
LWPOLYLINE
  5
136
100
AcDbEntity
  8
USP-GEO
100
AcDbPolyline
 90
       12
 70
   129
 43
0.0
 10
1.411665923522646
 20
1.599456344541714
 10
1.42605599409882
 20
1.642626556270235
 10
1.469226205827341
 20
1.685796767998755
 10
1.512396417555862
 20
1.70018683857493
 10
1.555566629284383
 20
1.685796767998755
 10
1.584346770436731
 20
1.642626556270235
 10
1.598736841012906
 20
1.599456344541714
 10
1.584346770436731
 20
1.556286132813193
 10
1.555566629284383
 20
1.526786488132035
 10
1.512396417555862
 20
1.512396417555862
 10
1.469226205827341
 20
1.526786488132035
 10
1.42605599409882
 20
1.556286132813193
  0
LWPOLYLINE
  5
137
100
AcDbEntity
  8
USP-GEO
100
AcDbPolyline
 90
        3
 70
   128
 43
0.0
 10
1.555566629284383
 20
1.685796767998755
 10
1.584346770436731
 20
1.642626556270235
 10
1.555566629284383
 20
1.685796767998755
  0
LWPOLYLINE
  5
138
100
AcDbEntity
  8
USP-GEO
100
AcDbPolyline
 90
       10
 70
   129
 43
0.0
 10
2.00165881714577
 20
1.109474441422996
 10
2.00165881714577
 20
1.152644653151519
 10
2.00165881714577
 20
1.195814864880039
 10
2.00165881714577
 20
1.210204935456212
 10
2.00165881714577
 20
1.195814864880039
 10
2.00165881714577
 20
1.152644653151519
 10
2.00165881714577
 20
1.109474441422996
 10
2.00165881714577
 20
1.066304229694475
 10
2.00165881714577
 20
1.037524088542127
 10
2.00165881714577
 20
1.066304229694475
  0
LWPOLYLINE
  5
139
100
AcDbEntity
  8
USP-GEO
100
AcDbPolyline
 90
        2
 70
   129
 43
0.0
 10
2.00165881714577
 20
1.037524088542127
 10
2.00165881714577
 20
1.023134017965954
  0
LWPOLYLINE
  5
13A
100
AcDbEntity
  8
USP-GEO
100
AcDbPolyline
 90
       12
 70
   129
 43
0.0
 10
2.00165881714577
 20
1.526786488132035
 10
2.00165881714577
 20
1.54117655870821
 10
2.00165881714577
 20
1.570676203389366
 10
2.00165881714577
 20
1.613846415117887
 10
2.00165881714577
 20
1.657016626846409
 10
2.00165881714577
 20
1.685796767998755
 10
2.00165881714577
 20
1.70018683857493
 10
2.00165881714577
 20
1.685796767998755
 10
2.00165881714577
 20
1.657016626846409
 10
2.00165881714577
 20
1.613846415117887
 10
2.00165881714577
 20
1.570676203389366
 10
2.00165881714577
 20
1.54117655870821
  0
LWPOLYLINE
  5
13B
100
AcDbEntity
  8
USP-GEO
100
AcDbPolyline
 90
       12
 70
   129
 43
0.0
 10
1.555566629284383
 20
3.428434314773399
 10
1.584346770436731
 20
3.399654173621053
 10
1.598736841012906
 20
3.35648396189253
 10
1.584346770436731
 20
3.313313750164009
 10
1.555566629284383
 20
3.284533609011662
 10
1.512396417555862
 20
3.270143538435489
 10
1.469226205827341
 20
3.284533609011662
 10
1.42605599409882
 20
3.313313750164009
 10
1.411665923522646
 20
3.35648396189253
 10
1.42605599409882
 20
3.399654173621053
 10
1.469226205827341
 20
3.428434314773399
 10
1.512396417555862
 20
3.442824385349574
  0
LWPOLYLINE
  5
13C
100
AcDbEntity
  8
USP-GEO
100
AcDbPolyline
 90
        3
 70
   128
 43
0.0
 10
1.555566629284383
 20
2.564310576674165
 10
1.584346770436731
 20
2.521140364945644
 10
1.555566629284383
 20
2.564310576674165
  0
LWPOLYLINE
  5
13D
100
AcDbEntity
  8
USP-GEO
100
AcDbPolyline
 90
       12
 70
   129
 43
0.0
 10
1.555566629284383
 20
4.306948123448808
 10
1.584346770436731
 20
4.27816798229646
 10
1.598736841012906
 20
4.23499777056794
 10
1.584346770436731
 20
4.191827558839419
 10
1.555566629284383
 20
4.148657347110898
 10
1.512396417555862
 20
4.148657347110898
 10
1.469226205827341
 20
4.148657347110898
 10
1.42605599409882
 20
4.191827558839419
 10
1.411665923522646
 20
4.23499777056794
 10
1.42605599409882
 20
4.27816798229646
 10
1.469226205827341
 20
4.306948123448808
 10
1.512396417555862
 20
4.321338194024983
  0
LWPOLYLINE
  5
13E
100
AcDbEntity
  8
USP-GEO
100
AcDbPolyline
 90
        3
 70
   128
 43
0.0
 10
1.555566629284383
 20
3.428434314773399
 10
1.584346770436731
 20
3.399654173621053
 10
1.555566629284383
 20
3.428434314773399
  0
LWPOLYLINE
  5
13F
100
AcDbEntity
  8
USP-GEO
100
AcDbPolyline
 90
        3
 70
   128
 43
0.0
 10
1.555566629284383
 20
4.306948123448808
 10
1.584346770436731
 20
4.27816798229646
 10
1.555566629284383
 20
4.306948123448808
  0
LWPOLYLINE
  5
140
100
AcDbEntity
  8
USP-GEO
100
AcDbPolyline
 90
        2
 70
   129
 43
0.0
 10
2.00165881714577
 20
3.370874032468705
 10
2.00165881714577
 20
3.313313750164009
  0
LWPOLYLINE
  5
141
100
AcDbEntity
  8
USP-GEO
100
AcDbPolyline
 90
        2
 70
   129
 43
0.0
 10
2.00165881714577
 20
2.938452411654683
 10
2.00165881714577
 20
2.909672270502335
  0
LWPOLYLINE
  5
142
100
AcDbEntity
  8
USP-GEO
100
AcDbPolyline
 90
        6
 70
   129
 43
0.0
 10
2.00165881714577
 20
2.780161635316771
 10
2.00165881714577
 20
2.823331847045293
 10
2.00165881714577
 20
2.866502058773814
 10
2.00165881714577
 20
2.909672270502335
 10
2.00165881714577
 20
2.866502058773814
 10
2.00165881714577
 20
2.823331847045293
  0
LWPOLYLINE
  5
143
100
AcDbEntity
  8
USP-GEO
100
AcDbPolyline
 90
        2
 70
   129
 43
0.0
 10
2.00165881714577
 20
3.284533609011662
 10
2.00165881714577
 20
3.270143538435489
  0
LWPOLYLINE
  5
144
100
AcDbEntity
  8
USP-GEO
100
AcDbPolyline
 90
        2
 70
   129
 43
0.0
 10
2.00165881714577
 20
3.313313750164009
 10
2.00165881714577
 20
3.284533609011662
  0
LWPOLYLINE
  5
145
100
AcDbEntity
  8
USP-GEO
100
AcDbPolyline
 90
        2
 70
   129
 43
0.0
 10
2.00165881714577
 20
2.952842482230856
 10
2.00165881714577
 20
2.938452411654683
  0
LWPOLYLINE
  5
146
100
AcDbEntity
  8
USP-GEO
100
AcDbPolyline
 90
        2
 70
   128
 43
0.0
 10
2.00165881714577
 20
2.780161635316771
 10
2.00237832067458
 20
2.780161635316771
  0
LWPOLYLINE
  5
147
100
AcDbEntity
  8
USP-GEO
100
AcDbPolyline
 90
        2
 70
   128
 43
0.0
 10
2.00165881714577
 20
3.414044244197226
 10
2.00165881714577
 20
3.370874032468705
  0
LWPOLYLINE
  5
148
100
AcDbEntity
  8
USP-GEO
100
AcDbPolyline
 90
        4
 70
   129
 43
0.0
 10
2.00165881714577
 20
3.414044244197226
 10
2.00165881714577
 20
3.442824385349574
 10
2.00165881714577
 20
3.457214455925747
 10
2.00165881714577
 20
3.442824385349574
  0
LWPOLYLINE
  5
149
100
AcDbEntity
  8
USP-GEO
100
AcDbPolyline
 90
        2
 70
   128
 43
0.0
 10
2.00165881714577
 20
3.370874032468705
 10
2.00165881714577
 20
3.414044244197226
  0
LWPOLYLINE
  5
14A
100
AcDbEntity
  8
USP-GEO
100
AcDbPolyline
 90
        3
 70
   128
 43
0.0
 10
2.087999240602814
 20
1.066304229694475
 10
2.087999240602814
 20
1.037524088542127
 10
2.087999240602814
 20
1.066304229694475
  0
LWPOLYLINE
  5
14B
100
AcDbEntity
  8
USP-GEO
100
AcDbPolyline
 90
        4
 70
   129
 43
0.0
 10
2.087999240602814
 20
1.195814864880039
 10
2.087999240602814
 20
1.152644653151519
 10
2.087999240602814
 20
1.109474441422996
 10
2.087999240602814
 20
1.152644653151519
  0
LWPOLYLINE
  5
14C
100
AcDbEntity
  8
USP-GEO
100
AcDbPolyline
 90
        2
 70
   129
 43
0.0
 10
2.087999240602814
 20
1.195814864880039
 10
2.087999240602814
 20
1.210204935456212
  0
LWPOLYLINE
  5
14D
100
AcDbEntity
  8
USP-GEO
100
AcDbPolyline
 90
        2
 70
   129
 43
0.0
 10
2.087999240602814
 20
1.109474441422996
 10
2.087999240602814
 20
1.066304229694475
  0
LWPOLYLINE
  5
14E
100
AcDbEntity
  8
USP-GEO
100
AcDbPolyline
 90
        2
 70
   129
 43
0.0
 10
2.087999240602814
 20
1.037524088542127
 10
2.087999240602814
 20
1.023134017965954
  0
LWPOLYLINE
  5
14F
100
AcDbEntity
  8
USP-GEO
100
AcDbPolyline
 90
        2
 70
   129
 43
0.0
 10
2.087999240602814
 20
1.657016626846409
 10
2.087999240602814
 20
1.613846415117887
  0
LWPOLYLINE
  5
150
100
AcDbEntity
  8
USP-GEO
100
AcDbPolyline
 90
        4
 70
   129
 43
0.0
 10
2.087999240602814
 20
1.657016626846409
 10
2.087999240602814
 20
1.685796767998755
 10
2.087999240602814
 20
1.70018683857493
 10
2.087999240602814
 20
1.685796767998755
  0
LWPOLYLINE
  5
151
100
AcDbEntity
  8
USP-GEO
100
AcDbPolyline
 90
        4
 70
   129
 43
0.0
 10
2.087999240602814
 20
1.570676203389366
 10
2.087999240602814
 20
1.54117655870821
 10
2.087999240602814
 20
1.526786488132035
 10
2.087999240602814
 20
1.54117655870821
  0
LWPOLYLINE
  5
152
100
AcDbEntity
  8
USP-GEO
100
AcDbPolyline
 90
        2
 70
   129
 43
0.0
 10
2.087999240602814
 20
1.613846415117887
 10
2.087999240602814
 20
1.570676203389366
  0
LWPOLYLINE
  5
153
100
AcDbEntity
  8
USP-GEO
100
AcDbPolyline
 90
        2
 70
   128
 43
0.0
 10
2.087999240602814
 20
3.370874032468705
 10
2.087999240602814
 20
3.313313750164009
  0
LWPOLYLINE
  5
154
100
AcDbEntity
  8
USP-GEO
100
AcDbPolyline
 90
        2
 70
   128
 43
0.0
 10
2.087999240602814
 20
3.313313750164009
 10
2.087999240602814
 20
3.370874032468705
  0
LWPOLYLINE
  5
155
100
AcDbEntity
  8
USP-GEO
100
AcDbPolyline
 90
        4
 70
   129
 43
0.0
 10
2.087999240602814
 20
2.909672270502335
 10
2.087999240602814
 20
2.938452411654683
 10
2.087999240602814
 20
2.952842482230856
 10
2.087999240602814
 20
2.938452411654683
  0
LWPOLYLINE
  5
156
100
AcDbEntity
  8
USP-GEO
100
AcDbPolyline
 90
        6
 70
   129
 43
0.0
 10
2.087999240602814
 20
2.780161635316771
 10
2.087999240602814
 20
2.823331847045293
 10
2.087999240602814
 20
2.866502058773814
 10
2.087999240602814
 20
2.909672270502335
 10
2.087999240602814
 20
2.866502058773814
 10
2.087999240602814
 20
2.823331847045293
  0
LWPOLYLINE
  5
157
100
AcDbEntity
  8
USP-GEO
100
AcDbPolyline
 90
        4
 70
   129
 43
0.0
 10
2.087999240602814
 20
3.270143538435489
 10
2.087999240602814
 20
3.284533609011662
 10
2.087999240602814
 20
3.313313750164009
 10
2.087999240602814
 20
3.284533609011662
  0
LWPOLYLINE
  5
158
100
AcDbEntity
  8
USP-GEO
100
AcDbPolyline
 90
        2
 70
   129
 43
0.0
 10
2.088718744131622
 20
2.780161635316771
 10
2.087999240602814
 20
2.780161635316771
  0
LWPOLYLINE
  5
159
100
AcDbEntity
  8
USP-GEO
100
AcDbPolyline
 90
        6
 70
   129
 43
0.0
 10
2.087999240602814
 20
3.370874032468705
 10
2.087999240602814
 20
3.414044244197226
 10
2.087999240602814
 20
3.442824385349574
 10
2.087999240602814
 20
3.457214455925747
 10
2.087999240602814
 20
3.442824385349574
 10
2.087999240602814
 20
3.414044244197226
  0
LWPOLYLINE
  5
15A
100
AcDbEntity
  8
USP-GEO
100
AcDbPolyline
 90
        8
 70
   129
 43
0.0
 10
2.087999240602814
 20
4.551579323243762
 10
2.00165881714577
 20
4.551579323243762
 10
2.00165881714577
 20
4.58035946439611
 10
2.00165881714577
 20
4.609859109077266
 10
2.00165881714577
 20
4.638639250229614
 10
2.087999240602814
 20
4.638639250229614
 10
2.087999240602814
 20
4.609859109077266
 10
2.087999240602814
 20
4.58035946439611
  0
LWPOLYLINE
  5
15B
100
AcDbEntity
  8
USP-GEO
100
AcDbPolyline
 90
       10
 70
   128
 43
0.0
 10
2.00165881714577
 20
5.214242073276565
 10
2.087999240602814
 20
5.214242073276565
 10
2.087999240602814
 20
5.488372917752675
 10
2.00165881714577
 20
5.488372917752675
 10
2.00165881714577
 20
5.214242073276565
 10
2.00165881714577
 20
5.185461932124217
 10
2.00165881714577
 20
5.15668179097187
 10
2.00165881714577
 20
5.127901649819522
 10
2.087999240602814
 20
5.127901649819522
 10
2.087999240602814
 20
4.638639250229614
  0
LWPOLYLINE
  5
15C
100
AcDbEntity
  8
USP-GEO
100
AcDbPolyline
 90
       12
 70
   129
 43
0.0
 10
2.087999240602814
 20
5.04156122636248
 10
2.087999240602814
 20
5.070341367514828
 10
2.087999240602814
 20
5.113511579243349
 10
2.087999240602814
 20
5.15668179097187
 10
2.087999240602814
 20
5.19985200270039
 10
2.00165881714577
 20
5.19985200270039
 10
2.00165881714577
 20
5.15668179097187
 10
2.00165881714577
 20
5.113511579243349
 10
2.00165881714577
 20
5.070341367514828
 10
2.00165881714577
 20
5.04156122636248
 10
2.00165881714577
 20
5.027171155786305
 10
2.087999240602814
 20
5.027171155786305
  0
LWPOLYLINE
  5
15D
100
AcDbEntity
  8
USP-GEO
100
AcDbPolyline
 90
       14
 70
   129
 43
0.0
 10
2.087999240602814
 20
5.314972567309782
 10
2.087999240602814
 20
5.329362637885955
 10
2.00165881714577
 20
5.329362637885955
 10
2.00165881714577
 20
5.314972567309782
 10
2.00165881714577
 20
5.257412285005086
 10
2.00165881714577
 20
5.185461932124217
 10
2.00165881714577
 20
5.099121508667176
 10
2.00165881714577
 20
5.04156122636248
 10
2.00165881714577
 20
5.027171155786305
 10
2.087999240602814
 20
5.027171155786305
 10
2.087999240602814
 20
5.04156122636248
 10
2.087999240602814
 20
5.099121508667176
 10
2.087999240602814
 20
5.185461932124217
 10
2.087999240602814
 20
5.257412285005086
  0
LWPOLYLINE
  5
15E
100
AcDbEntity
  8
USP-GEO
100
AcDbPolyline
 90
       14
 70
   129
 43
0.0
 10
2.087999240602814
 20
4.522799182091416
 10
2.087999240602814
 20
4.537189252667589
 10
2.087999240602814
 20
4.565969393819937
 10
2.087999240602814
 20
4.609859109077266
 10
2.087999240602814
 20
4.667419391381962
 10
2.087999240602814
 20
4.696199532534309
 10
2.087999240602814
 20
4.710589603110483
 10
2.00165881714577
 20
4.710589603110483
 10
2.00165881714577
 20
4.696199532534309
 10
2.00165881714577
 20
4.667419391381962
 10
2.00165881714577
 20
4.609859109077266
 10
2.00165881714577
 20
4.565969393819937
 10
2.00165881714577
 20
4.537189252667589
 10
2.00165881714577
 20
4.522799182091416
  0
LWPOLYLINE
  5
15F
100
AcDbEntity
  8
USP-GEO
100
AcDbPolyline
 90
       12
 70
   129
 43
0.0
 10
1.555566629284383
 20
5.185461932124217
 10
1.584346770436731
 20
5.15668179097187
 10
1.598736841012906
 20
5.113511579243349
 10
1.584346770436731
 20
5.055951296938653
 10
1.555566629284383
 20
5.027171155786305
 10
1.512396417555862
 20
5.012781085210132
 10
1.469226205827341
 20
5.027171155786305
 10
1.42605599409882
 20
5.055951296938653
 10
1.411665923522646
 20
5.113511579243349
 10
1.42605599409882
 20
5.15668179097187
 10
1.469226205827341
 20
5.185461932124217
 10
1.512396417555862
 20
5.19985200270039
  0
LWPOLYLINE
  5
160
100
AcDbEntity
  8
USP-GEO
100
AcDbPolyline
 90
        3
 70
   128
 43
0.0
 10
1.555566629284383
 20
5.185461932124217
 10
1.584346770436731
 20
5.15668179097187
 10
1.555566629284383
 20
5.185461932124217
  0
LWPOLYLINE
  5
161
100
AcDbEntity
  8
USP-GEO
100
AcDbPolyline
 90
        8
 70
   129
 43
0.0
 10
2.00165881714577
 20
5.099121508667176
 10
2.00165881714577
 20
5.185461932124217
 10
2.00165881714577
 20
5.257412285005086
 10
2.00165881714577
 20
5.314972567309782
 10
2.00165881714577
 20
5.329362637885955
 10
2.00165881714577
 20
5.314972567309782
 10
2.00165881714577
 20
5.257412285005086
 10
2.00165881714577
 20
5.185461932124217
  0
LWPOLYLINE
  5
162
100
AcDbEntity
  8
USP-GEO
100
AcDbPolyline
 90
        4
 70
   129
 43
0.0
 10
2.00165881714577
 20
4.565969393819937
 10
2.00165881714577
 20
4.537189252667589
 10
2.00165881714577
 20
4.522799182091416
 10
2.00165881714577
 20
4.537189252667589
  0
LWPOLYLINE
  5
163
100
AcDbEntity
  8
USP-GEO
100
AcDbPolyline
 90
        2
 70
   129
 43
0.0
 10
2.00165881714577
 20
5.04156122636248
 10
2.00165881714577
 20
5.027171155786305
  0
LWPOLYLINE
  5
164
100
AcDbEntity
  8
USP-GEO
100
AcDbPolyline
 90
        3
 70
   128
 43
0.0
 10
2.00165881714577
 20
5.04156122636248
 10
2.00165881714577
 20
5.027171155786305
 10
2.00165881714577
 20
5.04156122636248
  0
LWPOLYLINE
  5
165
100
AcDbEntity
  8
USP-GEO
100
AcDbPolyline
 90
        5
 70
   128
 43
0.0
 10
2.00165881714577
 20
5.19985200270039
 10
2.00165881714577
 20
5.15668179097187
 10
2.00165881714577
 20
5.113511579243349
 10
2.00165881714577
 20
5.070341367514828
 10
2.00165881714577
 20
5.04156122636248
  0
LWPOLYLINE
  5
166
100
AcDbEntity
  8
USP-GEO
100
AcDbPolyline
 90
        8
 70
   129
 43
0.0
 10
2.00165881714577
 20
4.609859109077266
 10
2.00165881714577
 20
4.667419391381962
 10
2.00165881714577
 20
4.696199532534309
 10
2.00165881714577
 20
4.710589603110483
 10
2.00165881714577
 20
4.696199532534309
 10
2.00165881714577
 20
4.667419391381962
 10
2.00165881714577
 20
4.609859109077266
 10
2.00165881714577
 20
4.565969393819937
  0
LWPOLYLINE
  5
167
100
AcDbEntity
  8
USP-GEO
100
AcDbPolyline
 90
        2
 70
   129
 43
0.0
 10
2.00165881714577
 20
5.099121508667176
 10
2.00165881714577
 20
5.04156122636248
  0
LWPOLYLINE
  5
168
100
AcDbEntity
  8
USP-GEO
100
AcDbPolyline
 90
        2
 70
   128
 43
0.0
 10
2.00165881714577
 20
5.127901649819522
 10
2.00165881714577
 20
4.638639250229614
  0
LWPOLYLINE
  5
169
100
AcDbEntity
  8
USP-GEO
100
AcDbPolyline
 90
        2
 70
   129
 43
0.0
 10
2.00237832067458
 20
5.19985200270039
 10
2.00165881714577
 20
5.19985200270039
  0
LWPOLYLINE
  5
16A
100
AcDbEntity
  8
USP-GEO
100
AcDbPolyline
 90
       12
 70
   129
 43
0.0
 10
2.087999240602814
 20
4.537189252667589
 10
2.087999240602814
 20
4.565969393819937
 10
2.087999240602814
 20
4.609859109077266
 10
2.087999240602814
 20
4.667419391381962
 10
2.087999240602814
 20
4.696199532534309
 10
2.087999240602814
 20
4.710589603110483
 10
2.087999240602814
 20
4.696199532534309
 10
2.087999240602814
 20
4.667419391381962
 10
2.087999240602814
 20
4.609859109077266
 10
2.087999240602814
 20
4.565969393819937
 10
2.087999240602814
 20
4.537189252667589
 10
2.087999240602814
 20
4.522799182091416
  0
LWPOLYLINE
  5
16B
100
AcDbEntity
  8
USP-GEO
100
AcDbPolyline
 90
        2
 70
   129
 43
0.0
 10
2.087999240602814
 20
5.19985200270039
 10
2.087999240602814
 20
5.15668179097187
  0
LWPOLYLINE
  5
16C
100
AcDbEntity
  8
USP-GEO
100
AcDbPolyline
 90
        6
 70
   129
 43
0.0
 10
2.087999240602814
 20
5.113511579243349
 10
2.087999240602814
 20
5.070341367514828
 10
2.087999240602814
 20
5.04156122636248
 10
2.087999240602814
 20
5.027171155786305
 10
2.087999240602814
 20
5.04156122636248
 10
2.087999240602814
 20
5.070341367514828
  0
LWPOLYLINE
  5
16D
100
AcDbEntity
  8
USP-GEO
100
AcDbPolyline
 90
        4
 70
   128
 43
0.0
 10
2.087999240602814
 20
5.127901649819522
 10
2.087999240602814
 20
5.15668179097187
 10
2.087999240602814
 20
5.185461932124217
 10
2.087999240602814
 20
5.214242073276565
  0
LWPOLYLINE
  5
16E
100
AcDbEntity
  8
USP-GEO
100
AcDbPolyline
 90
        2
 70
   129
 43
0.0
 10
2.088718744131622
 20
5.19985200270039
 10
2.087999240602814
 20
5.19985200270039
  0
LWPOLYLINE
  5
16F
100
AcDbEntity
  8
USP-GEO
100
AcDbPolyline
 90
       15
 70
   129
 43
0.0
 10
5.601334971775639
 20
4.638639250229614
 10
5.601334971775639
 20
5.127901649819522
 10
5.601334971775639
 20
5.15668179097187
 10
5.601334971775639
 20
5.185461932124217
 10
5.601334971775639
 20
5.214242073276565
 10
5.601334971775639
 20
5.488372917752675
 10
5.601334971775639
 20
0.4180315502378474
 10
5.601334971775639
 20
0.3029109856284577
 10
5.601334971775639
 20
2.00237832067458
 10
5.601334971775639
 20
2.146279026436317
 10
5.601334971775639
 20
2.319679376879211
 10
5.601334971775639
 20
2.492360223793296
 10
5.601334971775639
 20
4.551579323243762
 10
5.601334971775639
 20
4.58035946439611
 10
5.601334971775639
 20
4.609859109077266
  0
LWPOLYLINE
  5
170
100
AcDbEntity
  8
USP-GEO
100
AcDbPolyline
 90
        9
 70
   128
 43
0.0
 10
5.601334971775639
 20
0.230960632747589
 10
5.601334971775639
 20
0.2597407738999351
 10
5.601334971775639
 20
0.2885209150522829
 10
5.601334971775639
 20
0.3029109856284577
 10
5.601334971775639
 20
2.00237832067458
 10
5.514994548318597
 20
2.00237832067458
 10
5.514994548318597
 20
2.146279026436317
 10
5.514994548318597
 20
2.319679376879211
 10
5.514994548318597
 20
2.492360223793296
  0
LWPOLYLINE
  5
171
100
AcDbEntity
  8
USP-GEO
100
AcDbPolyline
 90
        2
 70
   129
 43
0.0
 10
4.550140316186146
 20
0.0
 10
5.601334971775639
 20
0.0
  0
LWPOLYLINE
  5
172
100
AcDbEntity
  8
USP-GEO
100
AcDbPolyline
 90
        3
 70
   128
 43
0.0
 10
4.391849539848234
 20
0.0
 10
4.391849539848234
 20
0.0870599269858499
 10
4.463799892729102
 20
0.0870599269858499
  0
LWPOLYLINE
  5
173
100
AcDbEntity
  8
USP-GEO
100
AcDbPolyline
 90
        3
 70
   128
 43
0.0
 10
4.463799892729102
 20
0.0870599269858499
 10
4.391849539848234
 20
0.0870599269858499
 10
4.463799892729102
 20
0.0870599269858499
  0
LWPOLYLINE
  5
174
100
AcDbEntity
  8
USP-GEO
100
AcDbPolyline
 90
        5
 70
   128
 43
0.0
 10
4.463799892729102
 20
0.0
 10
4.506970104457625
 20
0.0
 10
4.463799892729102
 20
0.0
 10
4.391849539848234
 20
0.0
 10
4.463799892729102
 20
0.0
  0
LWPOLYLINE
  5
175
100
AcDbEntity
  8
USP-GEO
100
AcDbPolyline
 90
        5
 70
   128
 43
0.0
 10
4.391849539848234
 20
0.0870599269858499
 10
4.348679328119713
 20
0.0870599269858499
 10
4.319899186967365
 20
0.0870599269858499
 10
4.305509116391192
 20
0.0870599269858499
 10
4.305509116391192
 20
0.0
  0
LWPOLYLINE
  5
176
100
AcDbEntity
  8
USP-GEO
100
AcDbPolyline
 90
        3
 70
   128
 43
0.0
 10
4.319899186967365
 20
0.0870599269858499
 10
4.305509116391192
 20
0.0870599269858499
 10
4.319899186967365
 20
0.0870599269858499
  0
LWPOLYLINE
  5
177
100
AcDbEntity
  8
USP-GEO
100
AcDbPolyline
 90
        5
 70
   128
 43
0.0
 10
4.348679328119713
 20
0.0870599269858499
 10
4.391849539848234
 20
0.0870599269858499
 10
4.348679328119713
 20
0.0870599269858499
 10
4.319899186967365
 20
0.0870599269858499
 10
4.348679328119713
 20
0.0870599269858499
  0
LWPOLYLINE
  5
178
100
AcDbEntity
  8
USP-GEO
100
AcDbPolyline
 90
        3
 70
   128
 43
0.0
 10
4.319899186967365
 20
0.0
 10
4.305509116391192
 20
0.0
 10
4.319899186967365
 20
0.0
  0
LWPOLYLINE
  5
179
100
AcDbEntity
  8
USP-GEO
100
AcDbPolyline
 90
        3
 70
   128
 43
0.0
 10
4.348679328119713
 20
0.0
 10
4.319899186967365
 20
0.0
 10
4.348679328119713
 20
0.0
  0
LWPOLYLINE
  5
17A
100
AcDbEntity
  8
USP-GEO
100
AcDbPolyline
 90
        3
 70
   128
 43
0.0
 10
4.391849539848234
 20
0.0
 10
4.348679328119713
 20
0.0
 10
4.391849539848234
 20
0.0
  0
LWPOLYLINE
  5
17B
100
AcDbEntity
  8
USP-GEO
100
AcDbPolyline
 90
        3
 70
   128
 43
0.0
 10
4.506970104457625
 20
0.0870599269858499
 10
4.463799892729102
 20
0.0870599269858499
 10
4.506970104457625
 20
0.0870599269858499
  0
LWPOLYLINE
  5
17C
100
AcDbEntity
  8
USP-GEO
100
AcDbPolyline
 90
        3
 70
   128
 43
0.0
 10
4.535750245609971
 20
0.0870599269858499
 10
4.506970104457625
 20
0.0870599269858499
 10
4.535750245609971
 20
0.0870599269858499
  0
LWPOLYLINE
  5
17D
100
AcDbEntity
  8
USP-GEO
100
AcDbPolyline
 90
        7
 70
   128
 43
0.0
 10
4.463799892729102
 20
0.0
 10
4.463799892729102
 20
0.0870599269858499
 10
4.506970104457625
 20
0.0870599269858499
 10
4.535750245609971
 20
0.0870599269858499
 10
4.550140316186146
 20
0.0870599269858499
 10
4.535750245609971
 20
0.0870599269858499
 10
4.550140316186146
 20
0.0870599269858499
  0
LWPOLYLINE
  5
17E
100
AcDbEntity
  8
USP-GEO
100
AcDbPolyline
 90
        4
 70
   129
 43
0.0
 10
4.550140316186146
 20
0.0
 10
4.535750245609971
 20
0.0
 10
4.506970104457625
 20
0.0
 10
4.535750245609971
 20
0.0
  0
LWPOLYLINE
  5
17F
100
AcDbEntity
  8
USP-GEO
100
AcDbPolyline
 90
        2
 70
   128
 43
0.0
 10
4.550140316186146
 20
0.0
 10
4.535750245609971
 20
0.0
  0
LWPOLYLINE
  5
180
100
AcDbEntity
  8
USP-GEO
100
AcDbPolyline
 90
        6
 70
   129
 43
0.0
 10
5.601334971775639
 20
0.230960632747589
 10
5.601334971775639
 20
0.2597407738999351
 10
5.601334971775639
 20
0.2885209150522829
 10
5.601334971775639
 20
0.3029109856284577
 10
5.601334971775639
 20
0.2885209150522829
 10
5.601334971775639
 20
0.2597407738999351
  0
LWPOLYLINE
  5
181
100
AcDbEntity
  8
USP-GEO
100
AcDbPolyline
 90
        2
 70
   129
 43
0.0
 10
5.601334971775639
 20
0.0
 10
5.601334971775639
 20
0.230960632747589
  0
LWPOLYLINE
  5
182
100
AcDbEntity
  8
USP-GEO
100
AcDbPolyline
 90
        6
 70
   128
 43
0.0
 10
5.601334971775639
 20
4.292558052872635
 10
5.601334971775639
 20
4.321338194024983
 10
5.601334971775639
 20
4.364508405753504
 10
5.601334971775639
 20
4.407678617482025
 10
5.601334971775639
 20
4.450848829210546
 10
5.602054475304448
 20
4.450848829210546
  0
LWPOLYLINE
  5
183
100
AcDbEntity
  8
USP-GEO
100
AcDbPolyline
 90
        5
 70
   128
 43
0.0
 10
5.601334971775639
 20
4.292558052872635
 10
5.601334971775639
 20
4.321338194024983
 10
5.601334971775639
 20
4.364508405753504
 10
5.601334971775639
 20
4.407678617482025
 10
5.601334971775639
 20
4.450848829210546
  0
LWPOLYLINE
  5
184
100
AcDbEntity
  8
USP-GEO
100
AcDbPolyline
 90
        5
 70
   128
 43
0.0
 10
5.514994548318597
 20
4.450848829210546
 10
5.514994548318597
 20
4.407678617482025
 10
5.514994548318597
 20
4.364508405753504
 10
5.514994548318597
 20
4.321338194024983
 10
5.514994548318597
 20
4.292558052872635
  0
LWPOLYLINE
  5
185
100
AcDbEntity
  8
USP-GEO
100
AcDbPolyline
 90
        5
 70
   128
 43
0.0
 10
5.514994548318597
 20
4.292558052872635
 10
5.514994548318597
 20
4.321338194024983
 10
5.514994548318597
 20
4.364508405753504
 10
5.514994548318597
 20
4.407678617482025
 10
5.514994548318597
 20
4.450848829210546
  0
LWPOLYLINE
  5
186
100
AcDbEntity
  8
USP-GEO
100
AcDbPolyline
 90
        9
 70
   128
 43
0.0
 10
5.514994548318597
 20
4.638639250229614
 10
5.514994548318597
 20
4.609859109077266
 10
5.514994548318597
 20
4.58035946439611
 10
5.514994548318597
 20
4.551579323243762
 10
5.601334971775639
 20
4.551579323243762
 10
5.601334971775639
 20
2.492360223793296
 10
5.601334971775639
 20
2.319679376879211
 10
5.601334971775639
 20
2.146279026436317
 10
5.601334971775639
 20
2.00237832067458
  0
LWPOLYLINE
  5
187
100
AcDbEntity
  8
USP-GEO
100
AcDbPolyline
 90
        3
 70
   128
 43
0.0
 10
5.601334971775639
 20
2.492360223793296
 10
5.514994548318597
 20
2.492360223793296
 10
5.514994548318597
 20
4.551579323243762
  0
LWPOLYLINE
  5
188
100
AcDbEntity
  8
USP-GEO
100
AcDbPolyline
 90
       12
 70
   129
 43
0.0
 10
5.514994548318597
 20
4.364508405753504
 10
5.514994548318597
 20
4.321338194024983
 10
5.514994548318597
 20
4.292558052872635
 10
5.514994548318597
 20
4.27816798229646
 10
5.601334971775639
 20
4.27816798229646
 10
5.601334971775639
 20
4.292558052872635
 10
5.601334971775639
 20
4.321338194024983
 10
5.601334971775639
 20
4.364508405753504
 10
5.601334971775639
 20
4.407678617482025
 10
5.601334971775639
 20
4.450848829210546
 10
5.514994548318597
 20
4.450848829210546
 10
5.514994548318597
 20
4.407678617482025
  0
LWPOLYLINE
  5
189
100
AcDbEntity
  8
USP-GEO
100
AcDbPolyline
 90
       12
 70
   129
 43
0.0
 10
6.004256947908505
 20
3.35648396189253
 10
6.018647018484678
 20
3.399654173621053
 10
6.047427159637027
 20
3.428434314773399
 10
6.090597371365547
 20
3.442824385349574
 10
6.134487086622879
 20
3.428434314773399
 10
6.177657298351398
 20
3.399654173621053
 10
6.192047368927575
 20
3.35648396189253
 10
6.177657298351398
 20
3.313313750164009
 10
6.134487086622879
 20
3.284533609011662
 10
6.090597371365547
 20
3.270143538435489
 10
6.047427159637027
 20
3.284533609011662
 10
6.018647018484678
 20
3.313313750164009
  0
LWPOLYLINE
  5
18A
100
AcDbEntity
  8
USP-GEO
100
AcDbPolyline
 90
       12
 70
   129
 43
0.0
 10
6.004256947908505
 20
4.23499777056794
 10
6.018647018484678
 20
4.27816798229646
 10
6.047427159637027
 20
4.306948123448808
 10
6.090597371365547
 20
4.321338194024983
 10
6.134487086622879
 20
4.306948123448808
 10
6.177657298351398
 20
4.27816798229646
 10
6.192047368927575
 20
4.23499777056794
 10
6.177657298351398
 20
4.191827558839419
 10
6.134487086622879
 20
4.148657347110898
 10
6.090597371365547
 20
4.148657347110898
 10
6.047427159637027
 20
4.148657347110898
 10
6.018647018484678
 20
4.191827558839419
  0
LWPOLYLINE
  5
18B
100
AcDbEntity
  8
USP-GEO
100
AcDbPolyline
 90
       12
 70
   129
 43
0.0
 10
6.018647018484678
 20
1.642626556270235
 10
6.047427159637027
 20
1.685796767998755
 10
6.090597371365547
 20
1.70018683857493
 10
6.134487086622879
 20
1.685796767998755
 10
6.177657298351398
 20
1.642626556270235
 10
6.192047368927575
 20
1.599456344541714
 10
6.177657298351398
 20
1.556286132813193
 10
6.134487086622879
 20
1.526786488132035
 10
6.090597371365547
 20
1.512396417555862
 10
6.047427159637027
 20
1.526786488132035
 10
6.018647018484678
 20
1.556286132813193
 10
6.004256947908505
 20
1.599456344541714
  0
LWPOLYLINE
  5
18C
100
AcDbEntity
  8
USP-GEO
100
AcDbPolyline
 90
       12
 70
   129
 43
0.0
 10
6.004256947908505
 20
2.477970153217123
 10
6.018647018484678
 20
2.521140364945644
 10
6.047427159637027
 20
2.564310576674165
 10
6.090597371365547
 20
2.564310576674165
 10
6.134487086622879
 20
2.564310576674165
 10
6.177657298351398
 20
2.521140364945644
 10
6.192047368927575
 20
2.477970153217123
 10
6.177657298351398
 20
2.4347999414886
 10
6.134487086622879
 20
2.406019800336254
 10
6.090597371365547
 20
2.391629729760079
 10
6.047427159637027
 20
2.406019800336254
 10
6.018647018484678
 20
2.4347999414886
  0
LWPOLYLINE
  5
18D
100
AcDbEntity
  8
USP-GEO
100
AcDbPolyline
 90
        2
 70
   129
 43
0.0
 10
5.601334971775639
 20
1.440446064674993
 10
5.601334971775639
 20
1.411665923522646
  0
LWPOLYLINE
  5
18E
100
AcDbEntity
  8
USP-GEO
100
AcDbPolyline
 90
        6
 70
   129
 43
0.0
 10
5.514994548318597
 20
1.411665923522646
 10
5.514994548318597
 20
1.440446064674993
 10
5.514994548318597
 20
1.454836135251166
 10
5.514994548318597
 20
1.440446064674993
 10
5.514994548318597
 20
1.411665923522646
 10
5.514994548318597
 20
1.368495711794125
  0
LWPOLYLINE
  5
18F
100
AcDbEntity
  8
USP-GEO
100
AcDbPolyline
 90
       14
 70
   129
 43
0.0
 10
5.514994548318597
 20
1.368495711794125
 10
5.514994548318597
 20
1.325325500065604
 10
5.514994548318597
 20
1.282155288337081
 10
5.514994548318597
 20
1.267765217760908
 10
5.601334971775639
 20
1.267765217760908
 10
5.601334971775639
 20
1.282155288337081
 10
5.601334971775639
 20
1.325325500065604
 10
5.601334971775639
 20
1.368495711794125
 10
5.601334971775639
 20
1.411665923522646
 10
5.601334971775639
 20
1.440446064674993
 10
5.601334971775639
 20
1.454836135251166
 10
5.514994548318597
 20
1.454836135251166
 10
5.514994548318597
 20
1.440446064674993
 10
5.514994548318597
 20
1.411665923522646
  0
LWPOLYLINE
  5
190
100
AcDbEntity
  8
USP-GEO
100
AcDbPolyline
 90
        2
 70
   128
 43
0.0
 10
5.601334971775639
 20
0.8648432416280424
 10
5.601334971775639
 20
0.9080134533565651
  0
LWPOLYLINE
  5
191
100
AcDbEntity
  8
USP-GEO
100
AcDbPolyline
 90
        8
 70
   129
 43
0.0
 10
5.601334971775639
 20
1.411665923522646
 10
5.601334971775639
 20
1.368495711794125
 10
5.601334971775639
 20
1.325325500065604
 10
5.601334971775639
 20
1.282155288337081
 10
5.601334971775639
 20
1.267765217760908
 10
5.601334971775639
 20
1.282155288337081
 10
5.601334971775639
 20
1.325325500065604
 10
5.601334971775639
 20
1.368495711794125
  0
LWPOLYLINE
  5
192
100
AcDbEntity
  8
USP-GEO
100
AcDbPolyline
 90
        4
 70
   129
 43
0.0
 10
5.601334971775639
 20
0.951183665085086
 10
5.601334971775639
 20
0.9367935945089111
 10
5.601334971775639
 20
0.9080134533565651
 10
5.601334971775639
 20
0.9367935945089111
  0
LWPOLYLINE
  5
193
100
AcDbEntity
  8
USP-GEO
100
AcDbPolyline
 90
        2
 70
   128
 43
0.0
 10
5.601334971775639
 20
0.9080134533565651
 10
5.601334971775639
 20
0.8648432416280424
  0
LWPOLYLINE
  5
194
100
AcDbEntity
  8
USP-GEO
100
AcDbPolyline
 90
        4
 70
   129
 43
0.0
 10
5.601334971775639
 20
0.8648432416280424
 10
5.601334971775639
 20
0.8216730298995216
 10
5.601334971775639
 20
0.7777833146421909
 10
5.601334971775639
 20
0.8216730298995216
  0
LWPOLYLINE
  5
195
100
AcDbEntity
  8
USP-GEO
100
AcDbPolyline
 90
        2
 70
   129
 43
0.0
 10
5.514994548318597
 20
1.325325500065604
 10
5.514994548318597
 20
1.368495711794125
  0
LWPOLYLINE
  5
196
100
AcDbEntity
  8
USP-GEO
100
AcDbPolyline
 90
        3
 70
   128
 43
0.0
 10
5.514994548318597
 20
1.325325500065604
 10
5.514994548318597
 20
1.282155288337081
 10
5.514994548318597
 20
1.325325500065604
  0
LWPOLYLINE
  5
197
100
AcDbEntity
  8
USP-GEO
100
AcDbPolyline
 90
       10
 70
   129
 43
0.0
 10
5.514994548318597
 20
0.951183665085086
 10
5.514994548318597
 20
0.9367935945089111
 10
5.514994548318597
 20
0.9080134533565651
 10
5.514994548318597
 20
0.8648432416280424
 10
5.514994548318597
 20
0.8216730298995216
 10
5.514994548318597
 20
0.7777833146421909
 10
5.514994548318597
 20
0.8216730298995216
 10
5.514994548318597
 20
0.8648432416280424
 10
5.514994548318597
 20
0.9080134533565651
 10
5.514994548318597
 20
0.9367935945089111
  0
LWPOLYLINE
  5
198
100
AcDbEntity
  8
USP-GEO
100
AcDbPolyline
 90
        2
 70
   129
 43
0.0
 10
5.514994548318597
 20
1.267765217760908
 10
5.514994548318597
 20
1.282155288337081
  0
LWPOLYLINE
  5
199
100
AcDbEntity
  8
USP-GEO
100
AcDbPolyline
 90
        2
 70
   128
 43
0.0
 10
5.601334971775639
 20
0.7777833146421909
 10
5.602054475304448
 20
0.7777833146421909
  0
LWPOLYLINE
  5
19A
100
AcDbEntity
  8
USP-GEO
100
AcDbPolyline
 90
       12
 70
   129
 43
0.0
 10
5.514994548318597
 20
0.7777833146421909
 10
5.601334971775639
 20
0.7777833146421909
 10
5.601334971775639
 20
0.8216730298995216
 10
5.601334971775639
 20
0.8648432416280424
 10
5.601334971775639
 20
0.9080134533565651
 10
5.601334971775639
 20
0.9367935945089111
 10
5.601334971775639
 20
0.951183665085086
 10
5.514994548318597
 20
0.951183665085086
 10
5.514994548318597
 20
0.9367935945089111
 10
5.514994548318597
 20
0.9080134533565651
 10
5.514994548318597
 20
0.8648432416280424
 10
5.514994548318597
 20
0.8216730298995216
  0
LWPOLYLINE
  5
19B
100
AcDbEntity
  8
USP-GEO
100
AcDbPolyline
 90
        2
 70
   129
 43
0.0
 10
5.515714051847407
 20
0.7777833146421909
 10
5.514994548318597
 20
0.7777833146421909
  0
LWPOLYLINE
  5
19C
100
AcDbEntity
  8
USP-GEO
100
AcDbPolyline
 90
        2
 70
   129
 43
0.0
 10
5.601334971775639
 20
1.440446064674993
 10
5.601334971775639
 20
1.454836135251166
  0
LWPOLYLINE
  5
19D
100
AcDbEntity
  8
USP-GEO
100
AcDbPolyline
 90
        8
 70
   129
 43
0.0
 10
5.601334971775639
 20
3.19819318555462
 10
5.601334971775639
 20
3.155022973826099
 10
5.601334971775639
 20
3.111852762097576
 10
5.601334971775639
 20
3.067963046840247
 10
5.601334971775639
 20
3.111852762097576
 10
5.601334971775639
 20
3.155022973826099
 10
5.601334971775639
 20
3.19819318555462
 10
5.601334971775639
 20
3.212583256130793
  0
LWPOLYLINE
  5
19E
100
AcDbEntity
  8
USP-GEO
100
AcDbPolyline
 90
        2
 70
   129
 43
0.0
 10
5.601334971775639
 20
3.0391829056879
 10
5.601334971775639
 20
3.024792835111725
  0
LWPOLYLINE
  5
19F
100
AcDbEntity
  8
USP-GEO
100
AcDbPolyline
 90
        3
 70
   128
 43
0.0
 10
5.601334971775639
 20
2.535530435521817
 10
5.601334971775639
 20
2.521140364945644
 10
5.601334971775639
 20
2.535530435521817
  0
LWPOLYLINE
  5
1A0
100
AcDbEntity
  8
USP-GEO
100
AcDbPolyline
 90
        8
 70
   129
 43
0.0
 10
5.601334971775639
 20
2.665041070707381
 10
5.601334971775639
 20
2.693821211859729
 10
5.601334971775639
 20
2.708211282435902
 10
5.601334971775639
 20
2.693821211859729
 10
5.601334971775639
 20
2.665041070707381
 10
5.601334971775639
 20
2.62187085897886
 10
5.601334971775639
 20
2.564310576674165
 10
5.601334971775639
 20
2.62187085897886
  0
LWPOLYLINE
  5
1A1
100
AcDbEntity
  8
USP-GEO
100
AcDbPolyline
 90
        2
 70
   129
 43
0.0
 10
5.601334971775639
 20
2.564310576674165
 10
5.601334971775639
 20
2.535530435521817
  0
LWPOLYLINE
  5
1A2
100
AcDbEntity
  8
USP-GEO
100
AcDbPolyline
 90
        2
 70
   129
 43
0.0
 10
5.601334971775639
 20
3.067963046840247
 10
5.601334971775639
 20
3.0391829056879
  0
LWPOLYLINE
  5
1A3
100
AcDbEntity
  8
USP-GEO
100
AcDbPolyline
 90
        6
 70
   129
 43
0.0
 10
5.514994548318597
 20
2.62187085897886
 10
5.514994548318597
 20
2.665041070707381
 10
5.514994548318597
 20
2.693821211859729
 10
5.514994548318597
 20
2.708211282435902
 10
5.514994548318597
 20
2.693821211859729
 10
5.514994548318597
 20
2.665041070707381
  0
LWPOLYLINE
  5
1A4
100
AcDbEntity
  8
USP-GEO
100
AcDbPolyline
 90
        4
 70
   129
 43
0.0
 10
5.514994548318597
 20
2.564310576674165
 10
5.514994548318597
 20
2.535530435521817
 10
5.514994548318597
 20
2.521140364945644
 10
5.514994548318597
 20
2.535530435521817
  0
LWPOLYLINE
  5
1A5
100
AcDbEntity
  8
USP-GEO
100
AcDbPolyline
 90
        4
 70
   129
 43
0.0
 10
5.514994548318597
 20
3.0391829056879
 10
5.514994548318597
 20
3.067963046840247
 10
5.514994548318597
 20
3.0391829056879
 10
5.514994548318597
 20
3.024792835111725
  0
LWPOLYLINE
  5
1A6
100
AcDbEntity
  8
USP-GEO
100
AcDbPolyline
 90
        8
 70
   129
 43
0.0
 10
5.514994548318597
 20
3.067963046840247
 10
5.514994548318597
 20
3.111852762097576
 10
5.514994548318597
 20
3.155022973826099
 10
5.514994548318597
 20
3.19819318555462
 10
5.514994548318597
 20
3.212583256130793
 10
5.514994548318597
 20
3.19819318555462
 10
5.514994548318597
 20
3.155022973826099
 10
5.514994548318597
 20
3.111852762097576
  0
LWPOLYLINE
  5
1A7
100
AcDbEntity
  8
USP-GEO
100
AcDbPolyline
 90
        2
 70
   129
 43
0.0
 10
5.514994548318597
 20
2.564310576674165
 10
5.514994548318597
 20
2.62187085897886
  0
LWPOLYLINE
  5
1A8
100
AcDbEntity
  8
USP-GEO
100
AcDbPolyline
 90
       14
 70
   129
 43
0.0
 10
5.514994548318597
 20
3.111852762097576
 10
5.514994548318597
 20
3.067963046840247
 10
5.514994548318597
 20
3.0391829056879
 10
5.514994548318597
 20
3.024792835111725
 10
5.601334971775639
 20
3.024792835111725
 10
5.601334971775639
 20
3.0391829056879
 10
5.601334971775639
 20
3.067963046840247
 10
5.601334971775639
 20
3.111852762097576
 10
5.601334971775639
 20
3.155022973826099
 10
5.601334971775639
 20
3.19819318555462
 10
5.601334971775639
 20
3.212583256130793
 10
5.514994548318597
 20
3.212583256130793
 10
5.514994548318597
 20
3.19819318555462
 10
5.514994548318597
 20
3.155022973826099
  0
LWPOLYLINE
  5
1A9
100
AcDbEntity
  8
USP-GEO
100
AcDbPolyline
 90
       14
 70
   129
 43
0.0
 10
5.514994548318597
 20
2.62187085897886
 10
5.514994548318597
 20
2.564310576674165
 10
5.514994548318597
 20
2.535530435521817
 10
5.514994548318597
 20
2.521140364945644
 10
5.601334971775639
 20
2.521140364945644
 10
5.601334971775639
 20
2.535530435521817
 10
5.601334971775639
 20
2.564310576674165
 10
5.601334971775639
 20
2.62187085897886
 10
5.601334971775639
 20
2.665041070707381
 10
5.601334971775639
 20
2.693821211859729
 10
5.601334971775639
 20
2.708211282435902
 10
5.514994548318597
 20
2.708211282435902
 10
5.514994548318597
 20
2.693821211859729
 10
5.514994548318597
 20
2.665041070707381
  0
LWPOLYLINE
  5
1AA
100
AcDbEntity
  8
USP-GEO
100
AcDbPolyline
 90
        2
 70
   129
 43
0.0
 10
5.601334971775639
 20
4.292558052872635
 10
5.601334971775639
 20
4.27816798229646
  0
LWPOLYLINE
  5
1AB
100
AcDbEntity
  8
USP-GEO
100
AcDbPolyline
 90
        2
 70
   129
 43
0.0
 10
5.514994548318597
 20
4.27816798229646
 10
5.514994548318597
 20
4.292558052872635
  0
LWPOLYLINE
  5
1AC
100
AcDbEntity
  8
USP-GEO
100
AcDbPolyline
 90
       12
 70
   129
 43
0.0
 10
6.004256947908505
 20
5.113511579243349
 10
6.018647018484678
 20
5.055951296938653
 10
6.047427159637027
 20
5.027171155786305
 10
6.090597371365547
 20
5.012781085210132
 10
6.134487086622879
 20
5.027171155786305
 10
6.177657298351398
 20
5.055951296938653
 10
6.192047368927575
 20
5.113511579243349
 10
6.177657298351398
 20
5.15668179097187
 10
6.134487086622879
 20
5.185461932124217
 10
6.090597371365547
 20
5.19985200270039
 10
6.047427159637027
 20
5.185461932124217
 10
6.018647018484678
 20
5.15668179097187
  0
LWPOLYLINE
  5
1AD
100
AcDbEntity
  8
USP-GEO
100
AcDbPolyline
 90
        4
 70
   129
 43
0.0
 10
5.514994548318597
 20
5.488372917752675
 10
5.514994548318597
 20
5.214242073276565
 10
5.601334971775639
 20
5.214242073276565
 10
5.601334971775639
 20
5.488372917752675
  0
LWPOLYLINE
  5
1AE
100
AcDbEntity
  8
USP-GEO
100
AcDbPolyline
 90
        6
 70
   129
 43
0.0
 10
5.601334971775639
 20
4.825710167719874
 10
5.601334971775639
 20
4.782539955991351
 10
5.601334971775639
 20
4.825710167719874
 10
5.601334971775639
 20
4.868880379448395
 10
5.601334971775639
 20
4.912050591176916
 10
5.601334971775639
 20
4.868880379448395
  0
LWPOLYLINE
  5
1AF
100
AcDbEntity
  8
USP-GEO
100
AcDbPolyline
 90
        2
 70
   129
 43
0.0
 10
5.601334971775639
 20
4.955220802905436
 10
5.601334971775639
 20
4.940830732329263
  0
LWPOLYLINE
  5
1B0
100
AcDbEntity
  8
USP-GEO
100
AcDbPolyline
 90
        2
 70
   129
 43
0.0
 10
5.601334971775639
 20
4.912050591176916
 10
5.601334971775639
 20
4.940830732329263
  0
LWPOLYLINE
  5
1B1
100
AcDbEntity
  8
USP-GEO
100
AcDbPolyline
 90
        2
 70
   128
 43
0.0
 10
5.514994548318597
 20
4.868880379448395
 10
5.514994548318597
 20
4.912050591176916
  0
LWPOLYLINE
  5
1B2
100
AcDbEntity
  8
USP-GEO
100
AcDbPolyline
 90
        4
 70
   129
 43
0.0
 10
5.514994548318597
 20
4.955220802905436
 10
5.514994548318597
 20
4.940830732329263
 10
5.514994548318597
 20
4.912050591176916
 10
5.514994548318597
 20
4.940830732329263
  0
LWPOLYLINE
  5
1B3
100
AcDbEntity
  8
USP-GEO
100
AcDbPolyline
 90
        2
 70
   128
 43
0.0
 10
5.514994548318597
 20
4.912050591176916
 10
5.514994548318597
 20
4.868880379448395
  0
LWPOLYLINE
  5
1B4
100
AcDbEntity
  8
USP-GEO
100
AcDbPolyline
 90
        4
 70
   129
 43
0.0
 10
5.514994548318597
 20
4.825710167719874
 10
5.514994548318597
 20
4.868880379448395
 10
5.514994548318597
 20
4.825710167719874
 10
5.514994548318597
 20
4.782539955991351
  0
LWPOLYLINE
  5
1B5
100
AcDbEntity
  8
USP-GEO
100
AcDbPolyline
 90
        4
 70
   128
 43
0.0
 10
5.601334971775639
 20
5.214242073276565
 10
5.601334971775639
 20
5.185461932124217
 10
5.601334971775639
 20
5.15668179097187
 10
5.601334971775639
 20
5.127901649819522
  0
LWPOLYLINE
  5
1B6
100
AcDbEntity
  8
USP-GEO
100
AcDbPolyline
 90
        6
 70
   128
 43
0.0
 10
5.601334971775639
 20
4.638639250229614
 10
5.601334971775639
 20
5.127901649819522
 10
5.514994548318597
 20
5.127901649819522
 10
5.514994548318597
 20
5.15668179097187
 10
5.514994548318597
 20
5.185461932124217
 10
5.514994548318597
 20
5.214242073276565
  0
LWPOLYLINE
  5
1B7
100
AcDbEntity
  8
USP-GEO
100
AcDbPolyline
 90
        6
 70
   128
 43
0.0
 10
5.601334971775639
 20
4.551579323243762
 10
5.601334971775639
 20
4.58035946439611
 10
5.601334971775639
 20
4.609859109077266
 10
5.601334971775639
 20
4.638639250229614
 10
5.514994548318597
 20
4.638639250229614
 10
5.514994548318597
 20
5.127901649819522
  0
LWPOLYLINE
  5
1B8
100
AcDbEntity
  8
USP-GEO
100
AcDbPolyline
 90
        2
 70
   129
 43
0.0
 10
5.602054475304448
 20
4.782539955991351
 10
5.601334971775639
 20
4.782539955991351
  0
LWPOLYLINE
  5
1B9
100
AcDbEntity
  8
USP-GEO
100
AcDbPolyline
 90
       12
 70
   129
 43
0.0
 10
5.514994548318597
 20
4.955220802905436
 10
5.514994548318597
 20
4.940830732329263
 10
5.514994548318597
 20
4.912050591176916
 10
5.514994548318597
 20
4.868880379448395
 10
5.514994548318597
 20
4.825710167719874
 10
5.514994548318597
 20
4.782539955991351
 10
5.601334971775639
 20
4.782539955991351
 10
5.601334971775639
 20
4.825710167719874
 10
5.601334971775639
 20
4.868880379448395
 10
5.601334971775639
 20
4.912050591176916
 10
5.601334971775639
 20
4.940830732329263
 10
5.601334971775639
 20
4.955220802905436
  0
LWPOLYLINE
  5
1BA
100
AcDbEntity
  8
USP-GEO
100
AcDbPolyline
 90
        2
 70
   128
 43
0.0
 10
5.514994548318597
 20
4.782539955991351
 10
5.515714051847407
 20
4.782539955991351
  0
LWPOLYLINE
  5
1BB
100
AcDbEntity
  8
USP-GEO
100
AcDbPolyline
 90
        2
 70
   129
 43
0.0
 10
5.515714051847407
 20
4.450848829210546
 10
5.514994548318597
 20
4.450848829210546
  0
LWPOLYLINE
  5
1BC
100
AcDbEntity
  8
USP-GEO
100
AcDbPolyline
 90
       12
 70
   129
 43
0.0
 10
7.21374237983591
 20
5.286192426157434
 10
7.256912591564432
 20
5.314972567309782
 10
7.300082803292955
 20
5.329362637885955
 10
7.343972518550284
 20
5.314972567309782
 10
7.37275265970263
 20
5.286192426157434
 10
7.387142730278807
 20
5.243022214428913
 10
7.37275265970263
 20
5.19985200270039
 10
7.343972518550284
 20
5.171071861548044
 10
7.300082803292955
 20
5.15668179097187
 10
7.256912591564432
 20
5.171071861548044
 10
7.21374237983591
 20
5.19985200270039
 10
7.199352309259737
 20
5.243022214428913
  0
LWPOLYLINE
  5
1BD
100
AcDbEntity
  8
USP-GEO
100
AcDbPolyline
 90
        2
 70
   129
 43
0.0
 10
7.602993788921413
 20
5.488372917752675
 10
7.602993788921413
 20
5.214242073276565
  0
ENDBLK
  5
1BF
100
AcDbEntity
  8
0
100
AcDbBlockEnd
  0
BLOCK
  5
288
100
AcDbEntity
  8
0
100
AcDbBlockBegin
  2
THD26-2_S
 70
     0
 10
0.0
 20
0.0
 30
0.0
  3
THD26-2_S
  1

  0
TEXT
  5
1C2
100
AcDbEntity
  8
USP-TXT
100
AcDbText
 10
-1.071725750051613
 20
-1.077179846957871
 30
-1.050183983838884
 40
0.296875
  1
THD26-2 - SIDE VIEW
 72
     1
 11
1.699107583281718
 21
-1.077179846957871
 31
-1.050183983838884
100
AcDbText
  0
LWPOLYLINE
  5
1C3
100
AcDbEntity
  8
USP-GEO
100
AcDbPolyline
 90
        2
 70
   129
 43
0.0
 10
1.741918043245835
 20
2.00237832067458
 10
3.167974037344656
 20
0.3029109856284577
  0
LWPOLYLINE
  5
1C4
100
AcDbEntity
  8
USP-GEO
100
AcDbPolyline
 90
        6
 70
   129
 43
0.0
 10
0.2014609880664331
 20
0.0870599269858499
 10
0.2446311997949548
 20
0.0870599269858499
 10
0.2014609880664331
 20
0.0870599269858499
 10
0.2446311997949548
 20
0.0870599269858499
 10
0.2014609880664331
 20
0.0870599269858499
 10
3.196754178497004
 20
0.0870599269858499
  0
LWPOLYLINE
  5
1C5
100
AcDbEntity
  8
USP-GEO
100
AcDbPolyline
 90
       10
 70
   128
 43
0.0
 10
0.2014609880664331
 20
0.230960632747589
 10
0.2014609880664331
 20
0.0870599269858499
 10
0.2014609880664331
 20
0.0
 10
0.2014609880664331
 20
0.230960632747589
 10
0.2014609880664331
 20
0.0
 10
3.196754178497004
 20
0.0
 10
3.196754178497004
 20
0.230960632747589
 10
3.196754178497004
 20
0.0
 10
3.196754178497004
 20
0.0870599269858499
 10
3.196754178497004
 20
0.230960632747589
  0
LWPOLYLINE
  5
1C6
100
AcDbEntity
  8
USP-GEO
100
AcDbPolyline
 90
        2
 70
   129
 43
0.0
 10
3.196754178497004
 20
0.0
 10
0.2014609880664331
 20
0.0
  0
LWPOLYLINE
  5
1C7
100
AcDbEntity
  8
USP-GEO
100
AcDbPolyline
 90
       19
 70
   128
 43
0.0
 10
0.0719503528808696
 20
0.4180315502378474
 10
0.1726808469140852
 20
0.3029109856284577
 10
0.1870709174902592
 20
0.2885209150522829
 10
0.1870709174902592
 20
0.2597407738999351
 10
0.2014609880664331
 20
0.230960632747589
 10
0.2014609880664331
 20
0.0870599269858499
 10
3.196754178497004
 20
0.0870599269858499
 10
3.196754178497004
 20
0.230960632747589
 10
3.196754178497004
 20
0.2597407738999351
 10
3.18236410792083
 20
0.2885209150522829
 10
3.167974037344656
 20
0.3029109856284577
 10
1.741918043245835
 20
2.00237832067458
 10
1.655577619788792
 20
2.146279026436317
 10
1.741918043245835
 20
2.00237832067458
 10
1.655577619788792
 20
2.146279026436317
 10
1.598017337484098
 20
2.319679376879211
 10
1.56923719633175
 20
2.492360223793296
 10
1.598017337484098
 20
2.319679376879211
 10
1.56923719633175
 20
2.492360223793296
  0
LWPOLYLINE
  5
1C8
100
AcDbEntity
  8
USP-GEO
100
AcDbPolyline
 90
        2
 70
   129
 43
0.0
 10
1.741918043245835
 20
2.00237832067458
 10
3.167974037344656
 20
0.3029109856284577
  0
LWPOLYLINE
  5
1C9
100
AcDbEntity
  8
USP-GEO
100
AcDbPolyline
 90
        2
 70
   128
 43
0.0
 10
3.196754178497004
 20
0.0870599269858499
 10
0.2014609880664331
 20
0.0870599269858499
  0
LWPOLYLINE
  5
1CA
100
AcDbEntity
  8
USP-GEO
100
AcDbPolyline
 90
       14
 70
   129
 43
0.0
 10
0.0
 20
2.146279026436317
 10
0.0
 20
2.00237832067458
 10
0.0
 20
0.4180315502378474
 10
0.0
 20
5.488372917752675
 10
0.0
 20
5.214242073276565
 10
0.0
 20
5.185461932124217
 10
0.0
 20
5.15668179097187
 10
0.0
 20
5.127901649819522
 10
0.0
 20
4.638639250229614
 10
0.0
 20
4.609859109077266
 10
0.0
 20
4.58035946439611
 10
0.0
 20
4.551579323243762
 10
0.0
 20
2.492360223793296
 10
0.0
 20
2.319679376879211
  0
LWPOLYLINE
  5
1CB
100
AcDbEntity
  8
USP-GEO
100
AcDbPolyline
 90
        4
 70
   128
 43
0.0
 10
0.0719503528808696
 20
0.4180315502378474
 10
0.0
 20
0.4180315502378474
 10
0.0719503528808696
 20
0.4180315502378474
 10
0.0719503528808696
 20
5.488372917752675
  0
LWPOLYLINE
  5
1CC
100
AcDbEntity
  8
USP-GEO
100
AcDbPolyline
 90
       14
 70
   129
 43
0.0
 10
0.0719503528808696
 20
0.4180315502378474
 10
0.0719503528808696
 20
2.00237832067458
 10
0.0719503528808696
 20
2.146279026436317
 10
0.0719503528808696
 20
2.319679376879211
 10
0.0719503528808696
 20
2.492360223793296
 10
0.0719503528808696
 20
4.551579323243762
 10
0.0719503528808696
 20
4.58035946439611
 10
0.0719503528808696
 20
4.609859109077266
 10
0.0719503528808696
 20
4.638639250229614
 10
0.0719503528808696
 20
5.127901649819522
 10
0.0719503528808696
 20
5.15668179097187
 10
0.0719503528808696
 20
5.185461932124217
 10
0.0719503528808696
 20
5.214242073276565
 10
0.0719503528808696
 20
5.488372917752675
  0
LWPOLYLINE
  5
1CD
100
AcDbEntity
  8
USP-GEO
100
AcDbPolyline
 90
       14
 70
   129
 43
0.0
 10
0.0719503528808696
 20
5.488372917752675
 10
0.0719503528808696
 20
5.214242073276565
 10
0.0719503528808696
 20
5.185461932124217
 10
0.0719503528808696
 20
5.15668179097187
 10
0.0719503528808696
 20
5.127901649819522
 10
0.0719503528808696
 20
4.638639250229614
 10
0.0719503528808696
 20
4.609859109077266
 10
0.0719503528808696
 20
4.58035946439611
 10
0.0719503528808696
 20
4.551579323243762
 10
0.0719503528808696
 20
2.492360223793296
 10
0.0719503528808696
 20
2.319679376879211
 10
0.0719503528808696
 20
2.146279026436317
 10
0.0719503528808696
 20
2.00237832067458
 10
0.0719503528808696
 20
0.4180315502378474
  0
LWPOLYLINE
  5
1CE
100
AcDbEntity
  8
USP-GEO
100
AcDbPolyline
 90
        3
 70
   128
 43
0.0
 10
1.065584726165668
 20
5.488372917752675
 10
0.0
 20
5.488372917752675
 10
0.0
 20
0.4180315502378474
  0
LWPOLYLINE
  5
1CF
100
AcDbEntity
  8
USP-GEO
100
AcDbPolyline
 90
        4
 70
   129
 43
0.0
 10
0.0719503528808696
 20
0.4180315502378474
 10
0.0719503528808696
 20
2.00237832067458
 10
0.0
 20
2.00237832067458
 10
0.0
 20
0.4180315502378474
  0
LWPOLYLINE
  5
1D0
100
AcDbEntity
  8
USP-GEO
100
AcDbPolyline
 90
       14
 70
   129
 43
0.0
 10
0.0
 20
2.146279026436317
 10
0.0
 20
2.319679376879211
 10
0.0
 20
2.492360223793296
 10
0.0
 20
4.551579323243762
 10
0.0
 20
4.58035946439611
 10
0.0
 20
4.609859109077266
 10
0.0
 20
4.638639250229614
 10
0.0
 20
5.127901649819522
 10
0.0
 20
5.15668179097187
 10
0.0
 20
5.185461932124217
 10
0.0
 20
5.214242073276565
 10
0.0
 20
5.488372917752675
 10
0.0
 20
0.4180315502378474
 10
0.0
 20
2.00237832067458
  0
LWPOLYLINE
  5
1D1
100
AcDbEntity
  8
USP-GEO
100
AcDbPolyline
 90
        2
 70
   129
 43
0.0
 10
0.1726808469140852
 20
0.3029109856284577
 10
0.0719503528808696
 20
0.4180315502378474
  0
LWPOLYLINE
  5
1D2
100
AcDbEntity
  8
USP-GEO
100
AcDbPolyline
 90
        2
 70
   129
 43
0.0
 10
0.1726808469140852
 20
0.3029109856284577
 10
0.0719503528808696
 20
0.4180315502378474
  0
LWPOLYLINE
  5
1D3
100
AcDbEntity
  8
USP-GEO
100
AcDbPolyline
 90
        2
 70
   129
 43
0.0
 10
0.0
 20
0.4180315502378474
 10
0.0719503528808696
 20
0.4180315502378474
  0
LWPOLYLINE
  5
1D4
100
AcDbEntity
  8
USP-GEO
100
AcDbPolyline
 90
        2
 70
   129
 43
0.0
 10
0.2014609880664331
 20
0.0
 10
0.2014609880664331
 20
0.0870599269858499
  0
LWPOLYLINE
  5
1D5
100
AcDbEntity
  8
USP-GEO
100
AcDbPolyline
 90
        2
 70
   129
 43
0.0
 10
0.2878014115234757
 20
0.0
 10
0.2878014115234757
 20
0.0870599269858499
  0
LWPOLYLINE
  5
1D6
100
AcDbEntity
  8
USP-GEO
100
AcDbPolyline
 90
        3
 70
   129
 43
0.0
 10
0.2014609880664331
 20
0.0870599269858499
 10
0.2014609880664331
 20
0.0
 10
0.2014609880664331
 20
0.230960632747589
  0
LWPOLYLINE
  5
1D7
100
AcDbEntity
  8
USP-GEO
100
AcDbPolyline
 90
        2
 70
   129
 43
0.0
 10
0.2878014115234757
 20
0.0
 10
0.2878014115234757
 20
0.0870599269858499
  0
LWPOLYLINE
  5
1D8
100
AcDbEntity
  8
USP-GEO
100
AcDbPolyline
 90
        8
 70
   129
 43
0.0
 10
0.2014609880664331
 20
0.0870599269858499
 10
0.2014609880664331
 20
0.0
 10
0.2446311997949548
 20
0.0
 10
0.2734113409473018
 20
0.0
 10
0.2878014115234757
 20
0.0
 10
0.2878014115234757
 20
0.0870599269858499
 10
0.2734113409473018
 20
0.0870599269858499
 10
0.2446311997949548
 20
0.0870599269858499
  0
LWPOLYLINE
  5
1D9
100
AcDbEntity
  8
USP-GEO
100
AcDbPolyline
 90
        3
 70
   128
 43
0.0
 10
0.1870709174902592
 20
0.2885209150522829
 10
0.1726808469140852
 20
0.3029109856284577
 10
0.1870709174902592
 20
0.2885209150522829
  0
LWPOLYLINE
  5
1DA
100
AcDbEntity
  8
USP-GEO
100
AcDbPolyline
 90
        9
 70
   128
 43
0.0
 10
0.2734113409473018
 20
0.0870599269858499
 10
0.2878014115234757
 20
0.0870599269858499
 10
0.2734113409473018
 20
0.0870599269858499
 10
0.2878014115234757
 20
0.0870599269858499
 10
0.2734113409473018
 20
0.0870599269858499
 10
0.2446311997949548
 20
0.0870599269858499
 10
0.2734113409473018
 20
0.0870599269858499
 10
0.2446311997949548
 20
0.0870599269858499
 10
0.2734113409473018
 20
0.0870599269858499
  0
LWPOLYLINE
  5
1DB
100
AcDbEntity
  8
USP-GEO
100
AcDbPolyline
 90
        4
 70
   129
 43
0.0
 10
0.2446311997949548
 20
0.0
 10
0.2014609880664331
 20
0.0
 10
0.2446311997949548
 20
0.0
 10
0.2014609880664331
 20
0.0
  0
LWPOLYLINE
  5
1DC
100
AcDbEntity
  8
USP-GEO
100
AcDbPolyline
 90
        9
 70
   128
 43
0.0
 10
0.2734113409473018
 20
0.0
 10
0.2878014115234757
 20
0.0
 10
0.2734113409473018
 20
0.0
 10
0.2878014115234757
 20
0.0
 10
0.2734113409473018
 20
0.0
 10
0.2446311997949548
 20
0.0
 10
0.2734113409473018
 20
0.0
 10
0.2446311997949548
 20
0.0
 10
0.2734113409473018
 20
0.0
  0
LWPOLYLINE
  5
1DD
100
AcDbEntity
  8
USP-GEO
100
AcDbPolyline
 90
        3
 70
   128
 43
0.0
 10
0.1870709174902592
 20
0.2597407738999351
 10
0.1870709174902592
 20
0.2885209150522829
 10
0.1870709174902592
 20
0.2597407738999351
  0
LWPOLYLINE
  5
1DE
100
AcDbEntity
  8
USP-GEO
100
AcDbPolyline
 90
       12
 70
   129
 43
0.0
 10
1.180705290775058
 20
1.152644653151519
 10
1.209485431927405
 20
1.195814864880039
 10
1.252655643655927
 20
1.210204935456212
 10
1.310215925960622
 20
1.195814864880039
 10
1.33899606711297
 20
1.152644653151519
 10
1.353386137689144
 20
1.109474441422996
 10
1.33899606711297
 20
1.066304229694475
 10
1.310215925960622
 20
1.037524088542127
 10
1.252655643655927
 20
1.023134017965954
 10
1.209485431927405
 20
1.037524088542127
 10
1.180705290775058
 20
1.066304229694475
 10
1.166315220198884
 20
1.109474441422996
  0
LWPOLYLINE
  5
1DF
100
AcDbEntity
  8
USP-GEO
100
AcDbPolyline
 90
       12
 70
   129
 43
0.0
 10
1.180705290775058
 20
2.909672270502335
 10
1.209485431927405
 20
2.938452411654683
 10
1.252655643655927
 20
2.952842482230856
 10
1.310215925960622
 20
2.938452411654683
 10
1.33899606711297
 20
2.909672270502335
 10
1.353386137689144
 20
2.866502058773814
 10
1.33899606711297
 20
2.823331847045293
 10
1.310215925960622
 20
2.780161635316771
 10
1.252655643655927
 20
2.780161635316771
 10
1.209485431927405
 20
2.780161635316771
 10
1.180705290775058
 20
2.823331847045293
 10
1.166315220198884
 20
2.866502058773814
  0
LWPOLYLINE
  5
1E0
100
AcDbEntity
  8
USP-GEO
100
AcDbPolyline
 90
       12
 70
   129
 43
0.0
 10
1.166315220198884
 20
4.609859109077266
 10
1.180705290775058
 20
4.667419391381962
 10
1.209485431927405
 20
4.696199532534309
 10
1.252655643655927
 20
4.710589603110483
 10
1.310215925960622
 20
4.696199532534309
 10
1.33899606711297
 20
4.667419391381962
 10
1.353386137689144
 20
4.609859109077266
 10
1.33899606711297
 20
4.565969393819937
 10
1.310215925960622
 20
4.537189252667589
 10
1.252655643655927
 20
4.522799182091416
 10
1.209485431927405
 20
4.537189252667589
 10
1.180705290775058
 20
4.565969393819937
  0
LWPOLYLINE
  5
1E1
100
AcDbEntity
  8
USP-GEO
100
AcDbPolyline
 90
        2
 70
   129
 43
0.0
 10
1.108754937894189
 20
5.127901649819522
 10
1.540457055179402
 20
4.638639250229614
  0
LWPOLYLINE
  5
1E2
100
AcDbEntity
  8
USP-GEO
100
AcDbPolyline
 90
       12
 70
   129
 43
0.0
 10
1.180705290775058
 20
2.564310576674165
 10
1.166315220198884
 20
2.62187085897886
 10
1.180705290775058
 20
2.665041070707381
 10
1.209485431927405
 20
2.693821211859729
 10
1.252655643655927
 20
2.708211282435902
 10
1.310215925960622
 20
2.693821211859729
 10
1.33899606711297
 20
2.665041070707381
 10
1.353386137689144
 20
2.62187085897886
 10
1.33899606711297
 20
2.564310576674165
 10
1.310215925960622
 20
2.535530435521817
 10
1.252655643655927
 20
2.521140364945644
 10
1.209485431927405
 20
2.535530435521817
  0
LWPOLYLINE
  5
1E3
100
AcDbEntity
  8
USP-GEO
100
AcDbPolyline
 90
       12
 70
   129
 43
0.0
 10
1.252655643655927
 20
0.7777833146421909
 10
1.310215925960622
 20
0.7777833146421909
 10
1.33899606711297
 20
0.8216730298995216
 10
1.353386137689144
 20
0.8648432416280424
 10
1.33899606711297
 20
0.9080134533565651
 10
1.310215925960622
 20
0.9367935945089111
 10
1.252655643655927
 20
0.951183665085086
 10
1.209485431927405
 20
0.9367935945089111
 10
1.180705290775058
 20
0.9080134533565651
 10
1.166315220198884
 20
0.8648432416280424
 10
1.180705290775058
 20
0.8216730298995216
 10
1.209485431927405
 20
0.7777833146421909
  0
LWPOLYLINE
  5
1E4
100
AcDbEntity
  8
USP-GEO
100
AcDbPolyline
 90
       12
 70
   129
 43
0.0
 10
1.180705290775058
 20
4.321338194024983
 10
1.209485431927405
 20
4.292558052872635
 10
1.252655643655927
 20
4.27816798229646
 10
1.310215925960622
 20
4.292558052872635
 10
1.33899606711297
 20
4.321338194024983
 10
1.353386137689144
 20
4.364508405753504
 10
1.33899606711297
 20
4.407678617482025
 10
1.310215925960622
 20
4.450848829210546
 10
1.252655643655927
 20
4.450848829210546
 10
1.209485431927405
 20
4.450848829210546
 10
1.180705290775058
 20
4.407678617482025
 10
1.166315220198884
 20
4.364508405753504
  0
LWPOLYLINE
  5
1E5
100
AcDbEntity
  8
USP-GEO
100
AcDbPolyline
 90
        6
 70
   128
 43
0.0
 10
1.108754937894189
 20
5.127901649819522
 10
1.540457055179402
 20
4.638639250229614
 10
1.554847125755576
 20
4.609859109077266
 10
1.56923719633175
 20
4.58035946439611
 10
1.56923719633175
 20
4.551579323243762
 10
1.56923719633175
 20
2.492360223793296
  0
LWPOLYLINE
  5
1E6
100
AcDbEntity
  8
USP-GEO
100
AcDbPolyline
 90
        2
 70
   129
 43
0.0
 10
1.108754937894189
 20
5.127901649819522
 10
1.540457055179402
 20
4.638639250229614
  0
LWPOLYLINE
  5
1E7
100
AcDbEntity
  8
USP-GEO
100
AcDbPolyline
 90
        3
 70
   128
 43
0.0
 10
1.180705290775058
 20
4.407678617482025
 10
1.166315220198884
 20
4.364508405753504
 10
1.180705290775058
 20
4.407678617482025
  0
LWPOLYLINE
  5
1E8
100
AcDbEntity
  8
USP-GEO
100
AcDbPolyline
 90
        3
 70
   128
 43
0.0
 10
1.180705290775058
 20
2.665041070707381
 10
1.166315220198884
 20
2.62187085897886
 10
1.180705290775058
 20
2.665041070707381
  0
LWPOLYLINE
  5
1E9
100
AcDbEntity
  8
USP-GEO
100
AcDbPolyline
 90
        3
 70
   128
 43
0.0
 10
1.180705290775058
 20
0.9080134533565651
 10
1.166315220198884
 20
0.8648432416280424
 10
1.180705290775058
 20
0.9080134533565651
  0
LWPOLYLINE
  5
1EA
100
AcDbEntity
  8
USP-GEO
100
AcDbPolyline
 90
        4
 70
   129
 43
0.0
 10
0.0
 20
2.492360223793296
 10
0.0719503528808696
 20
2.492360223793296
 10
0.0719503528808696
 20
4.551579323243762
 10
0.0
 20
4.551579323243762
  0
LWPOLYLINE
  5
1EB
100
AcDbEntity
  8
USP-GEO
100
AcDbPolyline
 90
        6
 70
   129
 43
0.0
 10
0.0
 20
2.477970153217123
 10
0.0
 20
2.4347999414886
 10
0.0
 20
2.406019800336254
 10
0.0
 20
2.391629729760079
 10
0.0
 20
2.406019800336254
 10
0.0
 20
2.4347999414886
  0
LWPOLYLINE
  5
1EC
100
AcDbEntity
  8
USP-GEO
100
AcDbPolyline
 90
        2
 70
   129
 43
0.0
 10
0.0719503528808696
 20
2.406019800336254
 10
0.0719503528808696
 20
2.391629729760079
  0
LWPOLYLINE
  5
1ED
100
AcDbEntity
  8
USP-GEO
100
AcDbPolyline
 90
        8
 70
   129
 43
0.0
 10
0.0719503528808696
 20
2.521140364945644
 10
0.0719503528808696
 20
2.477970153217123
 10
0.0719503528808696
 20
2.4347999414886
 10
0.0719503528808696
 20
2.406019800336254
 10
0.0719503528808696
 20
2.391629729760079
 10
0.0719503528808696
 20
2.406019800336254
 10
0.0719503528808696
 20
2.4347999414886
 10
0.0719503528808696
 20
2.477970153217123
  0
LWPOLYLINE
  5
1EE
100
AcDbEntity
  8
USP-GEO
100
AcDbPolyline
 90
        4
 70
   128
 43
0.0
 10
0.0719503528808696
 20
2.00237832067458
 10
0.0719503528808696
 20
2.146279026436317
 10
0.0719503528808696
 20
2.319679376879211
 10
0.0719503528808696
 20
2.492360223793296
  0
LWPOLYLINE
  5
1EF
100
AcDbEntity
  8
USP-GEO
100
AcDbPolyline
 90
        4
 70
   128
 43
0.0
 10
0.0
 20
2.492360223793296
 10
0.0
 20
2.319679376879211
 10
0.0
 20
2.146279026436317
 10
0.0
 20
2.00237832067458
  0
LWPOLYLINE
  5
1F0
100
AcDbEntity
  8
USP-GEO
100
AcDbPolyline
 90
       12
 70
   129
 43
0.0
 10
0.0
 20
2.477970153217123
 10
0.0
 20
2.521140364945644
 10
0.0
 20
2.564310576674165
 10
0.0719503528808696
 20
2.564310576674165
 10
0.0719503528808696
 20
2.521140364945644
 10
0.0719503528808696
 20
2.477970153217123
 10
0.0719503528808696
 20
2.4347999414886
 10
0.0719503528808696
 20
2.406019800336254
 10
0.0719503528808696
 20
2.391629729760079
 10
0.0
 20
2.391629729760079
 10
0.0
 20
2.406019800336254
 10
0.0
 20
2.4347999414886
  0
LWPOLYLINE
  5
1F1
100
AcDbEntity
  8
USP-GEO
100
AcDbPolyline
 90
       10
 70
   129
 43
0.0
 10
0.0
 20
2.391629729760079
 10
0.0
 20
2.406019800336254
 10
0.0
 20
2.4347999414886
 10
0.0
 20
2.477970153217123
 10
0.0
 20
2.521140364945644
 10
0.0
 20
2.564310576674165
 10
0.0
 20
2.521140364945644
 10
0.0
 20
2.477970153217123
 10
0.0
 20
2.4347999414886
 10
0.0
 20
2.406019800336254
  0
LWPOLYLINE
  5
1F2
100
AcDbEntity
  8
USP-GEO
100
AcDbPolyline
 90
        4
 70
   129
 43
0.0
 10
0.0
 20
1.512396417555862
 10
0.0
 20
1.526786488132035
 10
0.0
 20
1.556286132813193
 10
0.0
 20
1.526786488132035
  0
LWPOLYLINE
  5
1F3
100
AcDbEntity
  8
USP-GEO
100
AcDbPolyline
 90
        6
 70
   129
 43
0.0
 10
0.0
 20
1.685796767998755
 10
0.0
 20
1.642626556270235
 10
0.0
 20
1.599456344541714
 10
0.0
 20
1.642626556270235
 10
0.0
 20
1.685796767998755
 10
0.0
 20
1.70018683857493
  0
LWPOLYLINE
  5
1F4
100
AcDbEntity
  8
USP-GEO
100
AcDbPolyline
 90
        2
 70
   129
 43
0.0
 10
0.0
 20
1.599456344541714
 10
0.0
 20
1.556286132813193
  0
LWPOLYLINE
  5
1F5
100
AcDbEntity
  8
USP-GEO
100
AcDbPolyline
 90
        4
 70
   129
 43
0.0
 10
0.0719503528808696
 20
1.512396417555862
 10
0.0719503528808696
 20
1.526786488132035
 10
0.0719503528808696
 20
1.556286132813193
 10
0.0719503528808696
 20
1.526786488132035
  0
LWPOLYLINE
  5
1F6
100
AcDbEntity
  8
USP-GEO
100
AcDbPolyline
 90
        4
 70
   129
 43
0.0
 10
0.0719503528808696
 20
1.599456344541714
 10
0.0719503528808696
 20
1.556286132813193
 10
0.0719503528808696
 20
1.599456344541714
 10
0.0719503528808696
 20
1.642626556270235
  0
LWPOLYLINE
  5
1F7
100
AcDbEntity
  8
USP-GEO
100
AcDbPolyline
 90
        3
 70
   128
 43
0.0
 10
0.0719503528808696
 20
1.685796767998755
 10
0.0719503528808696
 20
1.70018683857493
 10
0.0719503528808696
 20
1.685796767998755
  0
LWPOLYLINE
  5
1F8
100
AcDbEntity
  8
USP-GEO
100
AcDbPolyline
 90
        2
 70
   129
 43
0.0
 10
0.0719503528808696
 20
1.642626556270235
 10
0.0719503528808696
 20
1.685796767998755
  0
LWPOLYLINE
  5
1F9
100
AcDbEntity
  8
USP-GEO
100
AcDbPolyline
 90
       12
 70
   129
 43
0.0
 10
0.0719503528808696
 20
1.556286132813193
 10
0.0719503528808696
 20
1.599456344541714
 10
0.0719503528808696
 20
1.642626556270235
 10
0.0719503528808696
 20
1.685796767998755
 10
0.0719503528808696
 20
1.70018683857493
 10
0.0719503528808696
 20
1.685796767998755
 10
0.0719503528808696
 20
1.642626556270235
 10
0.0719503528808696
 20
1.599456344541714
 10
0.0719503528808696
 20
1.556286132813193
 10
0.0719503528808696
 20
1.526786488132035
 10
0.0719503528808696
 20
1.512396417555862
 10
0.0719503528808696
 20
1.526786488132035
  0
LWPOLYLINE
  5
1FA
100
AcDbEntity
  8
USP-GEO
100
AcDbPolyline
 90
       14
 70
   129
 43
0.0
 10
0.0719503528808696
 20
1.642626556270235
 10
0.0719503528808696
 20
1.685796767998755
 10
0.0719503528808696
 20
1.70018683857493
 10
0.0
 20
1.70018683857493
 10
0.0
 20
1.685796767998755
 10
0.0
 20
1.642626556270235
 10
0.0
 20
1.599456344541714
 10
0.0
 20
1.556286132813193
 10
0.0
 20
1.526786488132035
 10
0.0
 20
1.512396417555862
 10
0.0719503528808696
 20
1.512396417555862
 10
0.0719503528808696
 20
1.526786488132035
 10
0.0719503528808696
 20
1.556286132813193
 10
0.0719503528808696
 20
1.599456344541714
  0
LWPOLYLINE
  5
1FB
100
AcDbEntity
  8
USP-GEO
100
AcDbPolyline
 90
       12
 70
   129
 43
0.0
 10
0.0
 20
1.685796767998755
 10
0.0
 20
1.70018683857493
 10
0.0
 20
1.685796767998755
 10
0.0
 20
1.642626556270235
 10
0.0
 20
1.599456344541714
 10
0.0
 20
1.556286132813193
 10
0.0
 20
1.526786488132035
 10
0.0
 20
1.512396417555862
 10
0.0
 20
1.526786488132035
 10
0.0
 20
1.556286132813193
 10
0.0
 20
1.599456344541714
 10
0.0
 20
1.642626556270235
  0
LWPOLYLINE
  5
1FC
100
AcDbEntity
  8
USP-GEO
100
AcDbPolyline
 90
        4
 70
   128
 43
0.0
 10
0.0
 20
3.284533609011662
 10
0.0
 20
3.313313750164009
 10
0.0
 20
3.35648396189253
 10
0.0
 20
3.399654173621053
  0
LWPOLYLINE
  5
1FD
100
AcDbEntity
  8
USP-GEO
100
AcDbPolyline
 90
        4
 70
   128
 43
0.0
 10
0.0
 20
3.399654173621053
 10
0.0
 20
3.35648396189253
 10
0.0
 20
3.313313750164009
 10
0.0
 20
3.284533609011662
  0
LWPOLYLINE
  5
1FE
100
AcDbEntity
  8
USP-GEO
100
AcDbPolyline
 90
        6
 70
   129
 43
0.0
 10
0.0719503528808696
 20
3.399654173621053
 10
0.0719503528808696
 20
3.428434314773399
 10
0.0719503528808696
 20
3.442824385349574
 10
0.0719503528808696
 20
3.428434314773399
 10
0.0719503528808696
 20
3.399654173621053
 10
0.0719503528808696
 20
3.35648396189253
  0
LWPOLYLINE
  5
1FF
100
AcDbEntity
  8
USP-GEO
100
AcDbPolyline
 90
       10
 70
   129
 43
0.0
 10
0.0719503528808696
 20
3.428434314773399
 10
0.0719503528808696
 20
3.399654173621053
 10
0.0719503528808696
 20
3.35648396189253
 10
0.0719503528808696
 20
3.313313750164009
 10
0.0719503528808696
 20
3.284533609011662
 10
0.0719503528808696
 20
3.270143538435489
 10
0.0719503528808696
 20
3.284533609011662
 10
0.0719503528808696
 20
3.313313750164009
 10
0.0719503528808696
 20
3.35648396189253
 10
0.0719503528808696
 20
3.399654173621053
  0
LWPOLYLINE
  5
200
100
AcDbEntity
  8
USP-GEO
100
AcDbPolyline
 90
       14
 70
   129
 43
0.0
 10
0.0
 20
3.35648396189253
 10
0.0
 20
3.313313750164009
 10
0.0
 20
3.284533609011662
 10
0.0
 20
3.270143538435489
 10
0.0719503528808696
 20
3.270143538435489
 10
0.0719503528808696
 20
3.284533609011662
 10
0.0719503528808696
 20
3.313313750164009
 10
0.0719503528808696
 20
3.35648396189253
 10
0.0719503528808696
 20
3.399654173621053
 10
0.0719503528808696
 20
3.428434314773399
 10
0.0719503528808696
 20
3.442824385349574
 10
0.0
 20
3.442824385349574
 10
0.0
 20
3.428434314773399
 10
0.0
 20
3.399654173621053
  0
LWPOLYLINE
  5
201
100
AcDbEntity
  8
USP-GEO
100
AcDbPolyline
 90
        4
 70
   129
 43
0.0
 10
0.0
 20
3.35648396189253
 10
0.0
 20
3.399654173621053
 10
0.0
 20
3.428434314773399
 10
0.0
 20
3.399654173621053
  0
LWPOLYLINE
  5
202
100
AcDbEntity
  8
USP-GEO
100
AcDbPolyline
 90
        2
 70
   129
 43
0.0
 10
0.0
 20
3.270143538435489
 10
0.0
 20
3.284533609011662
  0
LWPOLYLINE
  5
203
100
AcDbEntity
  8
USP-GEO
100
AcDbPolyline
 90
        2
 70
   129
 43
0.0
 10
0.0
 20
2.521140364945644
 10
0.0
 20
2.477970153217123
  0
LWPOLYLINE
  5
204
100
AcDbEntity
  8
USP-GEO
100
AcDbPolyline
 90
        2
 70
   129
 43
0.0
 10
0.0
 20
2.521140364945644
 10
0.0
 20
2.564310576674165
  0
LWPOLYLINE
  5
205
100
AcDbEntity
  8
USP-GEO
100
AcDbPolyline
 90
       12
 70
   129
 43
0.0
 10
0.0
 20
3.053572976264073
 10
0.0
 20
3.024792835111725
 10
0.0
 20
3.010402764535552
 10
0.0
 20
3.024792835111725
 10
0.0
 20
3.053572976264073
 10
0.0
 20
3.111852762097576
 10
0.0
 20
3.155022973826099
 10
0.0
 20
3.183803114978445
 10
0.0
 20
3.19819318555462
 10
0.0
 20
3.183803114978445
 10
0.0
 20
3.155022973826099
 10
0.0
 20
3.111852762097576
  0
LWPOLYLINE
  5
206
100
AcDbEntity
  8
USP-GEO
100
AcDbPolyline
 90
        3
 70
   128
 43
0.0
 10
0.0719503528808696
 20
2.477970153217123
 10
0.0719503528808696
 20
2.4347999414886
 10
0.0719503528808696
 20
2.406019800336254
  0
LWPOLYLINE
  5
207
100
AcDbEntity
  8
USP-GEO
100
AcDbPolyline
 90
        3
 70
   128
 43
0.0
 10
0.0719503528808696
 20
2.406019800336254
 10
0.0719503528808696
 20
2.4347999414886
 10
0.0719503528808696
 20
2.477970153217123
  0
LWPOLYLINE
  5
208
100
AcDbEntity
  8
USP-GEO
100
AcDbPolyline
 90
        2
 70
   129
 43
0.0
 10
0.0719503528808696
 20
3.313313750164009
 10
0.0719503528808696
 20
3.284533609011662
  0
LWPOLYLINE
  5
209
100
AcDbEntity
  8
USP-GEO
100
AcDbPolyline
 90
        2
 70
   129
 43
0.0
 10
0.0719503528808696
 20
3.270143538435489
 10
0.0719503528808696
 20
3.284533609011662
  0
LWPOLYLINE
  5
20A
100
AcDbEntity
  8
USP-GEO
100
AcDbPolyline
 90
        2
 70
   129
 43
0.0
 10
0.0719503528808696
 20
3.35648396189253
 10
0.0719503528808696
 20
3.313313750164009
  0
LWPOLYLINE
  5
20B
100
AcDbEntity
  8
USP-GEO
100
AcDbPolyline
 90
       10
 70
   129
 43
0.0
 10
0.0719503528808696
 20
3.053572976264073
 10
0.0719503528808696
 20
3.111852762097576
 10
0.0719503528808696
 20
3.155022973826099
 10
0.0719503528808696
 20
3.183803114978445
 10
0.0719503528808696
 20
3.19819318555462
 10
0.0719503528808696
 20
3.183803114978445
 10
0.0719503528808696
 20
3.155022973826099
 10
0.0719503528808696
 20
3.111852762097576
 10
0.0719503528808696
 20
3.053572976264073
 10
0.0719503528808696
 20
3.024792835111725
  0
LWPOLYLINE
  5
20C
100
AcDbEntity
  8
USP-GEO
100
AcDbPolyline
 90
        2
 70
   129
 43
0.0
 10
0.0719503528808696
 20
3.024792835111725
 10
0.0719503528808696
 20
3.010402764535552
  0
LWPOLYLINE
  5
20D
100
AcDbEntity
  8
USP-GEO
100
AcDbPolyline
 90
        4
 70
   129
 43
0.0
 10
0.0719503528808696
 20
2.477970153217123
 10
0.0719503528808696
 20
2.521140364945644
 10
0.0719503528808696
 20
2.564310576674165
 10
0.0719503528808696
 20
2.521140364945644
  0
LWPOLYLINE
  5
20E
100
AcDbEntity
  8
USP-GEO
100
AcDbPolyline
 90
        2
 70
   129
 43
0.0
 10
0.0726698564096777
 20
2.564310576674165
 10
0.0719503528808696
 20
2.564310576674165
  0
LWPOLYLINE
  5
20F
100
AcDbEntity
  8
USP-GEO
100
AcDbPolyline
 90
        2
 70
   129
 43
0.0
 10
0.0726698564096777
 20
2.564310576674165
 10
0.0719503528808696
 20
2.564310576674165
  0
LWPOLYLINE
  5
210
100
AcDbEntity
  8
USP-GEO
100
AcDbPolyline
 90
        2
 70
   129
 43
0.0
 10
0.0719503528808696
 20
2.521140364945644
 10
0.0719503528808696
 20
2.564310576674165
  0
LWPOLYLINE
  5
211
100
AcDbEntity
  8
USP-GEO
100
AcDbPolyline
 90
        8
 70
   129
 43
0.0
 10
0.0719503528808696
 20
3.053572976264073
 10
0.0719503528808696
 20
3.024792835111725
 10
0.0719503528808696
 20
3.010402764535552
 10
0.0719503528808696
 20
3.024792835111725
 10
0.0719503528808696
 20
3.053572976264073
 10
0.0719503528808696
 20
3.111852762097576
 10
0.0719503528808696
 20
3.155022973826099
 10
0.0719503528808696
 20
3.111852762097576
  0
LWPOLYLINE
  5
212
100
AcDbEntity
  8
USP-GEO
100
AcDbPolyline
 90
        4
 70
   129
 43
0.0
 10
0.0719503528808696
 20
3.183803114978445
 10
0.0719503528808696
 20
3.19819318555462
 10
0.0719503528808696
 20
3.183803114978445
 10
0.0719503528808696
 20
3.155022973826099
  0
LWPOLYLINE
  5
213
100
AcDbEntity
  8
USP-GEO
100
AcDbPolyline
 90
       14
 70
   129
 43
0.0
 10
0.0
 20
3.155022973826099
 10
0.0
 20
3.111852762097576
 10
0.0
 20
3.053572976264073
 10
0.0
 20
3.024792835111725
 10
0.0
 20
3.010402764535552
 10
0.0719503528808696
 20
3.010402764535552
 10
0.0719503528808696
 20
3.024792835111725
 10
0.0719503528808696
 20
3.053572976264073
 10
0.0719503528808696
 20
3.111852762097576
 10
0.0719503528808696
 20
3.155022973826099
 10
0.0719503528808696
 20
3.183803114978445
 10
0.0719503528808696
 20
3.19819318555462
 10
0.0
 20
3.19819318555462
 10
0.0
 20
3.183803114978445
  0
LWPOLYLINE
  5
214
100
AcDbEntity
  8
USP-GEO
100
AcDbPolyline
 90
        2
 70
   129
 43
0.0
 10
0.0
 20
3.024792835111725
 10
0.0
 20
3.010402764535552
  0
LWPOLYLINE
  5
215
100
AcDbEntity
  8
USP-GEO
100
AcDbPolyline
 90
        2
 70
   129
 43
0.0
 10
0.0
 20
3.183803114978445
 10
0.0
 20
3.19819318555462
  0
LWPOLYLINE
  5
216
100
AcDbEntity
  8
USP-GEO
100
AcDbPolyline
 90
        6
 70
   129
 43
0.0
 10
0.0
 20
3.053572976264073
 10
0.0
 20
3.111852762097576
 10
0.0
 20
3.155022973826099
 10
0.0
 20
3.111852762097576
 10
0.0
 20
3.053572976264073
 10
0.0
 20
3.024792835111725
  0
LWPOLYLINE
  5
217
100
AcDbEntity
  8
USP-GEO
100
AcDbPolyline
 90
        2
 70
   129
 43
0.0
 10
0.0
 20
3.183803114978445
 10
0.0
 20
3.155022973826099
  0
LWPOLYLINE
  5
218
100
AcDbEntity
  8
USP-GEO
100
AcDbPolyline
 90
        5
 70
   128
 43
0.0
 10
0.0
 20
3.313313750164009
 10
0.0
 20
3.284533609011662
 10
0.0
 20
3.270143538435489
 10
0.0
 20
3.284533609011662
 10
0.0
 20
3.313313750164009
  0
LWPOLYLINE
  5
219
100
AcDbEntity
  8
USP-GEO
100
AcDbPolyline
 90
        2
 70
   129
 43
0.0
 10
0.0
 20
3.313313750164009
 10
0.0
 20
3.35648396189253
  0
LWPOLYLINE
  5
21A
100
AcDbEntity
  8
USP-GEO
100
AcDbPolyline
 90
        2
 70
   129
 43
0.0
 10
0.0
 20
4.27816798229646
 10
0.0
 20
4.306948123448808
  0
LWPOLYLINE
  5
21B
100
AcDbEntity
  8
USP-GEO
100
AcDbPolyline
 90
        3
 70
   128
 43
0.0
 10
0.0
 20
4.306948123448808
 10
0.0
 20
4.321338194024983
 10
0.0
 20
4.306948123448808
  0
LWPOLYLINE
  5
21C
100
AcDbEntity
  8
USP-GEO
100
AcDbPolyline
 90
        2
 70
   129
 43
0.0
 10
0.000719503528809
 20
4.148657347110898
 10
0.0
 20
4.148657347110898
  0
LWPOLYLINE
  5
21D
100
AcDbEntity
  8
USP-GEO
100
AcDbPolyline
 90
        4
 70
   129
 43
0.0
 10
0.0
 20
3.399654173621053
 10
0.0
 20
3.428434314773399
 10
0.0
 20
3.442824385349574
 10
0.0
 20
3.428434314773399
  0
LWPOLYLINE
  5
21E
100
AcDbEntity
  8
USP-GEO
100
AcDbPolyline
 90
        6
 70
   129
 43
0.0
 10
0.0
 20
3.93280628846829
 10
0.0
 20
3.904026147315944
 10
0.0
 20
3.889636076739769
 10
0.0
 20
3.904026147315944
 10
0.0
 20
3.93280628846829
 10
0.0
 20
3.975976500196813
  0
LWPOLYLINE
  5
21F
100
AcDbEntity
  8
USP-GEO
100
AcDbPolyline
 90
        6
 70
   129
 43
0.0
 10
0.0
 20
4.062316923653854
 10
0.0
 20
4.033536782501506
 10
0.0
 20
3.975976500196813
 10
0.0
 20
4.033536782501506
 10
0.0
 20
4.062316923653854
 10
0.0
 20
4.076706994230029
  0
LWPOLYLINE
  5
220
100
AcDbEntity
  8
USP-GEO
100
AcDbPolyline
 90
        6
 70
   129
 43
0.0
 10
0.0
 20
4.27816798229646
 10
0.0
 20
4.23499777056794
 10
0.0
 20
4.191827558839419
 10
0.0
 20
4.148657347110898
 10
0.0
 20
4.191827558839419
 10
0.0
 20
4.23499777056794
  0
LWPOLYLINE
  5
221
100
AcDbEntity
  8
USP-GEO
100
AcDbPolyline
 90
        5
 70
   128
 43
0.0
 10
0.0719503528808696
 20
4.033536782501506
 10
0.0719503528808696
 20
4.062316923653854
 10
0.0719503528808696
 20
4.076706994230029
 10
0.0719503528808696
 20
4.062316923653854
 10
0.0719503528808696
 20
4.033536782501506
  0
LWPOLYLINE
  5
222
100
AcDbEntity
  8
USP-GEO
100
AcDbPolyline
 90
        6
 70
   129
 43
0.0
 10
0.0719503528808696
 20
3.975976500196813
 10
0.0719503528808696
 20
3.93280628846829
 10
0.0719503528808696
 20
3.904026147315944
 10
0.0719503528808696
 20
3.889636076739769
 10
0.0719503528808696
 20
3.904026147315944
 10
0.0719503528808696
 20
3.93280628846829
  0
LWPOLYLINE
  5
223
100
AcDbEntity
  8
USP-GEO
100
AcDbPolyline
 90
        2
 70
   129
 43
0.0
 10
0.0719503528808696
 20
4.191827558839419
 10
0.0719503528808696
 20
4.148657347110898
  0
LWPOLYLINE
  5
224
100
AcDbEntity
  8
USP-GEO
100
AcDbPolyline
 90
        2
 70
   129
 43
0.0
 10
0.0726698564096777
 20
4.148657347110898
 10
0.0719503528808696
 20
4.148657347110898
  0
LWPOLYLINE
  5
225
100
AcDbEntity
  8
USP-GEO
100
AcDbPolyline
 90
        6
 70
   129
 43
0.0
 10
0.0719503528808696
 20
4.27816798229646
 10
0.0719503528808696
 20
4.306948123448808
 10
0.0719503528808696
 20
4.321338194024983
 10
0.0719503528808696
 20
4.306948123448808
 10
0.0719503528808696
 20
4.27816798229646
 10
0.0719503528808696
 20
4.23499777056794
  0
LWPOLYLINE
  5
226
100
AcDbEntity
  8
USP-GEO
100
AcDbPolyline
 90
        2
 70
   129
 43
0.0
 10
0.0719503528808696
 20
4.23499777056794
 10
0.0719503528808696
 20
4.191827558839419
  0
LWPOLYLINE
  5
227
100
AcDbEntity
  8
USP-GEO
100
AcDbPolyline
 90
        2
 70
   129
 43
0.0
 10
0.0719503528808696
 20
4.033536782501506
 10
0.0719503528808696
 20
3.975976500196813
  0
LWPOLYLINE
  5
228
100
AcDbEntity
  8
USP-GEO
100
AcDbPolyline
 90
        2
 70
   129
 43
0.0
 10
0.0719503528808696
 20
4.148657347110898
 10
0.0719503528808696
 20
4.191827558839419
  0
LWPOLYLINE
  5
229
100
AcDbEntity
  8
USP-GEO
100
AcDbPolyline
 90
        2
 70
   129
 43
0.0
 10
0.0726698564096777
 20
4.148657347110898
 10
0.0719503528808696
 20
4.148657347110898
  0
LWPOLYLINE
  5
22A
100
AcDbEntity
  8
USP-GEO
100
AcDbPolyline
 90
        2
 70
   129
 43
0.0
 10
0.0719503528808696
 20
3.442824385349574
 10
0.0719503528808696
 20
3.428434314773399
  0
LWPOLYLINE
  5
22B
100
AcDbEntity
  8
USP-GEO
100
AcDbPolyline
 90
        8
 70
   129
 43
0.0
 10
0.0719503528808696
 20
4.23499777056794
 10
0.0719503528808696
 20
4.191827558839419
 10
0.0719503528808696
 20
4.23499777056794
 10
0.0719503528808696
 20
4.27816798229646
 10
0.0719503528808696
 20
4.306948123448808
 10
0.0719503528808696
 20
4.321338194024983
 10
0.0719503528808696
 20
4.306948123448808
 10
0.0719503528808696
 20
4.27816798229646
  0
LWPOLYLINE
  5
22C
100
AcDbEntity
  8
USP-GEO
100
AcDbPolyline
 90
        4
 70
   129
 43
0.0
 10
0.0719503528808696
 20
4.033536782501506
 10
0.0719503528808696
 20
3.975976500196813
 10
0.0719503528808696
 20
3.93280628846829
 10
0.0719503528808696
 20
3.975976500196813
  0
LWPOLYLINE
  5
22D
100
AcDbEntity
  8
USP-GEO
100
AcDbPolyline
 90
        2
 70
   129
 43
0.0
 10
0.0719503528808696
 20
4.062316923653854
 10
0.0719503528808696
 20
4.033536782501506
  0
LWPOLYLINE
  5
22E
100
AcDbEntity
  8
USP-GEO
100
AcDbPolyline
 90
        4
 70
   129
 43
0.0
 10
0.0719503528808696
 20
3.904026147315944
 10
0.0719503528808696
 20
3.93280628846829
 10
0.0719503528808696
 20
3.904026147315944
 10
0.0719503528808696
 20
3.889636076739769
  0
LWPOLYLINE
  5
22F
100
AcDbEntity
  8
USP-GEO
100
AcDbPolyline
 90
        2
 70
   129
 43
0.0
 10
0.0719503528808696
 20
4.076706994230029
 10
0.0719503528808696
 20
4.062316923653854
  0
LWPOLYLINE
  5
230
100
AcDbEntity
  8
USP-GEO
100
AcDbPolyline
 90
       14
 70
   129
 43
0.0
 10
0.0
 20
4.033536782501506
 10
0.0
 20
3.975976500196813
 10
0.0
 20
3.93280628846829
 10
0.0
 20
3.904026147315944
 10
0.0
 20
3.889636076739769
 10
0.0719503528808696
 20
3.889636076739769
 10
0.0719503528808696
 20
3.904026147315944
 10
0.0719503528808696
 20
3.93280628846829
 10
0.0719503528808696
 20
3.975976500196813
 10
0.0719503528808696
 20
4.033536782501506
 10
0.0719503528808696
 20
4.062316923653854
 10
0.0719503528808696
 20
4.076706994230029
 10
0.0
 20
4.076706994230029
 10
0.0
 20
4.062316923653854
  0
LWPOLYLINE
  5
231
100
AcDbEntity
  8
USP-GEO
100
AcDbPolyline
 90
       12
 70
   128
 43
0.0
 10
0.0719503528808696
 20
4.148657347110898
 10
0.0719503528808696
 20
4.191827558839419
 10
0.0719503528808696
 20
4.23499777056794
 10
0.0719503528808696
 20
4.27816798229646
 10
0.0719503528808696
 20
4.306948123448808
 10
0.0719503528808696
 20
4.321338194024983
 10
0.0
 20
4.321338194024983
 10
0.0
 20
4.306948123448808
 10
0.0
 20
4.27816798229646
 10
0.0
 20
4.23499777056794
 10
0.0
 20
4.191827558839419
 10
0.0
 20
4.148657347110898
  0
LWPOLYLINE
  5
232
100
AcDbEntity
  8
USP-GEO
100
AcDbPolyline
 90
        2
 70
   129
 43
0.0
 10
0.000719503528809
 20
4.148657347110898
 10
0.0
 20
4.148657347110898
  0
LWPOLYLINE
  5
233
100
AcDbEntity
  8
USP-GEO
100
AcDbPolyline
 90
        2
 70
   128
 43
0.0
 10
0.0
 20
4.148657347110898
 10
0.0719503528808696
 20
4.148657347110898
  0
LWPOLYLINE
  5
234
100
AcDbEntity
  8
USP-GEO
100
AcDbPolyline
 90
        2
 70
   129
 43
0.0
 10
0.0
 20
4.062316923653854
 10
0.0
 20
4.076706994230029
  0
LWPOLYLINE
  5
235
100
AcDbEntity
  8
USP-GEO
100
AcDbPolyline
 90
        2
 70
   129
 43
0.0
 10
0.0
 20
3.93280628846829
 10
0.0
 20
3.904026147315944
  0
LWPOLYLINE
  5
236
100
AcDbEntity
  8
USP-GEO
100
AcDbPolyline
 90
        2
 70
   128
 43
0.0
 10
0.0
 20
4.033536782501506
 10
0.0
 20
4.062316923653854
  0
LWPOLYLINE
  5
237
100
AcDbEntity
  8
USP-GEO
100
AcDbPolyline
 90
        4
 70
   129
 43
0.0
 10
0.0
 20
3.93280628846829
 10
0.0
 20
3.975976500196813
 10
0.0
 20
4.033536782501506
 10
0.0
 20
3.975976500196813
  0
LWPOLYLINE
  5
238
100
AcDbEntity
  8
USP-GEO
100
AcDbPolyline
 90
        3
 70
   128
 43
0.0
 10
0.0
 20
3.904026147315944
 10
0.0
 20
3.889636076739769
 10
0.0
 20
3.904026147315944
  0
LWPOLYLINE
  5
239
100
AcDbEntity
  8
USP-GEO
100
AcDbPolyline
 90
       10
 70
   129
 43
0.0
 10
0.0
 20
4.148657347110898
 10
0.0
 20
4.191827558839419
 10
0.0
 20
4.23499777056794
 10
0.0
 20
4.27816798229646
 10
0.0
 20
4.306948123448808
 10
0.0
 20
4.321338194024983
 10
0.0
 20
4.306948123448808
 10
0.0
 20
4.27816798229646
 10
0.0
 20
4.23499777056794
 10
0.0
 20
4.191827558839419
  0
LWPOLYLINE
  5
23A
100
AcDbEntity
  8
USP-GEO
100
AcDbPolyline
 90
        2
 70
   129
 43
0.0
 10
0.0
 20
3.428434314773399
 10
0.0
 20
3.442824385349574
  0
LWPOLYLINE
  5
23B
100
AcDbEntity
  8
USP-GEO
100
AcDbPolyline
 90
        2
 70
   128
 43
0.0
 10
0.0
 20
4.062316923653854
 10
0.0
 20
4.033536782501506
  0
LWPOLYLINE
  5
23C
100
AcDbEntity
  8
USP-GEO
100
AcDbPolyline
 90
       12
 70
   129
 43
0.0
 10
0.676333317080168
 20
1.570676203389366
 10
0.6619432465039941
 20
1.613846415117887
 10
0.676333317080168
 20
1.657016626846409
 10
0.7195035288086889
 20
1.685796767998755
 10
0.7633932440660188
 20
1.70018683857493
 10
0.8065634557945404
 20
1.685796767998755
 10
0.8353435969468874
 20
1.657016626846409
 10
0.8497336675230613
 20
1.613846415117887
 10
0.8353435969468874
 20
1.570676203389366
 10
0.8065634557945404
 20
1.54117655870821
 10
0.7633932440660188
 20
1.526786488132035
 10
0.7195035288086889
 20
1.54117655870821
  0
LWPOLYLINE
  5
23D
100
AcDbEntity
  8
USP-GEO
100
AcDbPolyline
 90
       12
 70
   129
 43
0.0
 10
0.6619432465039941
 20
1.368495711794125
 10
0.676333317080168
 20
1.411665923522646
 10
0.7195035288086889
 20
1.440446064674993
 10
0.7633932440660188
 20
1.454836135251166
 10
0.8065634557945404
 20
1.440446064674993
 10
0.8353435969468874
 20
1.411665923522646
 10
0.8497336675230613
 20
1.368495711794125
 10
0.8353435969468874
 20
1.325325500065604
 10
0.8065634557945404
 20
1.282155288337081
 10
0.7633932440660188
 20
1.267765217760908
 10
0.7195035288086889
 20
1.282155288337081
 10
0.676333317080168
 20
1.325325500065604
  0
LWPOLYLINE
  5
23E
100
AcDbEntity
  8
USP-GEO
100
AcDbPolyline
 90
       12
 70
   129
 43
0.0
 10
0.676333317080168
 20
3.414044244197226
 10
0.7195035288086889
 20
3.442824385349574
 10
0.7633932440660188
 20
3.457214455925747
 10
0.8065634557945404
 20
3.442824385349574
 10
0.8353435969468874
 20
3.414044244197226
 10
0.8497336675230613
 20
3.370874032468705
 10
0.8353435969468874
 20
3.313313750164009
 10
0.8065634557945404
 20
3.284533609011662
 10
0.7633932440660188
 20
3.270143538435489
 10
0.7195035288086889
 20
3.284533609011662
 10
0.676333317080168
 20
3.313313750164009
 10
0.6619432465039941
 20
3.370874032468705
  0
LWPOLYLINE
  5
23F
100
AcDbEntity
  8
USP-GEO
100
AcDbPolyline
 90
       12
 70
   129
 43
0.0
 10
0.6619432465039941
 20
3.111852762097576
 10
0.676333317080168
 20
3.155022973826099
 10
0.7195035288086889
 20
3.19819318555462
 10
0.7633932440660188
 20
3.212583256130793
 10
0.8065634557945404
 20
3.19819318555462
 10
0.8353435969468874
 20
3.155022973826099
 10
0.8497336675230613
 20
3.111852762097576
 10
0.8353435969468874
 20
3.067963046840247
 10
0.8065634557945404
 20
3.0391829056879
 10
0.7633932440660188
 20
3.024792835111725
 10
0.7195035288086889
 20
3.0391829056879
 10
0.676333317080168
 20
3.067963046840247
  0
LWPOLYLINE
  5
240
100
AcDbEntity
  8
USP-GEO
100
AcDbPolyline
 90
        3
 70
   129
 43
0.0
 10
0.0719503528808696
 20
5.488372917752675
 10
0.0
 20
5.488372917752675
 10
1.065584726165668
 20
5.488372917752675
  0
LWPOLYLINE
  5
241
100
AcDbEntity
  8
USP-GEO
100
AcDbPolyline
 90
        2
 70
   128
 43
0.0
 10
1.065584726165668
 20
5.488372917752675
 10
0.0719503528808696
 20
5.488372917752675
  0
LWPOLYLINE
  5
242
100
AcDbEntity
  8
USP-GEO
100
AcDbPolyline
 90
        3
 70
   129
 43
0.0
 10
1.065584726165668
 20
5.488372917752675
 10
0.0
 20
5.488372917752675
 10
0.0719503528808696
 20
5.488372917752675
  0
LWPOLYLINE
  5
243
100
AcDbEntity
  8
USP-GEO
100
AcDbPolyline
 90
       10
 70
   129
 43
0.0
 10
0.0
 20
5.243022214428913
 10
0.0
 20
5.286192426157434
 10
0.0
 20
5.314972567309782
 10
0.0
 20
5.329362637885955
 10
0.0
 20
5.314972567309782
 10
0.0
 20
5.286192426157434
 10
0.0
 20
5.243022214428913
 10
0.0
 20
5.19985200270039
 10
0.0
 20
5.171071861548044
 10
0.0
 20
5.19985200270039
  0
LWPOLYLINE
  5
244
100
AcDbEntity
  8
USP-GEO
100
AcDbPolyline
 90
       12
 70
   129
 43
0.0
 10
0.0719503528808696
 20
5.171071861548044
 10
0.0719503528808696
 20
5.15668179097187
 10
0.0719503528808696
 20
5.171071861548044
 10
0.0719503528808696
 20
5.19985200270039
 10
0.0719503528808696
 20
5.243022214428913
 10
0.0719503528808696
 20
5.286192426157434
 10
0.0719503528808696
 20
5.314972567309782
 10
0.0719503528808696
 20
5.329362637885955
 10
0.0719503528808696
 20
5.314972567309782
 10
0.0719503528808696
 20
5.286192426157434
 10
0.0719503528808696
 20
5.243022214428913
 10
0.0719503528808696
 20
5.19985200270039
  0
LWPOLYLINE
  5
245
100
AcDbEntity
  8
USP-GEO
100
AcDbPolyline
 90
       12
 70
   129
 43
0.0
 10
0.0719503528808696
 20
5.314972567309782
 10
0.0719503528808696
 20
5.286192426157434
 10
0.0719503528808696
 20
5.243022214428913
 10
0.0719503528808696
 20
5.19985200270039
 10
0.0719503528808696
 20
5.171071861548044
 10
0.0719503528808696
 20
5.15668179097187
 10
0.0719503528808696
 20
5.171071861548044
 10
0.0719503528808696
 20
5.19985200270039
 10
0.0719503528808696
 20
5.243022214428913
 10
0.0719503528808696
 20
5.286192426157434
 10
0.0719503528808696
 20
5.314972567309782
 10
0.0719503528808696
 20
5.329362637885955
  0
LWPOLYLINE
  5
246
100
AcDbEntity
  8
USP-GEO
100
AcDbPolyline
 90
        4
 70
   129
 43
0.0
 10
0.0
 20
5.488372917752675
 10
0.0
 20
5.214242073276565
 10
0.0719503528808696
 20
5.214242073276565
 10
0.0719503528808696
 20
5.488372917752675
  0
LWPOLYLINE
  5
247
100
AcDbEntity
  8
USP-GEO
100
AcDbPolyline
 90
       18
 70
   128
 43
0.0
 10
0.0
 20
5.19985200270039
 10
0.0
 20
5.171071861548044
 10
0.0
 20
5.15668179097187
 10
0.0
 20
5.185461932124217
 10
0.0
 20
5.19985200270039
 10
0.0
 20
5.243022214428913
 10
0.0
 20
5.286192426157434
 10
0.0
 20
5.314972567309782
 10
0.0
 20
5.329362637885955
 10
0.0719503528808696
 20
5.329362637885955
 10
0.0719503528808696
 20
5.314972567309782
 10
0.0719503528808696
 20
5.286192426157434
 10
0.0719503528808696
 20
5.243022214428913
 10
0.0719503528808696
 20
5.19985200270039
 10
0.0719503528808696
 20
5.171071861548044
 10
0.0719503528808696
 20
5.15668179097187
 10
0.0719503528808696
 20
5.185461932124217
 10
0.0719503528808696
 20
5.214242073276565
  0
LWPOLYLINE
  5
248
100
AcDbEntity
  8
USP-GEO
100
AcDbPolyline
 90
        4
 70
   129
 43
0.0
 10
0.0
 20
5.286192426157434
 10
0.0
 20
5.314972567309782
 10
0.0
 20
5.329362637885955
 10
0.0
 20
5.314972567309782
  0
LWPOLYLINE
  5
249
100
AcDbEntity
  8
USP-GEO
100
AcDbPolyline
 90
        7
 70
   128
 43
0.0
 10
0.0
 20
5.113511579243349
 10
0.0
 20
5.15668179097187
 10
0.0
 20
5.185461932124217
 10
0.0
 20
5.19985200270039
 10
0.0
 20
5.185461932124217
 10
0.0
 20
5.15668179097187
 10
0.0
 20
5.113511579243349
  0
LWPOLYLINE
  5
24A
100
AcDbEntity
  8
USP-GEO
100
AcDbPolyline
 90
        2
 70
   129
 43
0.0
 10
0.0
 20
5.027171155786305
 10
0.0
 20
5.055951296938653
  0
LWPOLYLINE
  5
24B
100
AcDbEntity
  8
USP-GEO
100
AcDbPolyline
 90
        2
 70
   129
 43
0.0
 10
0.0
 20
5.012781085210132
 10
0.0
 20
5.027171155786305
  0
LWPOLYLINE
  5
24C
100
AcDbEntity
  8
USP-GEO
100
AcDbPolyline
 90
        3
 70
   128
 43
0.0
 10
0.0
 20
5.171071861548044
 10
0.0
 20
5.15668179097187
 10
0.0
 20
5.171071861548044
  0
LWPOLYLINE
  5
24D
100
AcDbEntity
  8
USP-GEO
100
AcDbPolyline
 90
        4
 70
   129
 43
0.0
 10
0.0
 20
4.85449030887222
 10
0.0
 20
4.897660520600743
 10
0.0
 20
4.940830732329263
 10
0.0
 20
4.897660520600743
  0
LWPOLYLINE
  5
24E
100
AcDbEntity
  8
USP-GEO
100
AcDbPolyline
 90
        2
 70
   129
 43
0.0
 10
0.0
 20
5.113511579243349
 10
0.0
 20
5.055951296938653
  0
LWPOLYLINE
  5
24F
100
AcDbEntity
  8
USP-GEO
100
AcDbPolyline
 90
        6
 70
   129
 43
0.0
 10
0.0
 20
4.85449030887222
 10
0.0
 20
4.811320097143699
 10
0.0
 20
4.782539955991351
 10
0.0
 20
4.768149885415178
 10
0.0
 20
4.782539955991351
 10
0.0
 20
4.811320097143699
  0
LWPOLYLINE
  5
250
100
AcDbEntity
  8
USP-GEO
100
AcDbPolyline
 90
        2
 70
   129
 43
0.0
 10
0.0719503528808696
 20
4.811320097143699
 10
0.0719503528808696
 20
4.85449030887222
  0
LWPOLYLINE
  5
251
100
AcDbEntity
  8
USP-GEO
100
AcDbPolyline
 90
        2
 70
   129
 43
0.0
 10
0.0719503528808696
 20
4.85449030887222
 10
0.0719503528808696
 20
4.897660520600743
  0
LWPOLYLINE
  5
252
100
AcDbEntity
  8
USP-GEO
100
AcDbPolyline
 90
        4
 70
   129
 43
0.0
 10
0.0719503528808696
 20
4.768149885415178
 10
0.0719503528808696
 20
4.782539955991351
 10
0.0719503528808696
 20
4.811320097143699
 10
0.0719503528808696
 20
4.782539955991351
  0
LWPOLYLINE
  5
253
100
AcDbEntity
  8
USP-GEO
100
AcDbPolyline
 90
        2
 70
   129
 43
0.0
 10
0.0719503528808696
 20
5.055951296938653
 10
0.0719503528808696
 20
5.027171155786305
  0
LWPOLYLINE
  5
254
100
AcDbEntity
  8
USP-GEO
100
AcDbPolyline
 90
        2
 70
   129
 43
0.0
 10
0.0719503528808696
 20
5.012781085210132
 10
0.0719503528808696
 20
5.027171155786305
  0
LWPOLYLINE
  5
255
100
AcDbEntity
  8
USP-GEO
100
AcDbPolyline
 90
        8
 70
   129
 43
0.0
 10
0.0719503528808696
 20
5.185461932124217
 10
0.0719503528808696
 20
5.19985200270039
 10
0.0719503528808696
 20
5.185461932124217
 10
0.0719503528808696
 20
5.15668179097187
 10
0.0719503528808696
 20
5.113511579243349
 10
0.0719503528808696
 20
5.055951296938653
 10
0.0719503528808696
 20
5.113511579243349
 10
0.0719503528808696
 20
5.15668179097187
  0
LWPOLYLINE
  5
256
100
AcDbEntity
  8
USP-GEO
100
AcDbPolyline
 90
        2
 70
   129
 43
0.0
 10
0.0719503528808696
 20
4.940830732329263
 10
0.0719503528808696
 20
4.897660520600743
  0
LWPOLYLINE
  5
257
100
AcDbEntity
  8
USP-GEO
100
AcDbPolyline
 90
        4
 70
   129
 43
0.0
 10
0.0719503528808696
 20
4.85449030887222
 10
0.0719503528808696
 20
4.897660520600743
 10
0.0719503528808696
 20
4.85449030887222
 10
0.0719503528808696
 20
4.811320097143699
  0
LWPOLYLINE
  5
258
100
AcDbEntity
  8
USP-GEO
100
AcDbPolyline
 90
       10
 70
   129
 43
0.0
 10
0.0719503528808696
 20
5.113511579243349
 10
0.0719503528808696
 20
5.055951296938653
 10
0.0719503528808696
 20
5.027171155786305
 10
0.0719503528808696
 20
5.012781085210132
 10
0.0719503528808696
 20
5.027171155786305
 10
0.0719503528808696
 20
5.055951296938653
 10
0.0719503528808696
 20
5.113511579243349
 10
0.0719503528808696
 20
5.15668179097187
 10
0.0719503528808696
 20
5.185461932124217
 10
0.0719503528808696
 20
5.15668179097187
  0
LWPOLYLINE
  5
259
100
AcDbEntity
  8
USP-GEO
100
AcDbPolyline
 90
        2
 70
   129
 43
0.0
 10
0.0719503528808696
 20
4.811320097143699
 10
0.0719503528808696
 20
4.782539955991351
  0
LWPOLYLINE
  5
25A
100
AcDbEntity
  8
USP-GEO
100
AcDbPolyline
 90
        2
 70
   129
 43
0.0
 10
0.0726698564096777
 20
4.940830732329263
 10
0.0719503528808696
 20
4.940830732329263
  0
LWPOLYLINE
  5
25B
100
AcDbEntity
  8
USP-GEO
100
AcDbPolyline
 90
        3
 70
   128
 43
0.0
 10
0.0719503528808696
 20
4.897660520600743
 10
0.0719503528808696
 20
4.940830732329263
 10
0.0719503528808696
 20
4.897660520600743
  0
LWPOLYLINE
  5
25C
100
AcDbEntity
  8
USP-GEO
100
AcDbPolyline
 90
        3
 70
   128
 43
0.0
 10
0.0719503528808696
 20
4.782539955991351
 10
0.0719503528808696
 20
4.768149885415178
 10
0.0719503528808696
 20
4.782539955991351
  0
LWPOLYLINE
  5
25D
100
AcDbEntity
  8
USP-GEO
100
AcDbPolyline
 90
        2
 70
   129
 43
0.0
 10
0.0719503528808696
 20
5.185461932124217
 10
0.0719503528808696
 20
5.19985200270039
  0
LWPOLYLINE
  5
25E
100
AcDbEntity
  8
USP-GEO
100
AcDbPolyline
 90
        2
 70
   129
 43
0.0
 10
0.0726698564096777
 20
4.940830732329263
 10
0.0719503528808696
 20
4.940830732329263
  0
LWPOLYLINE
  5
25F
100
AcDbEntity
  8
USP-GEO
100
AcDbPolyline
 90
        4
 70
   128
 43
0.0
 10
0.0719503528808696
 20
4.551579323243762
 10
0.0719503528808696
 20
4.58035946439611
 10
0.0719503528808696
 20
4.609859109077266
 10
0.0719503528808696
 20
4.638639250229614
  0
LWPOLYLINE
  5
260
100
AcDbEntity
  8
USP-GEO
100
AcDbPolyline
 90
        4
 70
   128
 43
0.0
 10
0.0
 20
4.638639250229614
 10
0.0
 20
4.609859109077266
 10
0.0
 20
4.58035946439611
 10
0.0
 20
4.551579323243762
  0
LWPOLYLINE
  5
261
100
AcDbEntity
  8
USP-GEO
100
AcDbPolyline
 90
        4
 70
   129
 43
0.0
 10
0.0719503528808696
 20
4.638639250229614
 10
0.0719503528808696
 20
5.127901649819522
 10
0.0
 20
5.127901649819522
 10
0.0
 20
4.638639250229614
  0
LWPOLYLINE
  5
262
100
AcDbEntity
  8
USP-GEO
100
AcDbPolyline
 90
        2
 70
   128
 43
0.0
 10
0.0719503528808696
 20
5.127901649819522
 10
0.0719503528808696
 20
5.15668179097187
  0
LWPOLYLINE
  5
263
100
AcDbEntity
  8
USP-GEO
100
AcDbPolyline
 90
        4
 70
   128
 43
0.0
 10
0.0
 20
5.214242073276565
 10
0.0
 20
5.185461932124217
 10
0.0
 20
5.15668179097187
 10
0.0
 20
5.127901649819522
  0
LWPOLYLINE
  5
264
100
AcDbEntity
  8
USP-GEO
100
AcDbPolyline
 90
        3
 70
   128
 43
0.0
 10
0.0
 20
4.940830732329263
 10
0.0
 20
4.897660520600743
 10
0.0
 20
4.85449030887222
  0
LWPOLYLINE
  5
265
100
AcDbEntity
  8
USP-GEO
100
AcDbPolyline
 90
       10
 70
   128
 43
0.0
 10
0.0
 20
4.85449030887222
 10
0.0
 20
4.811320097143699
 10
0.0
 20
4.782539955991351
 10
0.0
 20
4.768149885415178
 10
0.0719503528808696
 20
4.768149885415178
 10
0.0719503528808696
 20
4.782539955991351
 10
0.0719503528808696
 20
4.811320097143699
 10
0.0719503528808696
 20
4.85449030887222
 10
0.0719503528808696
 20
4.897660520600743
 10
0.0719503528808696
 20
4.940830732329263
  0
LWPOLYLINE
  5
266
100
AcDbEntity
  8
USP-GEO
100
AcDbPolyline
 90
        2
 70
   128
 43
0.0
 10
0.0719503528808696
 20
4.940830732329263
 10
0.0
 20
4.940830732329263
  0
LWPOLYLINE
  5
267
100
AcDbEntity
  8
USP-GEO
100
AcDbPolyline
 90
        2
 70
   129
 43
0.0
 10
0.000719503528809
 20
4.940830732329263
 10
0.0
 20
4.940830732329263
  0
LWPOLYLINE
  5
268
100
AcDbEntity
  8
USP-GEO
100
AcDbPolyline
 90
       10
 70
   128
 43
0.0
 10
0.0
 20
5.055951296938653
 10
0.0
 20
5.027171155786305
 10
0.0
 20
5.012781085210132
 10
0.0719503528808696
 20
5.012781085210132
 10
0.0719503528808696
 20
5.027171155786305
 10
0.0719503528808696
 20
5.055951296938653
 10
0.0719503528808696
 20
5.113511579243349
 10
0.0719503528808696
 20
5.15668179097187
 10
0.0719503528808696
 20
5.185461932124217
 10
0.0719503528808696
 20
5.19985200270039
  0
LWPOLYLINE
  5
269
100
AcDbEntity
  8
USP-GEO
100
AcDbPolyline
 90
        3
 70
   128
 43
0.0
 10
0.0
 20
5.15668179097187
 10
0.0
 20
5.113511579243349
 10
0.0
 20
5.055951296938653
  0
LWPOLYLINE
  5
26A
100
AcDbEntity
  8
USP-GEO
100
AcDbPolyline
 90
        6
 70
   129
 43
0.0
 10
0.0
 20
4.85449030887222
 10
0.0
 20
4.811320097143699
 10
0.0
 20
4.782539955991351
 10
0.0
 20
4.768149885415178
 10
0.0
 20
4.782539955991351
 10
0.0
 20
4.811320097143699
  0
LWPOLYLINE
  5
26B
100
AcDbEntity
  8
USP-GEO
100
AcDbPolyline
 90
       14
 70
   129
 43
0.0
 10
0.0
 20
5.286192426157434
 10
0.0
 20
5.243022214428913
 10
0.0
 20
5.19985200270039
 10
0.0
 20
5.171071861548044
 10
0.0
 20
5.15668179097187
 10
0.0
 20
5.113511579243349
 10
0.0
 20
5.15668179097187
 10
0.0
 20
5.185461932124217
 10
0.0
 20
5.19985200270039
 10
0.0
 20
5.185461932124217
 10
0.0
 20
5.15668179097187
 10
0.0
 20
5.171071861548044
 10
0.0
 20
5.19985200270039
 10
0.0
 20
5.243022214428913
  0
LWPOLYLINE
  5
26C
100
AcDbEntity
  8
USP-GEO
100
AcDbPolyline
 90
        4
 70
   129
 43
0.0
 10
0.0
 20
4.940830732329263
 10
0.0
 20
4.897660520600743
 10
0.0
 20
4.85449030887222
 10
0.0
 20
4.897660520600743
  0
LWPOLYLINE
  5
26D
100
AcDbEntity
  8
USP-GEO
100
AcDbPolyline
 90
        4
 70
   129
 43
0.0
 10
0.0
 20
5.027171155786305
 10
0.0
 20
5.055951296938653
 10
0.0
 20
5.027171155786305
 10
0.0
 20
5.012781085210132
  0
LWPOLYLINE
  5
26E
100
AcDbEntity
  8
USP-GEO
100
AcDbPolyline
 90
        2
 70
   129
 43
0.0
 10
0.0
 20
5.055951296938653
 10
0.0
 20
5.113511579243349
  0
LWPOLYLINE
  5
26F
100
AcDbEntity
  8
USP-GEO
100
AcDbPolyline
 90
        2
 70
   128
 43
0.0
 10
0.0
 20
4.940830732329263
 10
0.000719503528809
 20
4.940830732329263
  0
LWPOLYLINE
  5
270
100
AcDbEntity
  8
USP-GEO
100
AcDbPolyline
 90
       15
 70
   129
 43
0.0
 10
0.4029219761328662
 20
5.314972567309782
 10
0.460482258437561
 20
5.257412285005086
 10
0.4748723290137349
 20
5.185461932124217
 10
0.460482258437561
 20
5.099121508667176
 10
0.4029219761328662
 20
5.04156122636248
 10
0.460482258437561
 20
5.099121508667176
 10
0.4029219761328662
 20
5.04156122636248
 10
0.4029219761328662
 20
5.04156122636248
 10
0.3165815526758235
 20
5.027171155786305
 10
0.2446311997949548
 20
5.04156122636248
 10
0.1870709174902592
 20
5.099121508667176
 10
0.1582907763379122
 20
5.185461932124217
 10
0.1870709174902592
 20
5.257412285005086
 10
0.2446311997949548
 20
5.314972567309782
 10
0.3165815526758235
 20
5.329362637885955
  0
LWPOLYLINE
  5
271
100
AcDbEntity
  8
USP-GEO
100
AcDbPolyline
 90
       12
 70
   129
 43
0.0
 10
0.676333317080168
 20
5.070341367514828
 10
0.6619432465039941
 20
5.113511579243349
 10
0.676333317080168
 20
5.15668179097187
 10
0.7195035288086889
 20
5.19985200270039
 10
0.7633932440660188
 20
5.19985200270039
 10
0.8065634557945404
 20
5.19985200270039
 10
0.8353435969468874
 20
5.15668179097187
 10
0.8497336675230613
 20
5.113511579243349
 10
0.8353435969468874
 20
5.070341367514828
 10
0.8065634557945404
 20
5.04156122636248
 10
0.7633932440660188
 20
5.027171155786305
 10
0.7195035288086889
 20
5.04156122636248
  0
LWPOLYLINE
  5
272
100
AcDbEntity
  8
USP-GEO
100
AcDbPolyline
 90
       12
 70
   129
 43
0.0
 10
0.6619432465039941
 20
4.868880379448395
 10
0.676333317080168
 20
4.912050591176916
 10
0.7195035288086889
 20
4.940830732329263
 10
0.7633932440660188
 20
4.955220802905436
 10
0.8065634557945404
 20
4.940830732329263
 10
0.8353435969468874
 20
4.912050591176916
 10
0.8497336675230613
 20
4.868880379448395
 10
0.8353435969468874
 20
4.825710167719874
 10
0.8065634557945404
 20
4.782539955991351
 10
0.7633932440660188
 20
4.782539955991351
 10
0.7195035288086889
 20
4.782539955991351
 10
0.676333317080168
 20
4.825710167719874
  0
LWPOLYLINE
  5
273
100
AcDbEntity
  8
USP-GEO
100
AcDbPolyline
 90
        2
 70
   129
 43
0.0
 10
1.065584726165668
 20
5.488372917752675
 10
1.065584726165668
 20
5.214242073276565
  0
LWPOLYLINE
  5
274
100
AcDbEntity
  8
USP-GEO
100
AcDbPolyline
 90
        7
 70
   128
 43
0.0
 10
1.108754937894189
 20
5.127901649819522
 10
1.079974796741842
 20
5.15668179097187
 10
1.108754937894189
 20
5.127901649819522
 10
1.079974796741842
 20
5.15668179097187
 10
1.079974796741842
 20
5.185461932124217
 10
1.065584726165668
 20
5.214242073276565
 10
1.065584726165668
 20
5.488372917752675
  0
LWPOLYLINE
  5
275
100
AcDbEntity
  8
USP-GEO
100
AcDbPolyline
 90
        2
 70
   129
 43
0.0
 10
1.065584726165668
 20
5.488372917752675
 10
1.065584726165668
 20
5.214242073276565
  0
LWPOLYLINE
  5
276
100
AcDbEntity
  8
USP-GEO
100
AcDbPolyline
 90
        3
 70
   128
 43
0.0
 10
1.065584726165668
 20
5.214242073276565
 10
1.079974796741842
 20
5.185461932124217
 10
1.065584726165668
 20
5.214242073276565
  0
LWPOLYLINE
  5
277
100
AcDbEntity
  8
USP-GEO
100
AcDbPolyline
 90
        3
 70
   128
 43
0.0
 10
1.108754937894189
 20
5.127901649819522
 10
1.079974796741842
 20
5.15668179097187
 10
1.108754937894189
 20
5.127901649819522
  0
LWPOLYLINE
  5
278
100
AcDbEntity
  8
USP-GEO
100
AcDbPolyline
 90
        2
 70
   129
 43
0.0
 10
1.56923719633175
 20
4.551579323243762
 10
1.56923719633175
 20
2.492360223793296
  0
LWPOLYLINE
  5
279
100
AcDbEntity
  8
USP-GEO
100
AcDbPolyline
 90
        2
 70
   129
 43
0.0
 10
1.56923719633175
 20
4.551579323243762
 10
1.56923719633175
 20
2.492360223793296
  0
LWPOLYLINE
  5
27A
100
AcDbEntity
  8
USP-GEO
100
AcDbPolyline
 90
        3
 70
   128
 43
0.0
 10
1.741918043245835
 20
2.00237832067458
 10
1.655577619788792
 20
2.146279026436317
 10
1.741918043245835
 20
2.00237832067458
  0
LWPOLYLINE
  5
27B
100
AcDbEntity
  8
USP-GEO
100
AcDbPolyline
 90
        2
 70
   129
 43
0.0
 10
3.109694251511152
 20
0.0
 10
3.109694251511152
 20
0.0870599269858499
  0
LWPOLYLINE
  5
27C
100
AcDbEntity
  8
USP-GEO
100
AcDbPolyline
 90
        2
 70
   129
 43
0.0
 10
3.196754178497004
 20
0.0
 10
3.196754178497004
 20
0.0870599269858499
  0
LWPOLYLINE
  5
27D
100
AcDbEntity
  8
USP-GEO
100
AcDbPolyline
 90
        2
 70
   129
 43
0.0
 10
3.109694251511152
 20
0.0
 10
3.109694251511152
 20
0.0870599269858499
  0
LWPOLYLINE
  5
27E
100
AcDbEntity
  8
USP-GEO
100
AcDbPolyline
 90
        8
 70
   129
 43
0.0
 10
3.196754178497004
 20
0.0870599269858499
 10
3.152864463239673
 20
0.0870599269858499
 10
3.124084322087326
 20
0.0870599269858499
 10
3.109694251511152
 20
0.0870599269858499
 10
3.109694251511152
 20
0.0
 10
3.124084322087326
 20
0.0
 10
3.152864463239673
 20
0.0
 10
3.196754178497004
 20
0.0
  0
LWPOLYLINE
  5
27F
100
AcDbEntity
  8
USP-GEO
100
AcDbPolyline
 90
        3
 70
   129
 43
0.0
 10
3.196754178497004
 20
0.0870599269858499
 10
3.196754178497004
 20
0.0
 10
3.196754178497004
 20
0.230960632747589
  0
LWPOLYLINE
  5
280
100
AcDbEntity
  8
USP-GEO
100
AcDbPolyline
 90
        5
 70
   128
 43
0.0
 10
3.109694251511152
 20
0.0870599269858499
 10
3.124084322087326
 20
0.0870599269858499
 10
3.109694251511152
 20
0.0870599269858499
 10
3.124084322087326
 20
0.0870599269858499
 10
3.109694251511152
 20
0.0870599269858499
  0
LWPOLYLINE
  5
281
100
AcDbEntity
  8
USP-GEO
100
AcDbPolyline
 90
        5
 70
   128
 43
0.0
 10
3.152864463239673
 20
0.0870599269858499
 10
3.124084322087326
 20
0.0870599269858499
 10
3.152864463239673
 20
0.0870599269858499
 10
3.124084322087326
 20
0.0870599269858499
 10
3.152864463239673
 20
0.0870599269858499
  0
LWPOLYLINE
  5
282
100
AcDbEntity
  8
USP-GEO
100
AcDbPolyline
 90
        3
 70
   128
 43
0.0
 10
3.196754178497004
 20
0.0870599269858499
 10
3.152864463239673
 20
0.0870599269858499
 10
3.196754178497004
 20
0.0870599269858499
  0
LWPOLYLINE
  5
283
100
AcDbEntity
  8
USP-GEO
100
AcDbPolyline
 90
        2
 70
   129
 43
0.0
 10
3.152864463239673
 20
0.0870599269858499
 10
3.196754178497004
 20
0.0870599269858499
  0
LWPOLYLINE
  5
284
100
AcDbEntity
  8
USP-GEO
100
AcDbPolyline
 90
        5
 70
   128
 43
0.0
 10
3.109694251511152
 20
0.0
 10
3.124084322087326
 20
0.0
 10
3.109694251511152
 20
0.0
 10
3.124084322087326
 20
0.0
 10
3.109694251511152
 20
0.0
  0
LWPOLYLINE
  5
285
100
AcDbEntity
  8
USP-GEO
100
AcDbPolyline
 90
        5
 70
   128
 43
0.0
 10
3.152864463239673
 20
0.0
 10
3.124084322087326
 20
0.0
 10
3.152864463239673
 20
0.0
 10
3.124084322087326
 20
0.0
 10
3.152864463239673
 20
0.0
  0
LWPOLYLINE
  5
286
100
AcDbEntity
  8
USP-GEO
100
AcDbPolyline
 90
        5
 70
   128
 43
0.0
 10
3.196754178497004
 20
0.0
 10
3.152864463239673
 20
0.0
 10
3.196754178497004
 20
0.0
 10
3.152864463239673
 20
0.0
 10
3.196754178497004
 20
0.0
  0
LWPOLYLINE
  5
287
100
AcDbEntity
  8
USP-GEO
100
AcDbPolyline
 90
        3
 70
   128
 43
0.0
 10
3.18236410792083
 20
0.2885209150522829
 10
3.167974037344656
 20
0.3029109856284577
 10
3.18236410792083
 20
0.2885209150522829
  0
ENDBLK
  5
289
100
AcDbEntity
  8
0
100
AcDbBlockEnd
  0
ENDSEC
  0
SECTION
  2
ENTITIES
  0
INSERT
  5
3
100
AcDbEntity
  8
USP
100
AcDbBlockReference
  2
THD26-2_T
 10
7.356748685330863
 20
11.22012192386499
 30
0.0
  0
INSERT
  5
FA
100
AcDbEntity
  8
USP
100
AcDbBlockReference
  2
THD26-2_F
 10
7.356748685330863
 20
1.07943918883534
 30
0.0
  0
INSERT
  5
1C0
100
AcDbEntity
  8
USP
100
AcDbBlockReference
  2
THD26-2_S
 10
0.7337187026468844
 20
1.07943918883534
 30
0.0
  0
ENDSEC
  0
SECTION
  2
OBJECTS
  0
DICTIONARY
  5
2A2
102
{ACAD_XDICTIONARY
360
2A3
102
}
100
AcDbDictionary
  3
ACAD_GROUP
350
2A0
  3
ACAD_MLINESTYLE
350
2A1
  0
DICTIONARY
  5
E
100
AcDbDictionary
280
     1
  3
ACAD_XREC_ROUNDTRIP
360
F
  0
DICTIONARY
  5
9
100
AcDbDictionary
280
     1
  3
ACAD_XREC_ROUNDTRIP
360
A
  0
DICTIONARY
  5
28A
100
AcDbDictionary
280
     1
  3
ACAD_LAYOUTSELFREF
360
28B
  0
DICTIONARY
  5
28F
100
AcDbDictionary
280
     1
  3
ACAD_LAYOUTSELFREF
360
290
  0
DICTIONARY
  5
2A3
100
AcDbDictionary
280
     1
  3
ACAD_XREC_ROUNDTRIP
360
2A4
  0
DICTIONARY
  5
2A0
102
{ACAD_REACTORS
330
2A2
102
}
100
AcDbDictionary
  0
DICTIONARY
  5
2A1
102
{ACAD_REACTORS
330
2A2
102
}
100
AcDbDictionary
  3
STANDARD
350
2A5
  0
XRECORD
  5
F
102
{ACAD_REACTORS
330
E
102
}
100
AcDbXrecord
102
EXTNAMES
  1
USP-GEO
  2
USP-Geo
  0
XRECORD
  5
A
102
{ACAD_REACTORS
330
9
102
}
100
AcDbXrecord
102
EXTNAMES
  1
USP-TXT
  2
USP-Txt
  0
XRECORD
  5
28B
102
{ACAD_REACTORS
330
28A
102
}
100
AcDbXrecord
340
18
  0
XRECORD
  5
290
102
{ACAD_REACTORS
330
28F
102
}
100
AcDbXrecord
340
15
  0
XRECORD
  5
2A4
102
{ACAD_REACTORS
330
2A3
102
}
100
AcDbXrecord
102
EXTNAMES
  1
ACDBVARIABLEDICTIONARY
  2
AcDbVariableDictionary
  0
MLINESTYLE
  5
2A5
102
{ACAD_REACTORS
330
2A1
102
}
100
AcDbMlineStyle
  2
STANDARD
 70
     0
  3

 62
     0
 51
90.0
 52
90.0
 71
     2
 49
0.5
 62
   256
  6
BYLAYER
 49
-0.5
 62
   256
  6
BYLAYER
  0
ENDSEC
  0
EOF
