  0
SECTION
  2
HEADER
  9
$ACADVER
  1
AC1014
  9
$ACADMAINTVER
 70
     9
  9
$DWGCODEPAGE
  3
ANSI_1252
  9
$INSBASE
 10
0.0
 20
0.0
 30
0.0
  9
$EXTMIN
 10
0.0006072479622929
 20
0.0005715987125896
 30
0.0
  9
$EXTMAX
 10
15.39864724149333
 20
18.47720754363727
 30
0.0
  9
$LIMMIN
 10
0.0
 20
0.0
  9
$LIMMAX
 10
12.0
 20
9.0
  9
$ORTHOMODE
 70
     0
  9
$REGENMODE
 70
     1
  9
$FILLMODE
 70
     1
  9
$QTEXTMODE
 70
     0
  9
$MIRRTEXT
 70
     0
  9
$DRAGMODE
 70
     2
  9
$LTSCALE
 40
1.5
  9
$OSMODE
 70
    37
  9
$ATTMODE
 70
     1
  9
$TEXTSIZE
 40
0.375
  9
$TRACEWID
 40
0.05
  9
$TEXTSTYLE
  7
STANDARD
  9
$CLAYER
  8
0
  9
$CELTYPE
  6
BYLAYER
  9
$CECOLOR
 62
   256
  9
$CELTSCALE
 40
1.0
  9
$DELOBJ
 70
     1
  9
$DISPSILH
 70
     1
  9
$DIMSCALE
 40
6.0
  9
$DIMASZ
 40
0.125
  9
$DIMEXO
 40
0.0625
  9
$DIMDLI
 40
0.37890625
  9
$DIMRND
 40
0.0
  9
$DIMDLE
 40
0.0
  9
$DIMEXE
 40
0.09375
  9
$DIMTP
 40
0.0
  9
$DIMTM
 40
0.0
  9
$DIMTXT
 40
0.109375
  9
$DIMCEN
 40
0.0
  9
$DIMTSZ
 40
0.0
  9
$DIMTOL
 70
     0
  9
$DIMLIM
 70
     0
  9
$DIMTIH
 70
     1
  9
$DIMTOH
 70
     1
  9
$DIMSE1
 70
     0
  9
$DIMSE2
 70
     0
  9
$DIMTAD
 70
     0
  9
$DIMZIN
 70
     8
  9
$DIMBLK
  1

  9
$DIMASO
 70
     1
  9
$DIMSHO
 70
     1
  9
$DIMPOST
  1

  9
$DIMAPOST
  1

  9
$DIMALT
 70
     0
  9
$DIMALTD
 70
     2
  9
$DIMALTF
 40
25.4
  9
$DIMLFAC
 40
1.0
  9
$DIMTOFL
 70
     0
  9
$DIMTVP
 40
0.0
  9
$DIMTIX
 70
     0
  9
$DIMSOXD
 70
     0
  9
$DIMSAH
 70
     0
  9
$DIMBLK1
  1

  9
$DIMBLK2
  1

  9
$DIMSTYLE
  2
STANDARD
  9
$DIMCLRD
 70
     0
  9
$DIMCLRE
 70
     0
  9
$DIMCLRT
 70
   256
  9
$DIMTFAC
 40
1.0
  9
$DIMGAP
 40
0.08984375
  9
$DIMJUST
 70
     0
  9
$DIMSD1
 70
     0
  9
$DIMSD2
 70
     0
  9
$DIMTOLJ
 70
     1
  9
$DIMTZIN
 70
     0
  9
$DIMALTZ
 70
     0
  9
$DIMALTTZ
 70
     0
  9
$DIMFIT
 70
     3
  9
$DIMUPT
 70
     1
  9
$DIMUNIT
 70
     7
  9
$DIMDEC
 70
     4
  9
$DIMTDEC
 70
     4
  9
$DIMALTU
 70
     2
  9
$DIMALTTD
 70
     2
  9
$DIMTXSTY
  7
STANDARD
  9
$DIMAUNIT
 70
     0
  9
$LUNITS
 70
     5
  9
$LUPREC
 70
     6
  9
$SKETCHINC
 40
0.1
  9
$FILLETRAD
 40
0.0
  9
$AUNITS
 70
     0
  9
$AUPREC
 70
     1
  9
$MENU
  1
CUSTOM
  9
$ELEVATION
 40
0.0
  9
$PELEVATION
 40
0.0
  9
$THICKNESS
 40
0.0
  9
$LIMCHECK
 70
     0
  9
$BLIPMODE
 70
     0
  9
$CHAMFERA
 40
0.0
  9
$CHAMFERB
 40
0.0
  9
$CHAMFERC
 40
0.0
  9
$CHAMFERD
 40
0.0
  9
$SKPOLY
 70
     0
  9
$TDCREATE
 40
2451263.663231366
  9
$TDUPDATE
 40
2452759.747171400
  9
$TDINDWG
 40
0.1272977431
  9
$TDUSRTIMER
 40
0.1272977431
  9
$USRTIMER
 70
     1
  9
$ANGBASE
 50
0.0
  9
$ANGDIR
 70
     0
  9
$PDMODE
 70
     0
  9
$PDSIZE
 40
0.0
  9
$PLINEWID
 40
0.0
  9
$COORDS
 70
     1
  9
$SPLFRAME
 70
     0
  9
$SPLINETYPE
 70
     6
  9
$SPLINESEGS
 70
     8
  9
$ATTDIA
 70
     0
  9
$ATTREQ
 70
     1
  9
$HANDLING
 70
     1
  9
$HANDSEED
  5
191
  9
$SURFTAB1
 70
     6
  9
$SURFTAB2
 70
     6
  9
$SURFTYPE
 70
     6
  9
$SURFU
 70
     6
  9
$SURFV
 70
     6
  9
$UCSNAME
  2

  9
$UCSORG
 10
0.0
 20
0.0
 30
0.0
  9
$UCSXDIR
 10
1.0
 20
0.0
 30
0.0
  9
$UCSYDIR
 10
0.0
 20
1.0
 30
0.0
  9
$PUCSNAME
  2

  9
$PUCSORG
 10
0.0
 20
0.0
 30
0.0
  9
$PUCSXDIR
 10
1.0
 20
0.0
 30
0.0
  9
$PUCSYDIR
 10
0.0
 20
1.0
 30
0.0
  9
$USERI1
 70
     0
  9
$USERI2
 70
     0
  9
$USERI3
 70
     0
  9
$USERI4
 70
     0
  9
$USERI5
 70
     0
  9
$USERR1
 40
0.0
  9
$USERR2
 40
0.0
  9
$USERR3
 40
0.0
  9
$USERR4
 40
0.0
  9
$USERR5
 40
0.0
  9
$WORLDVIEW
 70
     1
  9
$SHADEDGE
 70
     3
  9
$SHADEDIF
 70
    70
  9
$TILEMODE
 70
     1
  9
$MAXACTVP
 70
    16
  9
$PINSBASE
 10
0.0
 20
0.0
 30
0.0
  9
$PLIMCHECK
 70
     0
  9
$PEXTMIN
 10
1.052083323321005
 20
0.7937500251559762
 30
0.0
  9
$PEXTMAX
 10
9.468749909889039
 20
7.143750226403783
 30
0.0
  9
$PLIMMIN
 10
-0.2145830289585384
 20
-0.2812499887361301
  9
$PLIMMAX
 10
10.78541673074557
 20
8.218749770967978
  9
$UNITMODE
 70
     0
  9
$VISRETAIN
 70
     0
  9
$PLINEGEN
 70
     0
  9
$PSLTSCALE
 70
     0
  9
$TREEDEPTH
 70
  3020
  9
$PICKSTYLE
 70
     1
  9
$CMLSTYLE
  2
STANDARD
  9
$CMLJUST
 70
     0
  9
$CMLSCALE
 40
1.0
  9
$PROXYGRAPHICS
 70
     1
  9
$MEASUREMENT
 70
     0
  0
ENDSEC
  0
SECTION
  2
CLASSES
  0
CLASS
  1
ACDBDICTIONARYWDFLT
  2
AcDbDictionaryWithDefault
  3
AutoCAD 2000
 90
        0
280
     0
281
     0
  0
CLASS
  1
ACDBPLACEHOLDER
  2
AcDbPlaceHolder
  3
AutoCAD 2000
 90
        0
280
     0
281
     0
  0
CLASS
  1
LAYOUT
  2
AcDbLayout
  3
AutoCAD 2000
 90
        0
280
     0
281
     0
  0
CLASS
  1
DICTIONARYVAR
  2
AcDbDictionaryVar
  3
"AutoCAD"
 90
        0
280
     0
281
     0
  0
CLASS
  1
LONG_TRANSACTION
  2
AcDbLongTransaction
  3
AutoCAD 2000
 90
        0
280
     0
281
     0
  0
CLASS
  1
LWPOLYLINE
  2
AcDbPolyline
  3
"AutoCAD"
 90
        0
280
     0
281
     1
  0
CLASS
  1
HATCH
  2
AcDbHatch
  3
"ACAD_SEDONA"
 90
        0
280
     0
281
     1
  0
CLASS
  1
XRECORD
  2
AcDbXrecord
  3
"<Built In>"
 90
        0
280
     0
281
     0
  0
CLASS
  1
LONG_TRANSACTION
  2
AcDbLongTransaction
  3
AutoCAD 2000
 90
        0
280
     0
281
     0
  0
CLASS
  1
LWPOLYLINE
  2
AcDbPolyline
  3
"AutoCAD"
 90
        0
280
     0
281
     1
  0
CLASS
  1
HATCH
  2
AcDbHatch
  3
"ACAD_SEDONA"
 90
        0
280
     0
281
     1
  0
CLASS
  1
XRECORD
  2
AcDbXrecord
  3
"<Built In>"
 90
        0
280
     0
281
     0
  0
ENDSEC
  0
SECTION
  2
TABLES
  0
TABLE
  2
VPORT
  5
173
100
AcDbSymbolTable
 70
     1
  0
VPORT
  5
18D
100
AcDbSymbolTableRecord
100
AcDbViewportTableRecord
  2
*ACTIVE
 70
     0
 10
0.0
 20
0.0
 11
1.0
 21
1.0
 12
-15.39611957713414
 22
19.73697650770824
 13
0.0
 23
0.0
 14
1.0
 24
1.0
 15
0.0
 25
0.0
 16
0.0
 26
0.0
 36
1.0
 17
23.09603071721725
 27
-10.27010416511325
 37
-10.44050274849355
 40
19.06871637384018
 41
1.457627118644067
 42
50.0
 43
10.55307667737539
 44
10.55307667737539
 50
0.0
 51
0.0
 71
     0
 72
   100
 73
     1
 74
     1
 75
     0
 76
     0
 77
     0
 78
     0
  0
ENDTAB
  0
TABLE
  2
LTYPE
  5
16E
100
AcDbSymbolTable
 70
     2
  0
LTYPE
  5
16F
100
AcDbSymbolTableRecord
100
AcDbLinetypeTableRecord
  2
BYBLOCK
 70
     0
  3

 72
    65
 73
     0
 40
0.0
  0
LTYPE
  5
170
100
AcDbSymbolTableRecord
100
AcDbLinetypeTableRecord
  2
BYLAYER
 70
     0
  3

 72
    65
 73
     0
 40
0.0
  0
LTYPE
  5
5
100
AcDbSymbolTableRecord
100
AcDbLinetypeTableRecord
  2
CONTINUOUS
 70
     0
  3
Solid line
 72
    65
 73
     0
 40
0.0
  0
LTYPE
  5
102
100
AcDbSymbolTableRecord
100
AcDbLinetypeTableRecord
  2
HIDDEN
 70
     0
  3
Hidden __ __ __ __ __ __ __ __ __ __ __ __ __ _
 72
    65
 73
     2
 40
0.375
 49
0.25
 74
     0
 49
-0.125
 74
     0
  0
ENDTAB
  0
TABLE
  2
LAYER
  5
16C
100
AcDbSymbolTable
 70
     5
  0
LAYER
  5
BE
100
AcDbSymbolTableRecord
100
AcDbLayerTableRecord
  2
0
 70
     0
 62
     7
  6
CONTINUOUS
  0
LAYER
  5
8
100
AcDbSymbolTableRecord
100
AcDbLayerTableRecord
  2
USP-GEO
 70
     0
 62
     7
  6
CONTINUOUS
  0
LAYER
  5
17
100
AcDbSymbolTableRecord
100
AcDbLayerTableRecord
  2
USP-TXT
 70
     0
 62
     7
  6
CONTINUOUS
  0
LAYER
  5
101
100
AcDbSymbolTableRecord
100
AcDbLayerTableRecord
  2
USP-HID
 70
     0
 62
     7
  6
HIDDEN
  0
LAYER
  5
4
100
AcDbSymbolTableRecord
100
AcDbLayerTableRecord
  2
USP
 70
     0
 62
     7
  6
CONTINUOUS
  0
ENDTAB
  0
TABLE
  2
STYLE
  5
16D
100
AcDbSymbolTable
 70
     1
  0
STYLE
  5
18
100
AcDbSymbolTableRecord
100
AcDbTextStyleTableRecord
  2
STANDARD
 70
     0
 40
0.0
 41
1.0
 50
0.0
 71
     0
 42
0.375
  3
txt
  4

  0
ENDTAB
  0
TABLE
  2
VIEW
  5
171
100
AcDbSymbolTable
 70
     0
  0
ENDTAB
  0
TABLE
  2
UCS
  5
172
100
AcDbSymbolTable
 70
     0
  0
ENDTAB
  0
TABLE
  2
APPID
  5
175
100
AcDbSymbolTable
 70
     1
  0
APPID
  5
167
100
AcDbSymbolTableRecord
100
AcDbRegAppTableRecord
  2
ACAD
 70
     0
  0
ENDTAB
  0
TABLE
  2
DIMSTYLE
  5
176
100
AcDbSymbolTable
 70
     1
  0
DIMSTYLE
105
17E
100
AcDbSymbolTableRecord
100
AcDbDimStyleTableRecord
  2
STANDARD
 70
     0
  3

  4

  5

  6

  7

 40
1.0
 41
0.18
 42
0.0625
 43
0.38
 44
0.18
 45
0.0
 46
0.0
 47
0.0
 48
0.0
140
0.18
141
0.09
142
0.0
143
25.4
144
1.0
145
0.0
146
1.0
147
0.09
 71
     0
 72
     0
 73
     1
 74
     1
 75
     0
 76
     0
 77
     0
 78
     0
170
     0
171
     2
172
     0
173
     0
174
     0
175
     0
176
     0
177
     0
178
     0
270
     2
271
     4
272
     4
273
     2
274
     2
340
18
275
     0
280
     0
281
     0
282
     0
283
     1
284
     0
285
     0
286
     0
287
     3
288
     0
  0
ENDTAB
  0
TABLE
  2
BLOCK_RECORD
  5
1
100
AcDbSymbolTable
 70
     3
  0
BLOCK_RECORD
  5
2
102
{ACAD_XDICTIONARY
360
15E
102
}
100
AcDbSymbolTableRecord
100
AcDbBlockTableRecord
  2
*MODEL_SPACE
  0
BLOCK_RECORD
  5
162
102
{ACAD_XDICTIONARY
360
168
102
}
100
AcDbSymbolTableRecord
100
AcDbBlockTableRecord
  2
*PAPER_SPACE
  0
BLOCK_RECORD
  5
6
100
AcDbSymbolTableRecord
100
AcDbBlockTableRecord
  2
THD210_F
  0
BLOCK_RECORD
  5
C1
100
AcDbSymbolTableRecord
100
AcDbBlockTableRecord
  2
THD210_T
  0
BLOCK_RECORD
  5
F8
100
AcDbSymbolTableRecord
100
AcDbBlockTableRecord
  2
THD210_S
  0
ENDTAB
  0
ENDSEC
  0
SECTION
  2
BLOCKS
  0
BLOCK
  5
160
100
AcDbEntity
  8
0
100
AcDbBlockBegin
  2
*MODEL_SPACE
 70
     0
 10
0.0
 20
0.0
 30
0.0
  3
*MODEL_SPACE
  1

  0
ENDBLK
  5
161
100
AcDbEntity
  8
0
100
AcDbBlockEnd
  0
BLOCK
  5
16A
100
AcDbEntity
 67
     1
  8
0
100
AcDbBlockBegin
  2
*PAPER_SPACE
 70
     0
 10
0.0
 20
0.0
 30
0.0
  3
*PAPER_SPACE
  1

  0
ENDBLK
  5
16B
100
AcDbEntity
 67
     1
  8
0
100
AcDbBlockEnd
  0
BLOCK
  5
BD
100
AcDbEntity
  8
0
100
AcDbBlockBegin
  2
THD210_F
 70
     0
 10
0.0
 20
0.0
 30
0.0
  3
THD210_F
  1

  0
LINE
  5
7
100
AcDbEntity
  8
USP-GEO
100
AcDbLine
 10
0.0000000000000456
 20
9.022999999999766
 30
0.0
 11
0.0000000000000426
 21
8.422999999999632
 31
0.0
  0
LINE
  5
9
100
AcDbEntity
  8
USP-GEO
100
AcDbLine
 10
0.0630000000000379
 20
8.422999999999632
 30
0.0
 11
0.0630000000000409
 21
9.022999999999766
 31
0.0
  0
LINE
  5
A
100
AcDbEntity
  8
USP-GEO
100
AcDbLine
 10
-1.906000000000197
 20
8.422999999999637
 30
0.0
 11
-1.906000000000194
 21
9.022999999999633
 31
0.0
  0
LINE
  5
B
100
AcDbEntity
  8
USP-GEO
100
AcDbLine
 10
1.751000000000807
 20
8.422999999999897
 30
0.0
 11
1.75100000000081
 21
9.023000000000033
 31
0.0
  0
LINE
  5
C
100
AcDbEntity
  8
USP-GEO
100
AcDbLine
 10
1.688000000000812
 20
8.422999999999902
 30
0.0
 11
1.688000000000815
 21
9.023000000000036
 31
0.0
  0
LINE
  5
D
100
AcDbEntity
  8
USP-GEO
100
AcDbLine
 10
3.657000000001058
 20
9.022999999999866
 30
0.0
 11
3.657000000001048
 21
8.4229999999999
 31
0.0
  0
LINE
  5
E
100
AcDbEntity
  8
USP-GEO
100
AcDbLine
 10
0.0000000000000188
 20
4.253794315615637
 30
0.0
 11
0.0000000000000071
 21
1.934012528956573
 31
0.0
  0
LINE
  5
F
100
AcDbEntity
  8
USP-GEO
100
AcDbLine
 10
0.0630000000000095
 20
1.934012528956575
 30
0.0
 11
0.0630000000000212
 21
4.253794315615637
 31
0.0
  0
LINE
  5
10
100
AcDbEntity
  8
USP-GEO
100
AcDbLine
 10
-1.40599999999997
 20
1.933739272115363
 30
0.0
 11
-1.405999999999959
 21
4.259324865404755
 31
0.0
  0
CIRCLE
  5
11
100
AcDbEntity
  8
USP-GEO
100
AcDbCircle
 10
-1.105999999999959
 20
2.124964068711619
 30
0.0
 40
0.086
  0
LINE
  5
12
100
AcDbEntity
  8
USP-GEO
100
AcDbLine
 10
1.751000000000779
 20
1.93401252895687
 30
0.0
 11
1.75100000000079
 21
4.253794315615932
 31
0.0
  0
LINE
  5
13
100
AcDbEntity
  8
USP-GEO
100
AcDbLine
 10
1.688000000000783
 20
1.934012528956873
 30
0.0
 11
1.688000000000795
 21
4.253794315615937
 31
0.0
  0
LINE
  5
14
100
AcDbEntity
  8
USP-GEO
100
AcDbLine
 10
3.157000000000771
 20
4.259324865405044
 30
0.0
 11
3.15700000000076
 21
1.933739272115653
 31
0.0
  0
CIRCLE
  5
15
100
AcDbEntity
  8
USP-GEO
100
AcDbCircle
 10
2.857000000000745
 20
2.124964068711773
 30
0.0
 40
0.086
  0
TEXT
  5
16
100
AcDbEntity
  8
USP-TXT
100
AcDbText
 10
-2.64583567728286
 20
-1.846077859566289
 30
0.0
 40
0.375
  1
THD210 - FRONT VIEW
 72
     1
 11
0.8229143227171391
 21
-1.846077859566289
 31
0.0
100
AcDbText
  0
LINE
  5
19
100
AcDbEntity
  8
USP-GEO
100
AcDbLine
 10
3.083776695297396
 20
1.756962576819017
 30
0.0
 11
1.751000000000772
 21
0.4241858815224063
 31
0.0
  0
CIRCLE
  5
1A
100
AcDbEntity
  8
USP-GEO
100
AcDbCircle
 10
2.157000000000778
 20
1.447264068711813
 30
0.0
 40
0.086
  0
LINE
  5
1B
100
AcDbEntity
  8
USP-GEO
100
AcDbLine
 10
0.0000000000000028
 20
1.757235833659944
 30
0.0
 11
-0.0000000000000071
 21
0.2335251555413157
 31
0.0
  0
LINE
  5
1C
100
AcDbEntity
  8
USP-GEO
100
AcDbLine
 10
0.0629999999999953
 20
0.2335251555413086
 30
0.0
 11
0.0630000000000052
 21
1.757235833659942
 31
0.0
  0
LINE
  5
1D
100
AcDbEntity
  8
USP-GEO
100
AcDbLine
 10
0.0
 20
0.4241858815221275
 30
0.0
 11
-1.332776695296616
 21
1.756962576818727
 31
0.0
  0
LINE
  5
1E
100
AcDbEntity
  8
USP-GEO
100
AcDbLine
 10
1.751000000000765
 20
0.2335251555415919
 30
0.0
 11
1.751000000000775
 21
1.757235833660232
 31
0.0
  0
LINE
  5
1F
100
AcDbEntity
  8
USP-GEO
100
AcDbLine
 10
1.688000000000776
 20
0.2335251555415919
 30
0.0
 11
1.688000000000786
 21
1.757235833660234
 31
0.0
  0
LINE
  5
20
100
AcDbEntity
  8
USP-GEO
100
AcDbLine
 10
0.0985408616366428
 20
0.0630000000000021
 30
0.0
 11
1.652459138364115
 21
0.0629999999999945
 31
0.0
  0
LINE
  5
21
100
AcDbEntity
  8
USP-GEO
100
AcDbLine
 10
0.0985408616366428
 20
-0.0000000000000039
 30
0.0
 11
1.652459138364115
 21
-0.0000000000000115
 31
0.0
  0
LINE
  5
22
100
AcDbEntity
  8
USP-GEO
100
AcDbLine
 10
-0.0000000000000071
 20
0.0921037993041158
 30
0.0
 11
-0.0000000000000073
 21
0.0630000000000096
 31
0.0
  0
LINE
  5
23
100
AcDbEntity
  8
USP-GEO
100
AcDbLine
 10
0.0629999999999953
 20
0.0921037993041175
 30
0.0
 11
0.0629999999999951
 21
0.0630000000000069
 31
0.0
  0
LINE
  5
24
100
AcDbEntity
  8
USP-GEO
100
AcDbLine
 10
0.0629999999999953
 20
0.0630000000000056
 30
0.0
 11
-0.0000000000000071
 21
0.063000000000006
 31
0.0
  0
LINE
  5
25
100
AcDbEntity
  8
USP-GEO
100
AcDbLine
 10
0.0629999999999953
 20
-0.0000000000000003
 30
0.0
 11
0.0
 21
0.0
 31
0.0
  0
LINE
  5
26
100
AcDbEntity
  8
USP-GEO
100
AcDbLine
 10
0.0000000000000003
 20
0.0630000000000056
 30
0.0
 11
0.0
 21
-0.0000000000000003
 31
0.0
  0
LINE
  5
27
100
AcDbEntity
  8
USP-GEO
100
AcDbLine
 10
0.0692515397553066
 20
0.0629999999999968
 30
0.0
 11
0.0629999999999988
 21
0.0629999999999967
 31
0.0
  0
LINE
  5
28
100
AcDbEntity
  8
USP-GEO
100
AcDbLine
 10
0.0985408616366556
 20
0.0630000000000034
 30
0.0
 11
0.0692515397553139
 21
0.0630000000000025
 31
0.0
  0
LINE
  5
29
100
AcDbEntity
  8
USP-GEO
100
AcDbLine
 10
0.0629999999999917
 20
-0.0000000000000004
 30
0.0
 11
0.0692515397553066
 21
-0.0000000000000003
 31
0.0
  0
LINE
  5
2A
100
AcDbEntity
  8
USP-GEO
100
AcDbLine
 10
0.0692515397553066
 20
0.0629999999999968
 30
0.0
 11
0.0692515397553063
 21
-0.0000000000000003
 31
0.0
  0
LINE
  5
2B
100
AcDbEntity
  8
USP-GEO
100
AcDbLine
 10
0.0629999999999953
 20
-0.0000000000000003
 30
0.0
 11
0.0629999999999956
 21
0.0630000000000056
 31
0.0
  0
LINE
  5
2C
100
AcDbEntity
  8
USP-GEO
100
AcDbLine
 10
0.0692515397553068
 20
-0.0000000000000017
 30
0.0
 11
0.0985408616366485
 21
-0.0000000000000008
 31
0.0
  0
LINE
  5
2D
100
AcDbEntity
  8
USP-GEO
100
AcDbLine
 10
0.0985408616366428
 20
0.0630000000000021
 30
0.0
 11
0.0985408616366425
 21
-0.0000000000000039
 31
0.0
  0
LINE
  5
2E
100
AcDbEntity
  8
USP-GEO
100
AcDbLine
 10
-0.0000000000000066
 20
0.2335251555413016
 30
0.0
 11
-0.0000000000000074
 21
0.0921037993040987
 31
0.0
  0
LINE
  5
2F
100
AcDbEntity
  8
USP-GEO
100
AcDbLine
 10
0.062999999999995
 20
0.0921037993041041
 30
0.0
 11
0.0629999999999958
 21
0.233525155541299
 31
0.0
  0
LINE
  5
30
100
AcDbEntity
  8
USP-GEO
100
AcDbLine
 10
0.0629999999999953
 20
0.0921037993041175
 30
0.0
 11
-0.0000000000000071
 21
0.0921037993041178
 31
0.0
  0
LINE
  5
31
100
AcDbEntity
  8
USP-GEO
100
AcDbLine
 10
0.0629999999999953
 20
0.233525155541297
 30
0.0
 11
-0.0000000000000071
 21
0.2335251555412974
 31
0.0
  0
LINE
  5
32
100
AcDbEntity
  8
USP-GEO
100
AcDbLine
 10
1.751000000000771
 20
0.0629999999999927
 30
0.0
 11
1.751000000000772
 21
0.0921037993043982
 31
0.0
  0
LINE
  5
33
100
AcDbEntity
  8
USP-GEO
100
AcDbLine
 10
1.688000000000776
 20
0.0921037993044035
 30
0.0
 11
1.688000000000776
 21
0.0629999999999936
 31
0.0
  0
LINE
  5
34
100
AcDbEntity
  8
USP-GEO
100
AcDbLine
 10
1.681748460245444
 20
0.0629999999999908
 30
0.0
 11
1.652459138364116
 21
0.0629999999999919
 31
0.0
  0
LINE
  5
35
100
AcDbEntity
  8
USP-GEO
100
AcDbLine
 10
1.652459138364116
 20
-0.0000000000000123
 30
0.0
 11
1.681748460245447
 21
-0.0000000000000134
 31
0.0
  0
LINE
  5
36
100
AcDbEntity
  8
USP-GEO
100
AcDbLine
 10
1.652459138364115
 20
0.0629999999999968
 30
0.0
 11
1.652459138364114
 21
-0.0000000000000039
 31
0.0
  0
LINE
  5
37
100
AcDbEntity
  8
USP-GEO
100
AcDbLine
 10
1.681748460245437
 20
0.0629999999999968
 30
0.0
 11
1.688000000000767
 21
0.0629999999999966
 31
0.0
  0
LINE
  5
38
100
AcDbEntity
  8
USP-GEO
100
AcDbLine
 10
1.681748460245437
 20
0.0629999999999968
 30
0.0
 11
1.681748460245436
 21
-0.000000000000011
 31
0.0
  0
LINE
  5
39
100
AcDbEntity
  8
USP-GEO
100
AcDbLine
 10
1.681748460245437
 20
-0.000000000000011
 30
0.0
 11
1.688000000000769
 21
-0.0000000000000111
 31
0.0
  0
LINE
  5
3A
100
AcDbEntity
  8
USP-GEO
100
AcDbLine
 10
1.688000000000769
 20
0.062999999999995
 30
0.0
 11
1.688000000000769
 21
-0.0000000000000074
 31
0.0
  0
LINE
  5
3B
100
AcDbEntity
  8
USP-GEO
100
AcDbLine
 10
1.751000000000764
 20
-0.0000000000000128
 30
0.0
 11
1.751000000000765
 21
0.062999999999995
 31
0.0
  0
LINE
  5
3C
100
AcDbEntity
  8
USP-GEO
100
AcDbLine
 10
1.688000000000769
 20
-0.0000000000000074
 30
0.0
 11
1.751000000000765
 21
-0.0000000000000077
 31
0.0
  0
LINE
  5
3D
100
AcDbEntity
  8
USP-GEO
100
AcDbLine
 10
1.688000000000769
 20
0.062999999999995
 30
0.0
 11
1.751000000000765
 21
0.0629999999999947
 31
0.0
  0
LINE
  5
3E
100
AcDbEntity
  8
USP-GEO
100
AcDbLine
 10
1.751000000000764
 20
0.0921037993043856
 30
0.0
 11
1.751000000000765
 21
0.2335251555415947
 31
0.0
  0
LINE
  5
3F
100
AcDbEntity
  8
USP-GEO
100
AcDbLine
 10
1.68800000000077
 20
0.2335251555415992
 30
0.0
 11
1.688000000000769
 21
0.0921037993043945
 31
0.0
  0
LINE
  5
40
100
AcDbEntity
  8
USP-GEO
100
AcDbLine
 10
1.688000000000776
 20
0.0921037993044035
 30
0.0
 11
1.751000000000772
 21
0.0921037993044032
 31
0.0
  0
LINE
  5
41
100
AcDbEntity
  8
USP-GEO
100
AcDbLine
 10
1.688000000000776
 20
0.2335251555415919
 30
0.0
 11
1.751000000000765
 21
0.2335251555415916
 31
0.0
  0
ARC
  5
42
100
AcDbEntity
  8
USP-GEO
100
AcDbCircle
 10
-1.15599999999997
 20
1.933739272115362
 30
0.0
 40
0.25
100
AcDbArc
 50
179.9999999999996
 51
224.9999999999982
  0
CIRCLE
  5
43
100
AcDbEntity
  8
USP-GEO
100
AcDbCircle
 10
-0.406000000000006
 20
1.44726406871166
 30
0.0
 40
0.086
  0
LINE
  5
44
100
AcDbEntity
  8
USP-GEO
100
AcDbLine
 10
0.0000000000000075
 20
1.934012528956573
 30
0.0
 11
0.0000000000000065
 21
1.757235833659938
 31
0.0
  0
LINE
  5
45
100
AcDbEntity
  8
USP-GEO
100
AcDbLine
 10
0.0630000000000089
 20
1.757235833659942
 30
0.0
 11
0.0630000000000099
 21
1.934012528956575
 31
0.0
  0
LINE
  5
46
100
AcDbEntity
  8
USP-GEO
100
AcDbLine
 10
0.0630000000000095
 20
1.757235833659938
 30
0.0
 11
0.0000000000000071
 21
1.757235833659938
 31
0.0
  0
LINE
  5
47
100
AcDbEntity
  8
USP-GEO
100
AcDbLine
 10
0.0630000000000095
 20
1.934012528956575
 30
0.0
 11
0.0000000000000071
 21
1.934012528956575
 31
0.0
  0
LINE
  5
48
100
AcDbEntity
  8
USP-GEO
100
AcDbLine
 10
1.751000000000771
 20
1.75723583366023
 30
0.0
 11
1.751000000000772
 21
1.93401252895687
 31
0.0
  0
LINE
  5
49
100
AcDbEntity
  8
USP-GEO
100
AcDbLine
 10
1.688000000000777
 20
1.934012528956873
 30
0.0
 11
1.688000000000776
 21
1.757235833660234
 31
0.0
  0
LINE
  5
4A
100
AcDbEntity
  8
USP-GEO
100
AcDbLine
 10
1.688000000000783
 20
1.75723583366023
 30
0.0
 11
1.751000000000779
 21
1.757235833660229
 31
0.0
  0
LINE
  5
4B
100
AcDbEntity
  8
USP-GEO
100
AcDbLine
 10
1.688000000000783
 20
1.934012528956873
 30
0.0
 11
1.751000000000779
 21
1.934012528956873
 31
0.0
  0
ARC
  5
4C
100
AcDbEntity
  8
USP-GEO
100
AcDbCircle
 10
2.90700000000076
 20
1.933739272115653
 30
0.0
 40
0.25
100
AcDbArc
 50
314.9999999999999
 51
0.0000000000000509
  0
LINE
  5
4D
100
AcDbEntity
  8
USP-GEO
100
AcDbLine
 10
0.000000000000032
 20
6.13432486540473
 30
0.0
 11
0.0000000000000284
 21
5.436675134594544
 31
0.0
  0
LINE
  5
4E
100
AcDbEntity
  8
USP-GEO
100
AcDbLine
 10
0.0630000000000237
 20
5.436675134594544
 30
0.0
 11
0.0630000000000273
 21
6.13432486540473
 31
0.0
  0
LINE
  5
4F
100
AcDbEntity
  8
USP-GEO
100
AcDbLine
 10
-1.405999999999984
 20
5.436675134594512
 30
0.0
 11
-1.405999999999981
 21
6.134324865404702
 31
0.0
  0
LINE
  5
50
100
AcDbEntity
  8
USP-GEO
100
AcDbLine
 10
1.751000000000793
 20
5.43667513459483
 30
0.0
 11
1.751000000000797
 21
6.134324865405012
 31
0.0
  0
LINE
  5
51
100
AcDbEntity
  8
USP-GEO
100
AcDbLine
 10
1.688000000000791
 20
5.43667513459483
 30
0.0
 11
1.688000000000794
 21
6.134324865405014
 31
0.0
  0
LINE
  5
52
100
AcDbEntity
  8
USP-GEO
100
AcDbLine
 10
3.157000000000802
 20
6.134324865404982
 30
0.0
 11
3.157000000000799
 21
5.436675134594798
 31
0.0
  0
CIRCLE
  5
53
100
AcDbEntity
  8
USP-GEO
100
AcDbCircle
 10
2.157000000000785
 20
2.597999999999822
 30
0.0
 40
0.086
  0
CIRCLE
  5
54
100
AcDbEntity
  8
USP-GEO
100
AcDbCircle
 10
2.157000000000799
 20
4.694999999999836
 30
0.0
 40
0.086
  0
CIRCLE
  5
55
100
AcDbEntity
  8
USP-GEO
100
AcDbCircle
 10
2.157000000000792
 20
3.722999999999822
 30
0.0
 40
0.086
  0
CIRCLE
  5
56
100
AcDbEntity
  8
USP-GEO
100
AcDbCircle
 10
-0.4059999999999988
 20
2.597999999999669
 30
0.0
 40
0.086
  0
CIRCLE
  5
57
100
AcDbEntity
  8
USP-GEO
100
AcDbCircle
 10
-1.105999999999951
 20
3.397264068711647
 30
0.0
 40
0.086
  0
CIRCLE
  5
58
100
AcDbEntity
  8
USP-GEO
100
AcDbCircle
 10
-0.4059999999999917
 20
3.7229999999997
 30
0.0
 40
0.086
  0
ARC
  5
59
100
AcDbEntity
  8
USP-GEO
100
AcDbCircle
 10
0.0599951556067922
 20
2.301794617429206
 30
0.0
 40
0.1
100
AcDbArc
 50
126.8664281830974
 51
233.1335718169018
  0
ARC
  5
5A
100
AcDbEntity
  8
USP-GEO
100
AcDbCircle
 10
1.702000000000808
 20
3.160499999999858
 30
0.0
 40
0.1
100
AcDbArc
 50
299.3405815746555
 51
60.65941842534433
  0
LINE
  5
5B
100
AcDbEntity
  8
USP-GEO
100
AcDbLine
 10
-1.906000000000098
 20
4.547999999999635
 30
0.0
 11
-1.906000000000095
 21
5.147999999999628
 31
0.0
  0
CIRCLE
  5
5C
100
AcDbEntity
  8
USP-GEO
100
AcDbCircle
 10
-0.4059999999999846
 20
4.694999999999682
 30
0.0
 40
0.086
  0
LINE
  5
5D
100
AcDbEntity
  8
USP-GEO
100
AcDbLine
 10
-1.405999999999958
 20
4.259324865404751
 30
0.0
 11
-1.906000000000098
 21
4.547999999999635
 31
0.0
  0
CIRCLE
  5
5E
100
AcDbEntity
  8
USP-GEO
100
AcDbCircle
 10
-1.105999999999944
 20
4.36726406871165
 30
0.0
 40
0.086
  0
CIRCLE
  5
5F
100
AcDbEntity
  8
USP-GEO
100
AcDbCircle
 10
-1.606000000000001
 20
4.847999999999649
 30
0.0
 40
0.086
  0
LINE
  5
60
100
AcDbEntity
  8
USP-GEO
100
AcDbLine
 10
-1.906000000000098
 20
5.147999999999628
 30
0.0
 11
-1.405999999999982
 21
5.436675134594509
 31
0.0
  0
LINE
  5
61
100
AcDbEntity
  8
USP-GEO
100
AcDbLine
 10
0.0000000000000314
 20
5.147999999999653
 30
0.0
 11
0.0000000000000284
 21
4.547999999999658
 31
0.0
  0
LINE
  5
62
100
AcDbEntity
  8
USP-GEO
100
AcDbLine
 10
0.0630000000000237
 20
4.547999999999658
 30
0.0
 11
0.0630000000000267
 21
5.147999999999653
 31
0.0
  0
LINE
  5
63
100
AcDbEntity
  8
USP-GEO
100
AcDbLine
 10
1.751000000000793
 20
4.547999999999948
 30
0.0
 11
1.751000000000796
 21
5.147999999999935
 31
0.0
  0
LINE
  5
64
100
AcDbEntity
  8
USP-GEO
100
AcDbLine
 10
1.688000000000791
 20
4.547999999999948
 30
0.0
 11
1.688000000000793
 21
5.147999999999939
 31
0.0
  0
LINE
  5
65
100
AcDbEntity
  8
USP-GEO
100
AcDbLine
 10
0.0000000000000284
 20
4.547999999999658
 30
0.0
 11
0.0000000000000261
 21
4.253794315615641
 31
0.0
  0
LINE
  5
66
100
AcDbEntity
  8
USP-GEO
100
AcDbLine
 10
0.0630000000000237
 20
4.547999999999658
 30
0.0
 11
0.0630000000000214
 21
4.253794315615641
 31
0.0
  0
LINE
  5
67
100
AcDbEntity
  8
USP-GEO
100
AcDbLine
 10
0.0630000000000237
 20
4.253794315615637
 30
0.0
 11
0.0000000000000284
 21
4.253794315615637
 31
0.0
  0
LINE
  5
68
100
AcDbEntity
  8
USP-GEO
100
AcDbLine
 10
0.0630000000000237
 20
4.547999999999658
 30
0.0
 11
0.0000000000000284
 21
4.547999999999658
 31
0.0
  0
LINE
  5
69
100
AcDbEntity
  8
USP-GEO
100
AcDbLine
 10
1.751000000000791
 20
4.253794315615929
 30
0.0
 11
1.751000000000793
 21
4.547999999999948
 31
0.0
  0
LINE
  5
6A
100
AcDbEntity
  8
USP-GEO
100
AcDbLine
 10
1.688000000000791
 20
4.547999999999948
 30
0.0
 11
1.688000000000788
 21
4.253794315615931
 31
0.0
  0
LINE
  5
6B
100
AcDbEntity
  8
USP-GEO
100
AcDbLine
 10
1.688000000000791
 20
4.253794315615937
 30
0.0
 11
1.751000000000779
 21
4.253794315615937
 31
0.0
  0
LINE
  5
6C
100
AcDbEntity
  8
USP-GEO
100
AcDbLine
 10
1.688000000000791
 20
4.547999999999948
 30
0.0
 11
1.751000000000793
 21
4.547999999999948
 31
0.0
  0
LINE
  5
6D
100
AcDbEntity
  8
USP-GEO
100
AcDbLine
 10
0.0000000000000291
 20
5.436675134594541
 30
0.0
 11
0.0000000000000284
 21
5.147999999999639
 31
0.0
  0
LINE
  5
6E
100
AcDbEntity
  8
USP-GEO
100
AcDbLine
 10
0.0630000000000308
 20
5.147999999999638
 30
0.0
 11
0.0630000000000315
 21
5.43667513459454
 31
0.0
  0
LINE
  5
6F
100
AcDbEntity
  8
USP-GEO
100
AcDbLine
 10
0.0630000000000237
 20
5.147999999999653
 30
0.0
 11
0.0000000000000355
 21
5.147999999999653
 31
0.0
  0
LINE
  5
70
100
AcDbEntity
  8
USP-GEO
100
AcDbLine
 10
0.0630000000000237
 20
5.436675134594544
 30
0.0
 11
0.0000000000000284
 21
5.436675134594544
 31
0.0
  0
ARC
  5
71
100
AcDbEntity
  8
USP-GEO
100
AcDbCircle
 10
0.0689999999999955
 20
5.463499999999582
 30
0.0
 40
0.1
100
AcDbArc
 50
133.6301088672384
 51
226.3698911321593
  0
LINE
  5
72
100
AcDbEntity
  8
USP-GEO
100
AcDbLine
 10
1.751000000000793
 20
5.147999999999935
 30
0.0
 11
1.751000000000794
 21
5.436675134594828
 31
0.0
  0
LINE
  5
73
100
AcDbEntity
  8
USP-GEO
100
AcDbLine
 10
1.688000000000798
 20
5.147999999999939
 30
0.0
 11
1.688000000000798
 21
5.43667513459483
 31
0.0
  0
LINE
  5
74
100
AcDbEntity
  8
USP-GEO
100
AcDbLine
 10
1.688000000000798
 20
5.147999999999939
 30
0.0
 11
1.751000000000793
 21
5.147999999999939
 31
0.0
  0
LINE
  5
75
100
AcDbEntity
  8
USP-GEO
100
AcDbLine
 10
1.688000000000791
 20
5.43667513459483
 30
0.0
 11
1.751000000000793
 21
5.43667513459483
 31
0.0
  0
CIRCLE
  5
76
100
AcDbEntity
  8
USP-GEO
100
AcDbCircle
 10
2.857000000000756
 20
3.397264068711773
 30
0.0
 40
0.086
  0
LINE
  5
77
100
AcDbEntity
  8
USP-GEO
100
AcDbLine
 10
3.657000000000912
 20
5.14799999999991
 30
0.0
 11
3.657000000000909
 21
4.547999999999921
 31
0.0
  0
LINE
  5
78
100
AcDbEntity
  8
USP-GEO
100
AcDbLine
 10
3.657000000000909
 20
4.547999999999921
 30
0.0
 11
3.15700000000077
 21
4.259324865405044
 31
0.0
  0
CIRCLE
  5
79
100
AcDbEntity
  8
USP-GEO
100
AcDbCircle
 10
2.857000000000759
 20
4.36926406871178
 30
0.0
 40
0.086
  0
LINE
  5
7A
100
AcDbEntity
  8
USP-GEO
100
AcDbLine
 10
3.157000000000798
 20
5.436675134594796
 30
0.0
 11
3.657000000000913
 21
5.14799999999991
 31
0.0
  0
CIRCLE
  5
7B
100
AcDbEntity
  8
USP-GEO
100
AcDbCircle
 10
3.357000000000816
 20
4.847999999999768
 30
0.0
 40
0.086
  0
CIRCLE
  5
7C
100
AcDbEntity
  8
USP-GEO
100
AcDbCircle
 10
2.157000000000849
 20
8.723000953674151
 30
0.0
 40
0.086
  0
CIRCLE
  5
7D
100
AcDbEntity
  8
USP-GEO
100
AcDbCircle
 10
2.157000000000799
 20
5.666999999999804
 30
0.0
 40
0.086
  0
CIRCLE
  5
7E
100
AcDbEntity
  8
USP-GEO
100
AcDbCircle
 10
2.157000000000834
 20
6.722999999999821
 30
0.0
 40
0.086
  0
CIRCLE
  5
7F
100
AcDbEntity
  8
USP-GEO
100
AcDbCircle
 10
2.157000000000834
 20
7.723000476836998
 30
0.0
 40
0.086
  0
LINE
  5
80
100
AcDbEntity
  8
USP-GEO
100
AcDbLine
 10
-1.906000000000148
 20
7.022999999999658
 30
0.0
 11
-1.405999999999969
 21
7.311675134594541
 31
0.0
  0
CIRCLE
  5
81
100
AcDbEntity
  8
USP-GEO
100
AcDbCircle
 10
-1.105999999999937
 20
7.294379636177756
 30
0.0
 40
0.086
  0
LINE
  5
82
100
AcDbEntity
  8
USP-GEO
100
AcDbLine
 10
0.0000000000000363
 20
7.311675134594545
 30
0.0
 11
0.0000000000000355
 21
7.022999999999655
 31
0.0
  0
LINE
  5
83
100
AcDbEntity
  8
USP-GEO
100
AcDbLine
 10
0.0630000000000308
 20
7.022999999999655
 30
0.0
 11
0.0630000000000316
 21
7.311675134594542
 31
0.0
  0
LINE
  5
84
100
AcDbEntity
  8
USP-GEO
100
AcDbLine
 10
1.751000000000807
 20
7.022999999999935
 30
0.0
 11
1.751000000000808
 21
7.311675134594839
 31
0.0
  0
LINE
  5
85
100
AcDbEntity
  8
USP-GEO
100
AcDbLine
 10
1.688000000000812
 20
7.022999999999939
 30
0.0
 11
1.688000000000813
 21
7.311675134594842
 31
0.0
  0
LINE
  5
86
100
AcDbEntity
  8
USP-GEO
100
AcDbLine
 10
-1.405999999999987
 20
6.134324865404696
 30
0.0
 11
-1.906000000000155
 21
6.422999999999637
 31
0.0
  0
CIRCLE
  5
87
100
AcDbEntity
  8
USP-GEO
100
AcDbCircle
 10
-1.105999999999937
 20
6.007264068711632
 30
0.0
 40
0.086
  0
CIRCLE
  5
88
100
AcDbEntity
  8
USP-GEO
100
AcDbCircle
 10
-0.4059999999999846
 20
5.666999999999692
 30
0.0
 40
0.086
  0
LINE
  5
89
100
AcDbEntity
  8
USP-GEO
100
AcDbLine
 10
-1.906000000000155
 20
6.422999999999637
 30
0.0
 11
-1.906000000000151
 21
7.022999999999658
 31
0.0
  0
CIRCLE
  5
8A
100
AcDbEntity
  8
USP-GEO
100
AcDbCircle
 10
-1.606000000000058
 20
6.722999999999649
 30
0.0
 40
0.086
  0
CIRCLE
  5
8B
100
AcDbEntity
  8
USP-GEO
100
AcDbCircle
 10
-0.406000000000006
 20
6.722999999999696
 30
0.0
 40
0.086
  0
LINE
  5
8C
100
AcDbEntity
  8
USP-GEO
100
AcDbLine
 10
0.0000000000000284
 20
6.422999999999662
 30
0.0
 11
0.0000000000000261
 21
6.134324865404732
 31
0.0
  0
LINE
  5
8D
100
AcDbEntity
  8
USP-GEO
100
AcDbLine
 10
0.0630000000000237
 20
6.422999999999662
 30
0.0
 11
0.0630000000000214
 21
6.134324865404732
 31
0.0
  0
LINE
  5
8E
100
AcDbEntity
  8
USP-GEO
100
AcDbLine
 10
1.751000000000798
 20
6.134324865405016
 30
0.0
 11
1.7510000000008
 21
6.422999999999944
 31
0.0
  0
LINE
  5
8F
100
AcDbEntity
  8
USP-GEO
100
AcDbLine
 10
1.688000000000805
 20
6.42299999999995
 30
0.0
 11
1.688000000000803
 21
6.134324865405019
 31
0.0
  0
LINE
  5
90
100
AcDbEntity
  8
USP-GEO
100
AcDbLine
 10
0.0630000000000308
 20
6.13432486540473
 30
0.0
 11
0.0000000000000355
 21
6.13432486540473
 31
0.0
  0
LINE
  5
91
100
AcDbEntity
  8
USP-GEO
100
AcDbLine
 10
1.688000000000798
 20
6.134324865405014
 30
0.0
 11
1.7510000000008
 21
6.134324865405014
 31
0.0
  0
ARC
  5
92
100
AcDbEntity
  8
USP-GEO
100
AcDbCircle
 10
1.702000000000822
 20
6.194999999999856
 30
0.0
 40
0.1
100
AcDbArc
 50
299.340581575001
 51
60.65941842499198
  0
LINE
  5
93
100
AcDbEntity
  8
USP-GEO
100
AcDbLine
 10
0.0000000000000314
 20
7.022999999999655
 30
0.0
 11
0.0000000000000284
 21
6.422999999999662
 31
0.0
  0
LINE
  5
94
100
AcDbEntity
  8
USP-GEO
100
AcDbLine
 10
0.0630000000000237
 20
6.422999999999662
 30
0.0
 11
0.0630000000000267
 21
7.022999999999655
 31
0.0
  0
LINE
  5
95
100
AcDbEntity
  8
USP-GEO
100
AcDbLine
 10
0.0630000000000237
 20
6.422999999999662
 30
0.0
 11
0.0000000000000284
 21
6.422999999999662
 31
0.0
  0
LINE
  5
96
100
AcDbEntity
  8
USP-GEO
100
AcDbLine
 10
0.0630000000000308
 20
7.022999999999655
 30
0.0
 11
0.0000000000000355
 21
7.022999999999655
 31
0.0
  0
LINE
  5
97
100
AcDbEntity
  8
USP-GEO
100
AcDbLine
 10
1.7510000000008
 20
6.422999999999944
 30
0.0
 11
1.751000000000803
 21
7.022999999999935
 31
0.0
  0
LINE
  5
98
100
AcDbEntity
  8
USP-GEO
100
AcDbLine
 10
1.688000000000805
 20
6.42299999999995
 30
0.0
 11
1.688000000000808
 21
7.022999999999939
 31
0.0
  0
LINE
  5
99
100
AcDbEntity
  8
USP-GEO
100
AcDbLine
 10
1.688000000000805
 20
6.42299999999995
 30
0.0
 11
1.7510000000008
 21
6.42299999999995
 31
0.0
  0
LINE
  5
9A
100
AcDbEntity
  8
USP-GEO
100
AcDbLine
 10
1.688000000000812
 20
7.022999999999939
 30
0.0
 11
1.751000000000807
 21
7.022999999999939
 31
0.0
  0
LINE
  5
9B
100
AcDbEntity
  8
USP-GEO
100
AcDbLine
 10
-1.40599999999997
 20
7.311675134594542
 30
0.0
 11
-1.405999999999994
 21
8.134324865404694
 31
0.0
  0
CIRCLE
  5
9C
100
AcDbEntity
  8
USP-GEO
100
AcDbCircle
 10
-0.4059999999999988
 20
7.723000476836858
 30
0.0
 40
0.086
  0
LINE
  5
9D
100
AcDbEntity
  8
USP-GEO
100
AcDbLine
 10
-1.405999999999993
 20
8.134324865404691
 30
0.0
 11
-1.906000000000197
 21
8.422999999999637
 31
0.0
  0
CIRCLE
  5
9E
100
AcDbEntity
  8
USP-GEO
100
AcDbCircle
 10
-1.605999999999987
 20
8.722999999999645
 30
0.0
 40
0.086
  0
CIRCLE
  5
9F
100
AcDbEntity
  8
USP-GEO
100
AcDbCircle
 10
-1.10599999999993
 20
8.326021785074717
 30
0.0
 40
0.086
  0
CIRCLE
  5
A0
100
AcDbEntity
  8
USP-GEO
100
AcDbCircle
 10
-0.4059999999999917
 20
8.723000953674011
 30
0.0
 40
0.086
  0
LINE
  5
A1
100
AcDbEntity
  8
USP-GEO
100
AcDbLine
 10
0.0000000000000397
 20
8.134324865404698
 30
0.0
 11
0.0000000000000355
 21
7.311675134594542
 31
0.0
  0
LINE
  5
A2
100
AcDbEntity
  8
USP-GEO
100
AcDbLine
 10
0.0630000000000308
 20
7.311675134594542
 30
0.0
 11
0.063000000000035
 21
8.134324865404698
 31
0.0
  0
LINE
  5
A3
100
AcDbEntity
  8
USP-GEO
100
AcDbLine
 10
1.751000000000807
 20
7.311675134594842
 30
0.0
 11
1.751000000000811
 21
8.134324865404964
 31
0.0
  0
LINE
  5
A4
100
AcDbEntity
  8
USP-GEO
100
AcDbLine
 10
1.688000000000812
 20
7.311675134594842
 30
0.0
 11
1.688000000000816
 21
8.134324865404964
 31
0.0
  0
LINE
  5
A5
100
AcDbEntity
  8
USP-GEO
100
AcDbLine
 10
0.0630000000000308
 20
7.311675134594542
 30
0.0
 11
0.0000000000000355
 21
7.311675134594542
 31
0.0
  0
LINE
  5
A6
100
AcDbEntity
  8
USP-GEO
100
AcDbLine
 10
1.688000000000812
 20
7.311675134594842
 30
0.0
 11
1.751000000000807
 21
7.311675134594842
 31
0.0
  0
LINE
  5
A7
100
AcDbEntity
  8
USP-GEO
100
AcDbLine
 10
0.0000000000000497
 20
8.422999999999632
 30
0.0
 11
0.0000000000000475
 21
8.134324865404702
 31
0.0
  0
LINE
  5
A8
100
AcDbEntity
  8
USP-GEO
100
AcDbLine
 10
0.0630000000000379
 20
8.422999999999632
 30
0.0
 11
0.0630000000000357
 21
8.134324865404698
 31
0.0
  0
LINE
  5
A9
100
AcDbEntity
  8
USP-GEO
100
AcDbLine
 10
0.0630000000000379
 20
8.134324865404698
 30
0.0
 11
0.0000000000000426
 21
8.134324865404698
 31
0.0
  0
LINE
  5
AA
100
AcDbEntity
  8
USP-GEO
100
AcDbLine
 10
0.0630000000000379
 20
8.422999999999632
 30
0.0
 11
0.0000000000000497
 21
8.422999999999632
 31
0.0
  0
LINE
  5
AB
100
AcDbEntity
  8
USP-GEO
100
AcDbLine
 10
1.751000000000805
 20
8.134324865404966
 30
0.0
 11
1.751000000000807
 21
8.422999999999897
 31
0.0
  0
LINE
  5
AC
100
AcDbEntity
  8
USP-GEO
100
AcDbLine
 10
1.688000000000812
 20
8.422999999999902
 30
0.0
 11
1.68800000000081
 21
8.134324865404968
 31
0.0
  0
LINE
  5
AD
100
AcDbEntity
  8
USP-GEO
100
AcDbLine
 10
1.688000000000819
 20
8.134324865404964
 30
0.0
 11
1.751000000000814
 21
8.134324865404964
 31
0.0
  0
LINE
  5
AE
100
AcDbEntity
  8
USP-GEO
100
AcDbLine
 10
1.688000000000812
 20
8.422999999999902
 30
0.0
 11
1.751000000000807
 21
8.422999999999902
 31
0.0
  0
CIRCLE
  5
AF
100
AcDbEntity
  8
USP-GEO
100
AcDbCircle
 10
2.85700000000077
 20
7.294601825353787
 30
0.0
 40
0.086
  0
LINE
  5
B0
100
AcDbEntity
  8
USP-GEO
100
AcDbLine
 10
3.157000000000809
 20
7.311675134594812
 30
0.0
 11
3.657000000000984
 21
7.02299999999991
 31
0.0
  0
LINE
  5
B1
100
AcDbEntity
  8
USP-GEO
100
AcDbLine
 10
3.657000000000977
 20
6.422999999999918
 30
0.0
 11
3.157000000000803
 21
6.13432486540498
 31
0.0
  0
CIRCLE
  5
B2
100
AcDbEntity
  8
USP-GEO
100
AcDbCircle
 10
2.85700000000077
 20
6.009264068711758
 30
0.0
 40
0.086
  0
CIRCLE
  5
B3
100
AcDbEntity
  8
USP-GEO
100
AcDbCircle
 10
3.357000000000887
 20
6.722999999999759
 30
0.0
 40
0.086
  0
LINE
  5
B4
100
AcDbEntity
  8
USP-GEO
100
AcDbLine
 10
3.65700000000098
 20
7.02299999999991
 30
0.0
 11
3.657000000000977
 21
6.422999999999918
 31
0.0
  0
LINE
  5
B5
100
AcDbEntity
  8
USP-GEO
100
AcDbLine
 10
3.157000000000838
 20
8.134324865404964
 30
0.0
 11
3.157000000000806
 21
7.311675134594807
 31
0.0
  0
CIRCLE
  5
B6
100
AcDbEntity
  8
USP-GEO
100
AcDbCircle
 10
3.357000000000834
 20
8.722999999999773
 30
0.0
 40
0.086
  0
LINE
  5
B7
100
AcDbEntity
  8
USP-GEO
100
AcDbLine
 10
3.657000000001048
 20
8.4229999999999
 30
0.0
 11
3.157000000000843
 21
8.134324865404961
 31
0.0
  0
CIRCLE
  5
B8
100
AcDbEntity
  8
USP-GEO
100
AcDbCircle
 10
2.857000000000777
 20
8.326021785074848
 30
0.0
 40
0.086
  0
LINE
  5
B9
100
AcDbEntity
  8
USP-GEO
100
AcDbLine
 10
1.751000000000807
 20
9.022999999999974
 30
0.0
 11
3.657000000001051
 21
9.022999999999866
 31
0.0
  0
LINE
  5
BA
100
AcDbEntity
  8
USP-GEO
100
AcDbLine
 10
-1.90600000000019
 20
9.022999999999704
 30
0.0
 11
0.0000000000000497
 21
9.022999999999695
 31
0.0
  0
LINE
  5
BB
100
AcDbEntity
  8
USP-GEO
100
AcDbLine
 10
0.063000000000045
 20
9.022999999999766
 30
0.0
 11
0.0000000000000497
 21
9.022999999999766
 31
0.0
  0
LINE
  5
BC
100
AcDbEntity
  8
USP-GEO
100
AcDbLine
 10
1.688000000000812
 20
9.023000000000036
 30
0.0
 11
1.751000000000807
 21
9.023000000000036
 31
0.0
  0
ENDBLK
  5
BF
100
AcDbEntity
  8
0
100
AcDbBlockEnd
  0
BLOCK
  5
F5
100
AcDbEntity
  8
0
100
AcDbBlockBegin
  2
THD210_T
 70
     0
 10
0.0
 20
0.0
 30
0.0
  3
THD210_T
  1

  0
LINE
  5
C2
100
AcDbEntity
  8
USP-GEO
100
AcDbLine
 10
3.558459138364305
 20
3.000273256841177
 30
0.0
 11
2.00454086163684
 21
3.000273256841181
 31
0.0
  0
LINE
  5
C3
100
AcDbEntity
  8
USP-GEO
100
AcDbLine
 10
2.004540861636833
 20
0.0
 30
0.0
 11
3.558459138364305
 21
-0.0000000000000089
 31
0.0
  0
TEXT
  5
C4
100
AcDbEntity
  8
USP-TXT
100
AcDbText
 10
-0.3648356772826702
 20
-1.921638464096471
 30
0.0
 40
0.375
  1
THD210 - TOP VIEW
 72
     1
 11
2.728914322717329
 21
-1.921638464096471
 31
0.0
100
AcDbText
  0
LINE
  5
C5
100
AcDbEntity
  8
USP-GEO
100
AcDbLine
 10
1.969000000000235
 20
3.360000000000111
 30
0.0
 11
1.969000000000233
 21
2.212579193228977
 31
0.0
  0
LINE
  5
C6
100
AcDbEntity
  8
USP-GEO
100
AcDbLine
 10
1.90600000000024
 20
3.297000000000119
 30
0.0
 11
1.906000000000238
 21
2.212579193228977
 31
0.0
  0
LINE
  5
C7
100
AcDbEntity
  8
USP-GEO
100
AcDbLine
 10
1.906000000000193
 20
1.629776695296614
 30
0.0
 11
1.906000000000183
 21
0.1060660171779428
 31
0.0
  0
LINE
  5
C8
100
AcDbEntity
  8
USP-GEO
100
AcDbLine
 10
1.969000000000185
 20
0.1060660171779499
 30
0.0
 11
1.969000000000195
 21
1.629776695296628
 31
0.0
  0
LINE
  5
C9
100
AcDbEntity
  8
USP-GEO
100
AcDbLine
 10
1.969000000000185
 20
0.0769622178739375
 30
0.0
 11
1.906000000000183
 21
0.0769622178739375
 31
0.0
  0
LINE
  5
CA
100
AcDbEntity
  8
USP-GEO
100
AcDbLine
 10
1.969000000000185
 20
0.1060660171779624
 30
0.0
 11
1.906000000000183
 21
0.1060660171779624
 31
0.0
  0
LINE
  5
CB
100
AcDbEntity
  8
USP-GEO
100
AcDbLine
 10
1.906000000000183
 20
0.106066017178005
 30
0.0
 11
1.906000000000183
 21
0.076962217873934
 31
0.0
  0
LINE
  5
CC
100
AcDbEntity
  8
USP-GEO
100
AcDbLine
 10
1.969000000000185
 20
0.1060660171780121
 30
0.0
 11
1.969000000000185
 21
0.0769622178739358
 31
0.0
  0
ARC
  5
CD
100
AcDbEntity
  8
USP-GEO
100
AcDbCircle
 10
1.904540861636846
 20
-0.0000000000000036
 30
0.0
 40
0.1
100
AcDbArc
 50
0.0000000000021373
 51
44.99999999999715
  0
LINE
  5
CE
100
AcDbEntity
  8
USP-GEO
100
AcDbLine
 10
1.975251539755497
 20
0.0707106781186404
 30
0.0
 11
1.969000000000189
 21
0.0769622178739411
 31
0.0
  0
LINE
  5
CF
100
AcDbEntity
  8
USP-GEO
100
AcDbLine
 10
1.969000000000228
 20
2.212579193228942
 30
0.0
 11
1.969000000000226
 21
1.712579193228735
 31
0.0
  0
LINE
  5
D0
100
AcDbEntity
  8
USP-GEO
100
AcDbLine
 10
1.90600000000024
 20
2.212579193228934
 30
0.0
 11
1.906000000000238
 21
1.712579193228735
 31
0.0
  0
LINE
  5
D1
100
AcDbEntity
  8
USP-GEO
100
AcDbLine
 10
1.969000000000199
 20
1.629776695296628
 30
0.0
 11
1.9690000000002
 21
1.70299999999999
 31
0.0
  0
LINE
  5
D2
100
AcDbEntity
  8
USP-GEO
100
AcDbLine
 10
1.906000000000198
 20
1.70299999999999
 30
0.0
 11
1.906000000000197
 21
1.629776695296621
 31
0.0
  0
LINE
  5
D3
100
AcDbEntity
  8
USP-GEO
100
AcDbLine
 10
1.9690000000002
 20
1.629776695296628
 30
0.0
 11
1.906000000000197
 21
1.629776695296628
 31
0.0
  0
LINE
  5
D4
100
AcDbEntity
  8
USP-GEO
100
AcDbLine
 10
1.969000000000228
 20
1.712579193228735
 30
0.0
 11
1.906000000000233
 21
1.712579193228735
 31
0.0
  0
LINE
  5
D5
100
AcDbEntity
  8
USP-GEO
100
AcDbLine
 10
1.969000000000214
 20
1.703000000000054
 30
0.0
 11
1.906000000000219
 21
1.703000000000054
 31
0.0
  0
LINE
  5
D6
100
AcDbEntity
  8
USP-GEO
100
AcDbLine
 10
1.906000000000216
 20
1.712579193228672
 30
0.0
 11
1.906000000000216
 21
1.70300000000005
 31
0.0
  0
LINE
  5
D7
100
AcDbEntity
  8
USP-GEO
100
AcDbLine
 10
1.969000000000212
 20
1.712579193228675
 30
0.0
 11
1.969000000000212
 21
1.70300000000005
 31
0.0
  0
LINE
  5
D8
100
AcDbEntity
  8
USP-GEO
100
AcDbLine
 10
1.969000000000235
 20
2.212579193228977
 30
0.0
 11
1.90600000000024
 21
2.212579193228977
 31
0.0
  0
LINE
  5
D9
100
AcDbEntity
  8
USP-GEO
100
AcDbLine
 10
0.0000000000000001
 20
3.360000000000114
 30
0.0
 11
1.969000000000235
 21
3.360000000000111
 31
0.0
  0
LINE
  5
DA
100
AcDbEntity
  8
USP-GEO
100
AcDbLine
 10
0.0000000000000001
 20
3.297000000000119
 30
0.0
 11
1.90600000000024
 21
3.297000000000116
 31
0.0
  0
LINE
  5
DB
100
AcDbEntity
  8
USP-GEO
100
AcDbLine
 10
0.0000000000000001
 20
3.360000000000114
 30
0.0
 11
0.0000000000000001
 21
3.297000000000119
 31
0.0
  0
ARC
  5
DC
100
AcDbEntity
  8
USP-GEO
100
AcDbCircle
 10
1.904540861636846
 20
3.000273256841177
 30
0.0
 40
0.1
100
AcDbArc
 50
310.1350457291513
 51
0.0000000000001018
  0
LINE
  5
DD
100
AcDbEntity
  8
USP-GEO
100
AcDbLine
 10
5.563000000001245
 20
3.360000000000438
 30
0.0
 11
3.59400000000101
 21
3.360000000000441
 31
0.0
  0
LINE
  5
DE
100
AcDbEntity
  8
USP-GEO
100
AcDbLine
 10
3.657000000000998
 20
3.297000000000442
 30
0.0
 11
5.563000000001242
 21
3.297000000000439
 31
0.0
  0
LINE
  5
DF
100
AcDbEntity
  8
USP-GEO
100
AcDbLine
 10
3.59400000000101
 20
3.360000000000438
 30
0.0
 11
3.594000000001008
 21
2.212579193229304
 31
0.0
  0
LINE
  5
E0
100
AcDbEntity
  8
USP-GEO
100
AcDbLine
 10
3.657000000001003
 20
2.2125791932293
 30
0.0
 11
3.657000000001005
 21
3.297000000000439
 31
0.0
  0
LINE
  5
E1
100
AcDbEntity
  8
USP-GEO
100
AcDbLine
 10
3.594000000000967
 20
0.1060660171782821
 30
0.0
 11
3.594000000000977
 21
1.629776695296948
 31
0.0
  0
LINE
  5
E2
100
AcDbEntity
  8
USP-GEO
100
AcDbLine
 10
3.657000000000955
 20
0.1060660171782821
 30
0.0
 11
3.657000000000965
 21
1.629776695296945
 31
0.0
  0
LINE
  5
E3
100
AcDbEntity
  8
USP-GEO
100
AcDbLine
 10
3.594000000000967
 20
0.1060660171782821
 30
0.0
 11
3.657000000000955
 21
0.1060660171782821
 31
0.0
  0
LINE
  5
E4
100
AcDbEntity
  8
USP-GEO
100
AcDbLine
 10
3.59400000000096
 20
0.076962217873966
 30
0.0
 11
3.657000000000955
 21
0.076962217873966
 31
0.0
  0
LINE
  5
E5
100
AcDbEntity
  8
USP-GEO
100
AcDbLine
 10
3.594000000000967
 20
0.1060660171783354
 30
0.0
 11
3.594000000000967
 21
0.0769622178739677
 31
0.0
  0
ARC
  5
E6
100
AcDbEntity
  8
USP-GEO
100
AcDbCircle
 10
3.658459138364307
 20
-0.0000000000000071
 30
0.0
 40
0.1
100
AcDbArc
 50
135.0000000000146
 51
179.9999999999931
  0
LINE
  5
E7
100
AcDbEntity
  8
USP-GEO
100
AcDbLine
 10
3.587748460245627
 20
0.0707106781186369
 30
0.0
 11
3.594000000000958
 21
0.0769622178739677
 31
0.0
  0
LINE
  5
E8
100
AcDbEntity
  8
USP-GEO
100
AcDbLine
 10
3.657000000000962
 20
0.0769622178739677
 30
0.0
 11
3.657000000000962
 21
0.1060660171783319
 31
0.0
  0
LINE
  5
E9
100
AcDbEntity
  8
USP-GEO
100
AcDbLine
 10
3.594000000001003
 20
2.212579193229265
 30
0.0
 11
3.594000000001001
 21
1.712579193229062
 31
0.0
  0
LINE
  5
EA
100
AcDbEntity
  8
USP-GEO
100
AcDbLine
 10
3.657000000000996
 20
1.712579193229062
 30
0.0
 11
3.657000000000998
 21
2.212579193229261
 31
0.0
  0
LINE
  5
EB
100
AcDbEntity
  8
USP-GEO
100
AcDbLine
 10
3.59400000000101
 20
1.712579193229062
 30
0.0
 11
3.657000000001005
 21
1.712579193229062
 31
0.0
  0
LINE
  5
EC
100
AcDbEntity
  8
USP-GEO
100
AcDbLine
 10
3.594000000000981
 20
1.703000000000374
 30
0.0
 11
3.657000000000969
 21
1.703000000000374
 31
0.0
  0
LINE
  5
ED
100
AcDbEntity
  8
USP-GEO
100
AcDbLine
 10
3.594000000000974
 20
1.629776695296948
 30
0.0
 11
3.657000000000969
 21
1.629776695296948
 31
0.0
  0
LINE
  5
EE
100
AcDbEntity
  8
USP-GEO
100
AcDbLine
 10
3.594000000000967
 20
1.70300000000031
 30
0.0
 11
3.594000000000966
 21
1.629776695296948
 31
0.0
  0
LINE
  5
EF
100
AcDbEntity
  8
USP-GEO
100
AcDbLine
 10
3.594000000000979
 20
1.712579193228998
 30
0.0
 11
3.594000000000979
 21
1.703000000000381
 31
0.0
  0
LINE
  5
F0
100
AcDbEntity
  8
USP-GEO
100
AcDbLine
 10
3.657000000000961
 20
1.629776695296948
 30
0.0
 11
3.657000000000962
 21
1.70300000000031
 31
0.0
  0
LINE
  5
F1
100
AcDbEntity
  8
USP-GEO
100
AcDbLine
 10
3.657000000000982
 20
1.703000000000377
 30
0.0
 11
3.657000000000982
 21
1.712579193228998
 31
0.0
  0
LINE
  5
F2
100
AcDbEntity
  8
USP-GEO
100
AcDbLine
 10
3.594000000001003
 20
2.212579193229304
 30
0.0
 11
3.657000000000998
 21
2.212579193229304
 31
0.0
  0
ARC
  5
F3
100
AcDbEntity
  8
USP-GEO
100
AcDbCircle
 10
3.658459138364307
 20
3.000273256841177
 30
0.0
 40
0.1
100
AcDbArc
 50
180.0000000000041
 51
229.8649542707329
  0
LINE
  5
F4
100
AcDbEntity
  8
USP-GEO
100
AcDbLine
 10
5.563000000001245
 20
3.360000000000438
 30
0.0
 11
5.563000000001245
 21
3.297000000000439
 31
0.0
  0
ENDBLK
  5
F6
100
AcDbEntity
  8
0
100
AcDbBlockEnd
  0
BLOCK
  5
15C
100
AcDbEntity
  8
0
100
AcDbBlockBegin
  2
THD210_S
 70
     0
 10
0.0
 20
0.0
 30
0.0
  3
THD210_S
  1

  0
LINE
  5
F9
100
AcDbEntity
  8
USP-GEO
100
AcDbLine
 10
3.360000000000407
 20
7.022999999999921
 30
0.0
 11
3.360000000000413
 21
7.311675134594825
 31
0.0
  0
LINE
  5
FA
100
AcDbEntity
  8
USP-GEO
100
AcDbLine
 10
3.297000000000418
 20
7.311675134594825
 30
0.0
 11
3.297000000000412
 21
7.022999999999921
 31
0.0
  0
LINE
  5
FB
100
AcDbEntity
  8
USP-GEO
100
AcDbLine
 10
2.212579193229181
 20
7.022999999999946
 30
0.0
 11
1.712579193229045
 21
7.31167513459485
 31
0.0
  0
LINE
  5
FC
100
AcDbEntity
  8
USP-GEO
100
AcDbLine
 10
1.712579193229002
 20
6.134324865405027
 30
0.0
 11
2.212579193229171
 21
6.422999999999955
 31
0.0
  0
LINE
  5
FD
100
AcDbEntity
  8
USP-GEO
100
AcDbLine
 10
2.212579193229103
 20
5.147999999999947
 30
0.0
 11
1.712579193228959
 21
5.43667513459484
 31
0.0
  0
CIRCLE
  5
FE
100
AcDbEntity
  8
USP-GEO
100
AcDbCircle
 10
2.013000000000396
 20
5.897854207939881
 30
0.0
 40
0.086
  0
LINE
  5
FF
100
AcDbEntity
  8
USP-GEO
100
AcDbLine
 10
1.703000000000374
 20
4.253794315615941
 30
0.0
 11
2.212579193229096
 21
4.54799999999996
 31
0.0
  0
LINE
  5
100
100
AcDbEntity
  8
USP-HID
100
AcDbLine
 10
2.923820529738939
 20
0.0629999999999615
 30
0.0
 11
0.0769622178739624
 21
0.0630000000000024
 31
0.0
  0
LINE
  5
103
100
AcDbEntity
  8
USP-GEO
100
AcDbLine
 10
2.923820529738947
 20
-0.0000000000000395
 30
0.0
 11
0.076962217873966
 21
0.0000000000000009
 31
0.0
  0
TEXT
  5
104
100
AcDbEntity
  8
USP-TXT
100
AcDbText
 10
-1.398468161050086
 20
-1.846077859566277
 30
0.0
 40
0.375
  1
THD210 - SIDE VIEW
 72
     1
 11
1.820281838949913
 21
-1.846077859566277
 31
0.0
100
AcDbText
  0
LINE
  5
105
100
AcDbEntity
  8
USP-GEO
100
AcDbLine
 10
0.1060660171782786
 20
0.2335251555416042
 30
0.0
 11
1.629776695296941
 21
1.757235833660244
 31
0.0
  0
LINE
  5
106
100
AcDbEntity
  8
USP-GEO
100
AcDbLine
 10
0.0769622178739642
 20
0.0630000000000051
 30
0.0
 11
0.1060660171783283
 21
0.0921037993044105
 31
0.0
  0
LINE
  5
107
100
AcDbEntity
  8
USP-GEO
100
AcDbLine
 10
0.0707106781186333
 20
0.0630000000000091
 30
0.0
 11
0.0769622178739642
 21
0.0630000000000091
 31
0.0
  0
LINE
  5
108
100
AcDbEntity
  8
USP-GEO
100
AcDbLine
 10
0.0707106781186262
 20
0.0630000000000028
 30
0.0
 11
0.0
 21
0.0630000000000042
 31
0.0
  0
LINE
  5
109
100
AcDbEntity
  8
USP-GEO
100
AcDbLine
 10
0.0707106781186369
 20
0.0000000000000013
 30
0.0
 11
0.0769622178739695
 21
0.0000000000000013
 31
0.0
  0
LINE
  5
10A
100
AcDbEntity
  8
USP-GEO
100
AcDbLine
 10
0.0
 20
0.0
 30
0.0
 11
0.0707106781186262
 21
-0.0000000000000013
 31
0.0
  0
LINE
  5
10B
100
AcDbEntity
  8
USP-GEO
100
AcDbLine
 10
0.0769622178739606
 20
-0.0000000000000004
 30
0.0
 11
0.0769622178739624
 21
0.0630000000000073
 31
0.0
  0
LINE
  5
10C
100
AcDbEntity
  8
USP-GEO
100
AcDbLine
 10
0.0
 20
0.0630000000000091
 30
0.0
 11
-0.0000000000000018
 21
0.0000000000000084
 31
0.0
  0
LINE
  5
10D
100
AcDbEntity
  8
USP-GEO
100
AcDbLine
 10
0.0707106781186333
 20
0.0630000000000091
 30
0.0
 11
0.0707106781186315
 21
0.0000000000000013
 31
0.0
  0
ARC
  5
10E
100
AcDbEntity
  8
USP-GEO
100
AcDbCircle
 10
0.0353553390596062
 20
0.1628144774229727
 30
0.0
 40
0.1
100
AcDbArc
 50
315.0000000000646
 51
44.99999999998315
  0
CIRCLE
  5
10F
100
AcDbEntity
  8
USP-GEO
100
AcDbCircle
 10
2.003000000000309
 20
1.272999999999899
 30
0.0
 40
0.078
  0
LINE
  5
110
100
AcDbEntity
  8
USP-GEO
100
AcDbLine
 10
1.703000000000312
 20
1.934012528956882
 30
0.0
 11
1.703000000000374
 21
4.253794315615944
 31
0.0
  0
ARC
  5
111
100
AcDbEntity
  8
USP-GEO
100
AcDbCircle
 10
1.453000000000308
 20
1.934012528956882
 30
0.0
 40
0.25
100
AcDbArc
 50
314.9999999999991
 51
0.0
  0
CIRCLE
  5
112
100
AcDbEntity
  8
USP-GEO
100
AcDbCircle
 10
2.003000000000326
 20
2.676794617429399
 30
0.0
 40
0.078
  0
CIRCLE
  5
113
100
AcDbEntity
  8
USP-GEO
100
AcDbCircle
 10
2.003000000000348
 20
4.080589234858897
 30
0.0
 40
0.078
  0
LINE
  5
114
100
AcDbEntity
  8
USP-GEO
100
AcDbLine
 10
1.712579193228961
 20
5.436675134594842
 30
0.0
 11
1.712579193229
 21
6.134324865405023
 31
0.0
  0
LINE
  5
115
100
AcDbEntity
  8
USP-GEO
100
AcDbLine
 10
3.360000000000315
 20
0.4241858815224187
 30
0.0
 11
3.360000000000331
 21
1.756962576819033
 31
0.0
  0
LINE
  5
116
100
AcDbEntity
  8
USP-GEO
100
AcDbLine
 10
3.297000000000332
 20
1.756962576819029
 30
0.0
 11
3.297000000000316
 21
0.4241858815224187
 31
0.0
  0
LINE
  5
117
100
AcDbEntity
  8
USP-GEO
100
AcDbLine
 10
3.360000000000315
 20
0.4241858815224187
 30
0.0
 11
3.297000000000316
 21
0.4241858815224196
 31
0.0
  0
ARC
  5
118
100
AcDbEntity
  8
USP-GEO
100
AcDbCircle
 10
3.035628595900785
 20
0.1628144774229567
 30
0.0
 40
0.1
100
AcDbArc
 50
44.99999999998888
 51
135.0000000000636
  0
LINE
  5
119
100
AcDbEntity
  8
USP-GEO
100
AcDbLine
 10
2.964917917782914
 20
0.2335251555406703
 30
0.0
 11
2.929562578723672
 21
0.1981698164814296
 31
0.0
  0
LINE
  5
11A
100
AcDbEntity
  8
USP-GEO
100
AcDbLine
 10
3.000273256841168
 20
0.0629999999999615
 30
0.0
 11
2.923820529738607
 21
0.0629999999999624
 31
0.0
  0
ARC
  5
11B
100
AcDbEntity
  8
USP-GEO
100
AcDbCircle
 10
3.000273256841488
 20
0.1274591383636117
 30
0.0
 40
0.1
100
AcDbArc
 50
134.9999999999988
 51
220.1350457292872
  0
LINE
  5
11C
100
AcDbEntity
  8
USP-GEO
100
AcDbLine
 10
2.923820529738604
 20
-0.0000000000000417
 30
0.0
 11
3.000273256841175
 21
-0.0000000000000426
 31
0.0
  0
LINE
  5
11D
100
AcDbEntity
  8
USP-GEO
100
AcDbLine
 10
3.000273256841168
 20
0.0629999999999647
 30
0.0
 11
3.000273256841166
 21
-0.0000000000000413
 31
0.0
  0
LINE
  5
11E
100
AcDbEntity
  8
USP-GEO
100
AcDbLine
 10
2.923820529738947
 20
0.0629999999999664
 30
0.0
 11
2.923820529738945
 21
-0.0000000000000395
 31
0.0
  0
LINE
  5
11F
100
AcDbEntity
  8
USP-GEO
100
AcDbLine
 10
3.297000000000299
 20
0.4241858815224373
 30
0.0
 11
3.106339274019457
 21
0.2335251555416025
 31
0.0
  0
LINE
  5
120
100
AcDbEntity
  8
USP-GEO
100
AcDbLine
 10
3.360000000000372
 20
4.547999999999933
 30
0.0
 11
3.360000000000368
 21
4.259324865405058
 31
0.0
  0
LINE
  5
121
100
AcDbEntity
  8
USP-GEO
100
AcDbLine
 10
3.297000000000373
 20
4.547999999999933
 30
0.0
 11
3.29700000000037
 21
4.259324865405056
 31
0.0
  0
LINE
  5
122
100
AcDbEntity
  8
USP-GEO
100
AcDbLine
 10
3.360000000000361
 20
4.259324865405056
 30
0.0
 11
3.297000000000366
 21
4.259324865405057
 31
0.0
  0
LINE
  5
123
100
AcDbEntity
  8
USP-GEO
100
AcDbLine
 10
3.360000000000333
 20
1.933739272115666
 30
0.0
 11
3.297000000000338
 21
1.933739272115666
 31
0.0
  0
LINE
  5
124
100
AcDbEntity
  8
USP-GEO
100
AcDbLine
 10
3.360000000000329
 20
1.75696257681903
 30
0.0
 11
3.297000000000334
 21
1.756962576819031
 31
0.0
  0
LINE
  5
125
100
AcDbEntity
  8
USP-GEO
100
AcDbLine
 10
3.29700000000037
 20
4.259324865405056
 30
0.0
 11
3.297000000000338
 21
1.933739272115666
 31
0.0
  0
CIRCLE
  5
126
100
AcDbEntity
  8
USP-GEO
100
AcDbCircle
 10
2.453000000000336
 20
1.990999999999885
 30
0.0
 40
0.078
  0
LINE
  5
127
100
AcDbEntity
  8
USP-GEO
100
AcDbLine
 10
3.297000000000334
 20
1.933739272115666
 30
0.0
 11
3.297000000000332
 21
1.756962576819028
 31
0.0
  0
CIRCLE
  5
128
100
AcDbEntity
  8
USP-GEO
100
AcDbCircle
 10
2.708924775625714
 20
3.949767350065465
 30
0.0
 40
0.156
  0
CIRCLE
  5
129
100
AcDbEntity
  8
USP-GEO
100
AcDbCircle
 10
2.453000000000365
 20
3.394794617429383
 30
0.0
 40
0.078
  0
ARC
  5
12A
100
AcDbEntity
  8
USP-GEO
100
AcDbCircle
 10
3.198000000000362
 20
3.160499999999876
 30
0.0
 40
0.1
100
AcDbArc
 50
90.0
 51
270.000000000001
  0
LINE
  5
12B
100
AcDbEntity
  8
USP-GEO
100
AcDbLine
 10
3.248000000000374
 20
3.260499999999852
 30
0.0
 11
3.198000000000362
 21
3.260499999999867
 31
0.0
  0
LINE
  5
12C
100
AcDbEntity
  8
USP-GEO
100
AcDbLine
 10
3.198000000000362
 20
3.060499999999882
 30
0.0
 11
3.248000000000374
 21
3.060499999999853
 31
0.0
  0
ARC
  5
12D
100
AcDbEntity
  8
USP-GEO
100
AcDbCircle
 10
3.248000000000377
 20
3.160499999999858
 30
0.0
 40
0.1
100
AcDbArc
 50
60.65941842507596
 51
90.00000000000204
  0
ARC
  5
12E
100
AcDbEntity
  8
USP-GEO
100
AcDbCircle
 10
3.248000000000377
 20
3.160499999999858
 30
0.0
 40
0.1
100
AcDbArc
 50
269.9999999999961
 51
299.3405815749301
  0
LINE
  5
12F
100
AcDbEntity
  8
USP-GEO
100
AcDbLine
 10
3.360000000000333
 20
1.933739272115666
 30
0.0
 11
3.360000000000365
 21
4.259324865405056
 31
0.0
  0
LINE
  5
130
100
AcDbEntity
  8
USP-GEO
100
AcDbLine
 10
3.360000000000329
 20
1.933739272115666
 30
0.0
 11
3.360000000000328
 21
1.756962576819028
 31
0.0
  0
LINE
  5
131
100
AcDbEntity
  8
USP-GEO
100
AcDbLine
 10
3.360000000000407
 20
7.022999999999921
 30
0.0
 11
3.297000000000412
 21
7.022999999999923
 31
0.0
  0
LINE
  5
132
100
AcDbEntity
  8
USP-GEO
100
AcDbLine
 10
3.360000000000397
 20
6.42299999999993
 30
0.0
 11
3.297000000000402
 21
6.42299999999993
 31
0.0
  0
LINE
  5
133
100
AcDbEntity
  8
USP-GEO
100
AcDbLine
 10
3.36000000000039
 20
6.134324865404991
 30
0.0
 11
3.297000000000398
 21
6.134324865404993
 31
0.0
  0
LINE
  5
134
100
AcDbEntity
  8
USP-GEO
100
AcDbLine
 10
3.360000000000379
 20
5.436675134594808
 30
0.0
 11
3.297000000000384
 21
5.436675134594809
 31
0.0
  0
LINE
  5
135
100
AcDbEntity
  8
USP-GEO
100
AcDbLine
 10
3.360000000000379
 20
5.147999999999922
 30
0.0
 11
3.297000000000384
 21
5.147999999999923
 31
0.0
  0
LINE
  5
136
100
AcDbEntity
  8
USP-GEO
100
AcDbLine
 10
3.360000000000372
 20
4.547999999999933
 30
0.0
 11
3.297000000000373
 21
4.547999999999934
 31
0.0
  0
LINE
  5
137
100
AcDbEntity
  8
USP-GEO
100
AcDbLine
 10
3.297000000000394
 20
6.134324865404995
 30
0.0
 11
3.297000000000384
 21
5.43667513459481
 31
0.0
  0
LINE
  5
138
100
AcDbEntity
  8
USP-GEO
100
AcDbLine
 10
2.212579193229096
 20
4.54799999999996
 30
0.0
 11
2.212579193229105
 21
5.147999999999947
 31
0.0
  0
ARC
  5
139
100
AcDbEntity
  8
USP-GEO
100
AcDbCircle
 10
2.452999999999914
 20
4.843294617429244
 30
0.0
 40
0.078
100
AcDbArc
 50
45.0000000000004
 51
143.084178465815
  0
CIRCLE
  5
13A
100
AcDbEntity
  8
USP-GEO
100
AcDbCircle
 10
2.453000000000272
 20
4.936994617429399
 30
0.0
 40
0.078
  0
ARC
  5
13B
100
AcDbEntity
  8
USP-GEO
100
AcDbCircle
 10
2.452999999999914
 20
4.843294617429244
 30
0.0
 40
0.078
100
AcDbArc
 50
36.9158215337459
 51
45.00000000000095
  0
LINE
  5
13C
100
AcDbEntity
  8
USP-GEO
100
AcDbLine
 10
3.297000000000382
 20
5.147999999999922
 30
0.0
 11
3.297000000000373
 21
4.547999999999933
 31
0.0
  0
LINE
  5
13D
100
AcDbEntity
  8
USP-GEO
100
AcDbLine
 10
3.297000000000389
 20
5.436675134594808
 30
0.0
 11
3.297000000000384
 21
5.147999999999922
 31
0.0
  0
LINE
  5
13E
100
AcDbEntity
  8
USP-GEO
100
AcDbLine
 10
2.212579193229171
 20
6.422999999999955
 30
0.0
 11
2.21257919322918
 21
7.022999999999946
 31
0.0
  0
CIRCLE
  5
13F
100
AcDbEntity
  8
USP-GEO
100
AcDbCircle
 10
2.453000000000411
 20
6.722999999999906
 30
0.0
 40
0.078
  0
LINE
  5
140
100
AcDbEntity
  8
USP-GEO
100
AcDbLine
 10
3.29700000000041
 20
7.022999999999921
 30
0.0
 11
3.297000000000402
 21
6.42299999999993
 31
0.0
  0
ARC
  5
141
100
AcDbEntity
  8
USP-GEO
100
AcDbCircle
 10
3.198000000000405
 20
6.194999999999872
 30
0.0
 40
0.1
100
AcDbArc
 50
90.0
 51
270.000000000003
  0
LINE
  5
142
100
AcDbEntity
  8
USP-GEO
100
AcDbLine
 10
3.297000000000402
 20
6.42299999999993
 30
0.0
 11
3.297000000000398
 21
6.134324865404991
 31
0.0
  0
LINE
  5
143
100
AcDbEntity
  8
USP-GEO
100
AcDbLine
 10
3.198000000000408
 20
6.09499999999987
 30
0.0
 11
3.248000000000413
 21
6.094999999999863
 31
0.0
  0
ARC
  5
144
100
AcDbEntity
  8
USP-GEO
100
AcDbCircle
 10
3.248000000000416
 20
6.194999999999861
 30
0.0
 40
0.1
100
AcDbArc
 50
269.9999999999961
 51
299.3405815750127
  0
LINE
  5
145
100
AcDbEntity
  8
USP-GEO
100
AcDbLine
 10
3.24800000000042
 20
6.294999999999866
 30
0.0
 11
3.198000000000405
 21
6.294999999999866
 31
0.0
  0
ARC
  5
146
100
AcDbEntity
  8
USP-GEO
100
AcDbCircle
 10
3.248000000000416
 20
6.194999999999861
 30
0.0
 40
0.1
100
AcDbArc
 50
60.65941842498945
 51
89.99999999999797
  0
LINE
  5
147
100
AcDbEntity
  8
USP-GEO
100
AcDbLine
 10
3.360000000000379
 20
5.436675134594808
 30
0.0
 11
3.36000000000039
 21
6.134324865404991
 31
0.0
  0
LINE
  5
148
100
AcDbEntity
  8
USP-GEO
100
AcDbLine
 10
3.360000000000372
 20
4.547999999999933
 30
0.0
 11
3.360000000000381
 21
5.147999999999922
 31
0.0
  0
LINE
  5
149
100
AcDbEntity
  8
USP-GEO
100
AcDbLine
 10
3.360000000000379
 20
5.147999999999922
 30
0.0
 11
3.360000000000384
 21
5.436675134594808
 31
0.0
  0
LINE
  5
14A
100
AcDbEntity
  8
USP-GEO
100
AcDbLine
 10
3.360000000000397
 20
6.42299999999993
 30
0.0
 11
3.360000000000406
 21
7.022999999999921
 31
0.0
  0
LINE
  5
14B
100
AcDbEntity
  8
USP-GEO
100
AcDbLine
 10
3.360000000000397
 20
6.42299999999993
 30
0.0
 11
3.360000000000393
 21
6.134324865404991
 31
0.0
  0
LINE
  5
14C
100
AcDbEntity
  8
USP-GEO
100
AcDbLine
 10
1.712579193229059
 20
8.134324865404979
 30
0.0
 11
2.212579193229259
 21
8.422999999999909
 31
0.0
  0
CIRCLE
  5
14D
100
AcDbEntity
  8
USP-GEO
100
AcDbCircle
 10
2.013000000000452
 20
7.897854207939843
 30
0.0
 40
0.086
  0
LINE
  5
14E
100
AcDbEntity
  8
USP-GEO
100
AcDbLine
 10
1.712579193229046
 20
7.311675134594853
 30
0.0
 11
1.712579193229059
 21
8.134324865404977
 31
0.0
  0
LINE
  5
14F
100
AcDbEntity
  8
USP-GEO
100
AcDbLine
 10
3.360000000000436
 20
9.022999999999878
 30
0.0
 11
3.297000000000437
 21
9.02299999999988
 31
0.0
  0
LINE
  5
150
100
AcDbEntity
  8
USP-GEO
100
AcDbLine
 10
3.360000000000422
 20
8.422999999999913
 30
0.0
 11
3.297000000000426
 21
8.422999999999914
 31
0.0
  0
LINE
  5
151
100
AcDbEntity
  8
USP-GEO
100
AcDbLine
 10
3.360000000000422
 20
8.134324865404977
 30
0.0
 11
3.297000000000426
 21
8.134324865404979
 31
0.0
  0
LINE
  5
152
100
AcDbEntity
  8
USP-GEO
100
AcDbLine
 10
3.360000000000411
 20
7.311675134594818
 30
0.0
 11
3.297000000000412
 21
7.311675134594818
 31
0.0
  0
CIRCLE
  5
153
100
AcDbEntity
  8
USP-GEO
100
AcDbCircle
 10
2.453000000000436
 20
8.72299999999986
 30
0.0
 40
0.078
  0
LINE
  5
154
100
AcDbEntity
  8
USP-GEO
100
AcDbLine
 10
3.297000000000435
 20
9.022999999999878
 30
0.0
 11
3.297000000000426
 21
8.422999999999913
 31
0.0
  0
LINE
  5
155
100
AcDbEntity
  8
USP-GEO
100
AcDbLine
 10
2.212579193229259
 20
8.422999999999909
 30
0.0
 11
2.212579193229297
 21
9.023000000000045
 31
0.0
  0
LINE
  5
156
100
AcDbEntity
  8
USP-GEO
100
AcDbLine
 10
3.297000000000425
 20
8.134324865404977
 30
0.0
 11
3.297000000000412
 21
7.311675134594818
 31
0.0
  0
LINE
  5
157
100
AcDbEntity
  8
USP-GEO
100
AcDbLine
 10
3.297000000000426
 20
8.422999999999913
 30
0.0
 11
3.297000000000423
 21
8.134324865404973
 31
0.0
  0
LINE
  5
158
100
AcDbEntity
  8
USP-GEO
100
AcDbLine
 10
2.212579193229299
 20
9.023000000000005
 30
0.0
 11
3.297000000000437
 21
9.022999999999989
 31
0.0
  0
LINE
  5
159
100
AcDbEntity
  8
USP-GEO
100
AcDbLine
 10
3.360000000000422
 20
8.422999999999913
 30
0.0
 11
3.360000000000431
 21
9.022999999999878
 31
0.0
  0
LINE
  5
15A
100
AcDbEntity
  8
USP-GEO
100
AcDbLine
 10
3.360000000000411
 20
7.311675134594818
 30
0.0
 11
3.360000000000423
 21
8.134324865404977
 31
0.0
  0
LINE
  5
15B
100
AcDbEntity
  8
USP-GEO
100
AcDbLine
 10
3.360000000000422
 20
8.422999999999913
 30
0.0
 11
3.360000000000418
 21
8.134324865404973
 31
0.0
  0
ENDBLK
  5
15D
100
AcDbEntity
  8
0
100
AcDbBlockEnd
  0
ENDSEC
  0
SECTION
  2
ENTITIES
  0
INSERT
  5
3
100
AcDbEntity
  8
USP
100
AcDbBlockReference
  2
THD210_F
 10
2.646442925245153
 20
1.846649458278879
 30
0.0
  0
INSERT
  5
C0
100
AcDbEntity
  8
USP
100
AcDbBlockReference
  2
THD210_T
 10
0.7404429252449632
 20
15.11720754363683
 30
0.0
  0
INSERT
  5
F7
100
AcDbEntity
  8
USP
100
AcDbBlockReference
  2
THD210_S
 10
10.35961540254341
 20
1.846649458278866
 30
0.0
  0
VIEWPORT
  5
163
102
{ACAD_XDICTIONARY
360
164
102
}
100
AcDbEntity
 67
     1
  8
0
100
AcDbViewport
 10
5.285416850893516
 20
3.968749891115924
 30
0.0
 40
13.50573247017707
 41
8.992999745766947
 68
    -1
 69
     1
1001
ACAD
1000
MVIEW
1002
{
1070
    16
1010
0.0
1020
0.0
1030
0.0
1010
0.0
1020
0.0
1030
1.0
1040
0.0
1040
8.992999745766947
1040
5.285416850893516
1040
3.968749891115924
1040
50.0
1040
0.0
1040
0.0
1070
     0
1070
   100
1070
     1
1070
     1
1070
     0
1070
     0
1070
     0
1070
     0
1040
0.0
1040
0.0
1040
0.0
1040
0.5
1040
0.5
1040
0.5
1040
0.5
1070
     0
1002
{
1002
}
1002
}
  0
ENDSEC
  0
SECTION
  2
OBJECTS
  0
DICTIONARY
  5
17A
102
{ACAD_XDICTIONARY
360
17B
102
}
100
AcDbDictionary
  3
ACAD_GROUP
350
178
  3
ACAD_MLINESTYLE
350
179
  0
DICTIONARY
  5
15E
100
AcDbDictionary
280
     1
  3
ACAD_LAYOUTSELFREF
360
15F
  0
DICTIONARY
  5
168
100
AcDbDictionary
280
     1
  3
ACAD_LAYOUTSELFREF
360
169
  0
DICTIONARY
  5
164
100
AcDbDictionary
280
     1
  3
ACAD_XREC_ROUNDTRIP
360
165
  0
DICTIONARY
  5
17B
100
AcDbDictionary
280
     1
  3
ACAD_XREC_ROUNDTRIP
360
17C
  0
DICTIONARY
  5
178
102
{ACAD_REACTORS
330
17A
102
}
100
AcDbDictionary
  0
DICTIONARY
  5
179
102
{ACAD_REACTORS
330
17A
102
}
100
AcDbDictionary
  3
STANDARD
350
17D
  0
XRECORD
  5
15F
102
{ACAD_REACTORS
330
15E
102
}
100
AcDbXrecord
340
18
  0
XRECORD
  5
169
102
{ACAD_REACTORS
330
168
102
}
100
AcDbXrecord
340
15
  0
XRECORD
  5
165
102
{ACAD_REACTORS
330
164
102
}
100
AcDbXrecord
102
UCS
 74
     0
 71
     1
 10
0.0
 20
0.0
 30
0.0
 10
1.0
 20
0.0
 30
0.0
 10
0.0
 20
1.0
 30
0.0
146
0.0
 79
     0
102
VIEW
281
     0
102
NEWVIEWCONTROL
280
     4
  0
XRECORD
  5
17C
102
{ACAD_REACTORS
330
17B
102
}
100
AcDbXrecord
102
EXTNAMES
  1
ACDBVARIABLEDICTIONARY
  2
AcDbVariableDictionary
  0
MLINESTYLE
  5
17D
102
{ACAD_REACTORS
330
179
102
}
100
AcDbMlineStyle
  2
STANDARD
 70
     0
  3

 62
     0
 51
90.0
 52
90.0
 71
     2
 49
0.5
 62
   256
  6
BYLAYER
 49
-0.5
 62
   256
  6
BYLAYER
  0
ENDSEC
  0
EOF
