  0
SECTION
  2
HEADER
  9
$ACADVER
  1
AC1014
  9
$ACADMAINTVER
 70
     9
  9
$DWGCODEPAGE
  3
ANSI_1252
  9
$INSBASE
 10
0.0
 20
0.0
 30
0.0
  9
$EXTMIN
 10
-0.5000905747068214
 20
0.0028936450413468
 30
-1.050183983838884
  9
$EXTMAX
 10
14.50016217588326
 20
16.1040047626006
 30
0.0
  9
$LIMMIN
 10
0.0
 20
0.0
  9
$LIMMAX
 10
12.0
 20
9.0
  9
$ORTHOMODE
 70
     1
  9
$REGENMODE
 70
     1
  9
$FILLMODE
 70
     1
  9
$QTEXTMODE
 70
     0
  9
$MIRRTEXT
 70
     0
  9
$DRAGMODE
 70
     2
  9
$LTSCALE
 40
1.5
  9
$OSMODE
 70
     0
  9
$ATTMODE
 70
     1
  9
$TEXTSIZE
 40
0.75
  9
$TRACEWID
 40
0.05
  9
$TEXTSTYLE
  7
STANDARD
  9
$CLAYER
  8
USP
  9
$CELTYPE
  6
BYLAYER
  9
$CECOLOR
 62
   256
  9
$CELTSCALE
 40
1.0
  9
$DELOBJ
 70
     1
  9
$DISPSILH
 70
     1
  9
$DIMSCALE
 40
3.0
  9
$DIMASZ
 40
0.125
  9
$DIMEXO
 40
0.0625
  9
$DIMDLI
 40
0.37890625
  9
$DIMRND
 40
0.0
  9
$DIMDLE
 40
0.0
  9
$DIMEXE
 40
0.09375
  9
$DIMTP
 40
0.0
  9
$DIMTM
 40
0.0
  9
$DIMTXT
 40
0.109375
  9
$DIMCEN
 40
0.0
  9
$DIMTSZ
 40
0.0
  9
$DIMTOL
 70
     0
  9
$DIMLIM
 70
     0
  9
$DIMTIH
 70
     1
  9
$DIMTOH
 70
     1
  9
$DIMSE1
 70
     0
  9
$DIMSE2
 70
     0
  9
$DIMTAD
 70
     0
  9
$DIMZIN
 70
     8
  9
$DIMBLK
  1

  9
$DIMASO
 70
     1
  9
$DIMSHO
 70
     1
  9
$DIMPOST
  1

  9
$DIMAPOST
  1

  9
$DIMALT
 70
     0
  9
$DIMALTD
 70
     2
  9
$DIMALTF
 40
25.4
  9
$DIMLFAC
 40
1.0
  9
$DIMTOFL
 70
     0
  9
$DIMTVP
 40
0.0
  9
$DIMTIX
 70
     0
  9
$DIMSOXD
 70
     0
  9
$DIMSAH
 70
     0
  9
$DIMBLK1
  1

  9
$DIMBLK2
  1

  9
$DIMSTYLE
  2
STANDARD
  9
$DIMCLRD
 70
     0
  9
$DIMCLRE
 70
     0
  9
$DIMCLRT
 70
   256
  9
$DIMTFAC
 40
1.0
  9
$DIMGAP
 40
0.08984375
  9
$DIMJUST
 70
     0
  9
$DIMSD1
 70
     0
  9
$DIMSD2
 70
     0
  9
$DIMTOLJ
 70
     1
  9
$DIMTZIN
 70
     0
  9
$DIMALTZ
 70
     0
  9
$DIMALTTZ
 70
     0
  9
$DIMFIT
 70
     3
  9
$DIMUPT
 70
     1
  9
$DIMUNIT
 70
     2
  9
$DIMDEC
 70
     3
  9
$DIMTDEC
 70
     3
  9
$DIMALTU
 70
     2
  9
$DIMALTTD
 70
     2
  9
$DIMTXSTY
  7
STANDARD
  9
$DIMAUNIT
 70
     0
  9
$LUNITS
 70
     5
  9
$LUPREC
 70
     6
  9
$SKETCHINC
 40
0.1
  9
$FILLETRAD
 40
0.0
  9
$AUNITS
 70
     0
  9
$AUPREC
 70
     1
  9
$MENU
  1
CUSTOM
  9
$ELEVATION
 40
0.0
  9
$PELEVATION
 40
0.0
  9
$THICKNESS
 40
0.0
  9
$LIMCHECK
 70
     0
  9
$BLIPMODE
 70
     0
  9
$CHAMFERA
 40
0.0
  9
$CHAMFERB
 40
0.0
  9
$CHAMFERC
 40
0.0
  9
$CHAMFERD
 40
0.0
  9
$SKPOLY
 70
     0
  9
$TDCREATE
 40
2451263.663231366
  9
$TDUPDATE
 40
2452768.675839294
  9
$TDINDWG
 40
0.4589673495
  9
$TDUSRTIMER
 40
0.4589673495
  9
$USRTIMER
 70
     1
  9
$ANGBASE
 50
0.0
  9
$ANGDIR
 70
     0
  9
$PDMODE
 70
     0
  9
$PDSIZE
 40
0.0
  9
$PLINEWID
 40
0.0
  9
$COORDS
 70
     2
  9
$SPLFRAME
 70
     0
  9
$SPLINETYPE
 70
     6
  9
$SPLINESEGS
 70
     8
  9
$ATTDIA
 70
     0
  9
$ATTREQ
 70
     0
  9
$HANDLING
 70
     1
  9
$HANDSEED
  5
14F
  9
$SURFTAB1
 70
     6
  9
$SURFTAB2
 70
     6
  9
$SURFTYPE
 70
     6
  9
$SURFU
 70
     6
  9
$SURFV
 70
     6
  9
$UCSNAME
  2

  9
$UCSORG
 10
0.0
 20
0.0
 30
0.0
  9
$UCSXDIR
 10
1.0
 20
0.0
 30
0.0
  9
$UCSYDIR
 10
0.0
 20
1.0
 30
0.0
  9
$PUCSNAME
  2

  9
$PUCSORG
 10
0.0
 20
0.0
 30
0.0
  9
$PUCSXDIR
 10
1.0
 20
0.0
 30
0.0
  9
$PUCSYDIR
 10
0.0
 20
1.0
 30
0.0
  9
$USERI1
 70
     0
  9
$USERI2
 70
     0
  9
$USERI3
 70
     0
  9
$USERI4
 70
     0
  9
$USERI5
 70
     0
  9
$USERR1
 40
0.0
  9
$USERR2
 40
0.0
  9
$USERR3
 40
0.0
  9
$USERR4
 40
0.0
  9
$USERR5
 40
0.0
  9
$WORLDVIEW
 70
     1
  9
$SHADEDGE
 70
     3
  9
$SHADEDIF
 70
    70
  9
$TILEMODE
 70
     1
  9
$MAXACTVP
 70
    16
  9
$PINSBASE
 10
0.0
 20
0.0
 30
0.0
  9
$PLIMCHECK
 70
     0
  9
$PEXTMIN
 10
1.000000000000000E+20
 20
1.000000000000000E+20
 30
1.000000000000000E+20
  9
$PEXTMAX
 10
-1.000000000000000E+20
 20
-1.000000000000000E+20
 30
-1.000000000000000E+20
  9
$PLIMMIN
 10
0.0
 20
0.0
  9
$PLIMMAX
 10
12.0
 20
9.0
  9
$UNITMODE
 70
     0
  9
$VISRETAIN
 70
     0
  9
$PLINEGEN
 70
     0
  9
$PSLTSCALE
 70
     0
  9
$TREEDEPTH
 70
  3020
  9
$PICKSTYLE
 70
     0
  9
$CMLSTYLE
  2
STANDARD
  9
$CMLJUST
 70
     0
  9
$CMLSCALE
 40
1.0
  9
$PROXYGRAPHICS
 70
     1
  9
$MEASUREMENT
 70
     0
  0
ENDSEC
  0
SECTION
  2
CLASSES
  0
CLASS
  1
ACDBDICTIONARYWDFLT
  2
AcDbDictionaryWithDefault
  3
AutoCAD 2000
 90
        0
280
     0
281
     0
  0
CLASS
  1
ACDBPLACEHOLDER
  2
AcDbPlaceHolder
  3
AutoCAD 2000
 90
        0
280
     0
281
     0
  0
CLASS
  1
LAYOUT
  2
AcDbLayout
  3
AutoCAD 2000
 90
        0
280
     0
281
     0
  0
CLASS
  1
DICTIONARYVAR
  2
AcDbDictionaryVar
  3
"AutoCAD"
 90
        0
280
     0
281
     0
  0
CLASS
  1
LONG_TRANSACTION
  2
AcDbLongTransaction
  3
AutoCAD 2000
 90
        0
280
     0
281
     0
  0
CLASS
  1
LWPOLYLINE
  2
AcDbPolyline
  3
"AutoCAD"
 90
        0
280
     0
281
     1
  0
CLASS
  1
HATCH
  2
AcDbHatch
  3
"ACAD_SEDONA"
 90
        0
280
     0
281
     1
  0
CLASS
  1
XRECORD
  2
AcDbXrecord
  3
"<Built In>"
 90
        0
280
     0
281
     0
  0
ENDSEC
  0
SECTION
  2
TABLES
  0
TABLE
  2
VPORT
  5
13F
100
AcDbSymbolTable
 70
     1
  0
VPORT
  5
140
100
AcDbSymbolTableRecord
100
AcDbViewportTableRecord
  2
*ACTIVE
 70
     0
 10
0.0
 20
0.0
 11
1.0
 21
1.0
 12
-15.97149071846805
 22
17.60537330124665
 13
0.0
 23
0.0
 14
1.0
 24
1.0
 15
0.0
 25
0.0
 16
0.0
 26
0.0
 36
1.0
 17
23.09603071721725
 27
-10.27010416511325
 37
-10.44050274849355
 40
24.38042719310052
 41
1.457627118644067
 42
50.0
 43
10.55307667737539
 44
10.55307667737539
 50
0.0
 51
0.0
 71
     0
 72
   100
 73
     1
 74
     1
 75
     0
 76
     0
 77
     0
 78
     0
  0
ENDTAB
  0
TABLE
  2
LTYPE
  5
13A
100
AcDbSymbolTable
 70
     1
  0
LTYPE
  5
13B
100
AcDbSymbolTableRecord
100
AcDbLinetypeTableRecord
  2
BYBLOCK
 70
     0
  3

 72
    65
 73
     0
 40
0.0
  0
LTYPE
  5
13C
100
AcDbSymbolTableRecord
100
AcDbLinetypeTableRecord
  2
BYLAYER
 70
     0
  3

 72
    65
 73
     0
 40
0.0
  0
LTYPE
  5
5
100
AcDbSymbolTableRecord
100
AcDbLinetypeTableRecord
  2
CONTINUOUS
 70
     0
  3
Solid line
 72
    65
 73
     0
 40
0.0
  0
ENDTAB
  0
TABLE
  2
LAYER
  5
138
100
AcDbSymbolTable
 70
     4
  0
LAYER
  5
3D
100
AcDbSymbolTableRecord
100
AcDbLayerTableRecord
  2
0
 70
     0
 62
     7
  6
CONTINUOUS
  0
LAYER
  5
8
102
{ACAD_XDICTIONARY
360
9
102
}
100
AcDbSymbolTableRecord
100
AcDbLayerTableRecord
  2
USP-GEO
 70
     0
 62
     7
  6
CONTINUOUS
  0
LAYER
  5
D
102
{ACAD_XDICTIONARY
360
E
102
}
100
AcDbSymbolTableRecord
100
AcDbLayerTableRecord
  2
USP-TXT
 70
     0
 62
     7
  6
CONTINUOUS
  0
LAYER
  5
4
100
AcDbSymbolTableRecord
100
AcDbLayerTableRecord
  2
USP
 70
     0
 62
     7
  6
CONTINUOUS
  0
ENDTAB
  0
TABLE
  2
STYLE
  5
139
100
AcDbSymbolTable
 70
     1
  0
STYLE
  5
10
100
AcDbSymbolTableRecord
100
AcDbTextStyleTableRecord
  2
STANDARD
 70
     0
 40
0.0
 41
1.0
 50
0.0
 71
     0
 42
0.75
  3
txt
  4

  0
ENDTAB
  0
TABLE
  2
VIEW
  5
13D
100
AcDbSymbolTable
 70
     0
  0
ENDTAB
  0
TABLE
  2
UCS
  5
13E
100
AcDbSymbolTable
 70
     0
  0
ENDTAB
  0
TABLE
  2
APPID
  5
141
100
AcDbSymbolTable
 70
     1
  0
APPID
  5
142
100
AcDbSymbolTableRecord
100
AcDbRegAppTableRecord
  2
ACAD
 70
     0
  0
ENDTAB
  0
TABLE
  2
DIMSTYLE
  5
143
100
AcDbSymbolTable
 70
     1
  0
DIMSTYLE
105
14B
100
AcDbSymbolTableRecord
100
AcDbDimStyleTableRecord
  2
STANDARD
 70
     0
  3

  4

  5

  6

  7

 40
1.0
 41
0.18
 42
0.0625
 43
0.38
 44
0.18
 45
0.0
 46
0.0
 47
0.0
 48
0.0
140
0.18
141
0.09
142
0.0
143
25.4
144
1.0
145
0.0
146
1.0
147
0.09
 71
     0
 72
     0
 73
     1
 74
     1
 75
     0
 76
     0
 77
     0
 78
     0
170
     0
171
     2
172
     0
173
     0
174
     0
175
     0
176
     0
177
     0
178
     0
270
     2
271
     4
272
     4
273
     2
274
     2
340
10
275
     0
280
     0
281
     0
282
     0
283
     1
284
     0
285
     0
286
     0
287
     3
288
     0
  0
ENDTAB
  0
TABLE
  2
BLOCK_RECORD
  5
1
100
AcDbSymbolTable
 70
     3
  0
BLOCK_RECORD
  5
2
102
{ACAD_XDICTIONARY
360
12F
102
}
100
AcDbSymbolTableRecord
100
AcDbBlockTableRecord
  2
*MODEL_SPACE
  0
BLOCK_RECORD
  5
133
102
{ACAD_XDICTIONARY
360
134
102
}
100
AcDbSymbolTableRecord
100
AcDbBlockTableRecord
  2
*PAPER_SPACE
  0
BLOCK_RECORD
  5
6
100
AcDbSymbolTableRecord
100
AcDbBlockTableRecord
  2
THD210-2_T
  0
BLOCK_RECORD
  5
40
100
AcDbSymbolTableRecord
100
AcDbBlockTableRecord
  2
THD210-2_F
  0
BLOCK_RECORD
  5
EE
100
AcDbSymbolTableRecord
100
AcDbBlockTableRecord
  2
THD210-2_S
  0
ENDTAB
  0
ENDSEC
  0
SECTION
  2
BLOCKS
  0
BLOCK
  5
131
100
AcDbEntity
  8
0
100
AcDbBlockBegin
  2
*MODEL_SPACE
 70
     0
 10
0.0
 20
0.0
 30
0.0
  3
*MODEL_SPACE
  1

  0
ENDBLK
  5
132
100
AcDbEntity
  8
0
100
AcDbBlockEnd
  0
BLOCK
  5
136
100
AcDbEntity
 67
     1
  8
0
100
AcDbBlockBegin
  2
*PAPER_SPACE
 70
     0
 10
0.0
 20
0.0
 30
0.0
  3
*PAPER_SPACE
  1

  0
ENDBLK
  5
137
100
AcDbEntity
 67
     1
  8
0
100
AcDbBlockEnd
  0
BLOCK
  5
3C
100
AcDbEntity
  8
0
100
AcDbBlockBegin
  2
THD210-2_T
 70
     0
 10
0.0
 20
0.0
 30
0.0
  3
THD210-2_T
  1

  0
LWPOLYLINE
  5
7
100
AcDbEntity
  8
USP-GEO
100
AcDbPolyline
 90
        2
 70
   129
 43
0.0
 10
5.514933955061238
 20
3.200975652238343
 10
7.589461850161491
 20
3.200975652238343
  0
LWPOLYLINE
  5
B
100
AcDbEntity
  8
USP-GEO
100
AcDbPolyline
 90
        2
 70
   129
 43
0.0
 10
7.589461850161491
 20
3.136699032715485
 10
5.595279729464813
 20
3.136699032715485
  0
TEXT
  5
C
100
AcDbEntity
  8
USP-TXT
100
AcDbText
 10
1.056671752521103
 20
-1.407386820890453
 30
-1.050183983838884
 40
0.296875
  1
THD210-2 - TOP VIEW
 72
     1
 11
3.802765502521102
 21
-1.407386820890453
 31
-1.050183983838884
100
AcDbText
  0
LWPOLYLINE
  5
11
100
AcDbEntity
  8
USP-GEO
100
AcDbPolyline
 90
       28
 70
   129
 43
0.0
 10
2.074527895100249
 20
0.0
 10
2.074527895100249
 20
0.0160691548807162
 10
2.074527895100249
 20
0.0321383097614305
 10
2.074527895100249
 20
1.447830854752382
 10
2.074527895100249
 20
1.54424578403667
 10
2.074527895100249
 20
1.608522403559527
 10
2.074527895100249
 20
1.624591558440243
 10
2.074527895100249
 20
1.640660713320958
 10
2.074527895100249
 20
1.656729868201672
 10
2.074527895100249
 20
2.107469662605716
 10
2.074527895100249
 20
2.12353881748643
 10
2.074527895100249
 20
2.139607972367144
 10
2.074527895100249
 20
3.200975652238343
 10
0.0
 20
3.200975652238343
 10
0.0
 20
3.136699032715485
 10
2.010251275577392
 20
3.136699032715485
 10
2.010251275577392
 20
2.139607972367144
 10
2.010251275577392
 20
2.12353881748643
 10
2.010251275577392
 20
2.107469662605716
 10
2.010251275577392
 20
1.656729868201672
 10
2.010251275577392
 20
1.640660713320958
 10
2.010251275577392
 20
1.624591558440243
 10
2.010251275577392
 20
1.608522403559527
 10
2.010251275577392
 20
1.54424578403667
 10
2.010251275577392
 20
1.447830854752382
 10
2.010251275577392
 20
0.0321383097614305
 10
2.010251275577392
 20
0.0160691548807162
 10
2.010251275577392
 20
0.0
  0
LWPOLYLINE
  5
12
100
AcDbEntity
  8
USP-GEO
100
AcDbPolyline
 90
        6
 70
   129
 43
0.0
 10
2.074527895100249
 20
3.200975652238343
 10
0.0
 20
3.200975652238343
 10
0.0
 20
3.136699032715485
 10
2.010251275577392
 20
3.136699032715485
 10
2.010251275577392
 20
2.139607972367144
 10
2.074527895100249
 20
2.139607972367144
  0
LWPOLYLINE
  5
13
100
AcDbEntity
  8
USP-GEO
100
AcDbPolyline
 90
        2
 70
   129
 43
0.0
 10
4.550784662218365
 20
3.008145793669767
 10
5.514933955061238
 20
3.008145793669767
  0
LWPOLYLINE
  5
14
100
AcDbEntity
  8
USP-GEO
100
AcDbPolyline
 90
        2
 70
   129
 43
0.0
 10
5.514933955061238
 20
0.0
 10
4.550784662218365
 20
0.0
  0
LWPOLYLINE
  5
15
100
AcDbEntity
  8
USP-GEO
100
AcDbPolyline
 90
        2
 70
   129
 43
0.0
 10
3.135895574971447
 20
2.91173086438548
 10
3.216241349375019
 20
2.91173086438548
  0
LWPOLYLINE
  5
16
100
AcDbEntity
  8
USP-GEO
100
AcDbPolyline
 90
        2
 70
   129
 43
0.0
 10
3.216241349375019
 20
0.096414929284288
 10
3.135895574971447
 20
0.096414929284288
  0
LWPOLYLINE
  5
17
100
AcDbEntity
  8
USP-GEO
100
AcDbPolyline
 90
        4
 70
   128
 43
0.0
 10
2.010251275577392
 20
1.447830854752382
 10
2.010251275577392
 20
0.0321383097614305
 10
2.074527895100249
 20
0.0321383097614305
 10
2.074527895100249
 20
1.447830854752382
  0
LWPOLYLINE
  5
18
100
AcDbEntity
  8
USP-GEO
100
AcDbPolyline
 90
        2
 70
   129
 43
0.0
 10
3.055549800567874
 20
0.0
 10
2.074527895100249
 20
0.0
  0
LWPOLYLINE
  5
19
100
AcDbEntity
  8
USP-GEO
100
AcDbPolyline
 90
        2
 70
   128
 43
0.0
 10
2.010251275577392
 20
0.0
 10
2.074527895100249
 20
0.0
  0
LWPOLYLINE
  5
1A
100
AcDbEntity
  8
USP-GEO
100
AcDbPolyline
 90
        3
 70
   128
 43
0.0
 10
2.010251275577392
 20
0.0321383097614305
 10
2.010251275577392
 20
0.0160691548807162
 10
2.010251275577392
 20
0.0
  0
LWPOLYLINE
  5
1B
100
AcDbEntity
  8
USP-GEO
100
AcDbPolyline
 90
        2
 70
   129
 43
0.0
 10
2.011054733321428
 20
0.0
 10
2.010251275577392
 20
0.0
  0
LWPOLYLINE
  5
1C
100
AcDbEntity
  8
USP-GEO
100
AcDbPolyline
 90
        3
 70
   128
 43
0.0
 10
2.074527895100249
 20
0.0
 10
2.074527895100249
 20
0.0160691548807162
 10
2.074527895100249
 20
0.0321383097614305
  0
LWPOLYLINE
  5
1D
100
AcDbEntity
  8
USP-GEO
100
AcDbPolyline
 90
        4
 70
   128
 43
0.0
 10
3.055549800567874
 20
0.0
 10
3.071618955448588
 20
0.0482074646421449
 10
3.103757265210019
 20
0.0803457744035736
 10
3.135895574971447
 20
0.096414929284288
  0
LWPOLYLINE
  5
1E
100
AcDbEntity
  8
USP-GEO
100
AcDbPolyline
 90
        2
 70
   129
 43
0.0
 10
2.074527895100249
 20
3.008145793669767
 10
3.055549800567874
 20
3.008145793669767
  0
LWPOLYLINE
  5
1F
100
AcDbEntity
  8
USP-GEO
100
AcDbPolyline
 90
        8
 70
   129
 43
0.0
 10
2.010251275577392
 20
1.624591558440243
 10
2.074527895100249
 20
1.624591558440243
 10
2.074527895100249
 20
1.608522403559527
 10
2.074527895100249
 20
1.54424578403667
 10
2.074527895100249
 20
1.447830854752382
 10
2.010251275577392
 20
1.447830854752382
 10
2.010251275577392
 20
1.54424578403667
 10
2.010251275577392
 20
1.608522403559527
  0
LWPOLYLINE
  5
20
100
AcDbEntity
  8
USP-GEO
100
AcDbPolyline
 90
        5
 70
   128
 43
0.0
 10
2.010251275577392
 20
1.656729868201672
 10
2.010251275577392
 20
1.640660713320958
 10
2.010251275577392
 20
1.624591558440243
 10
2.074527895100249
 20
1.624591558440243
 10
2.074527895100249
 20
1.640660713320958
  0
LWPOLYLINE
  5
21
100
AcDbEntity
  8
USP-GEO
100
AcDbPolyline
 90
        5
 70
   128
 43
0.0
 10
2.074527895100249
 20
2.107469662605716
 10
2.010251275577392
 20
2.107469662605716
 10
2.010251275577392
 20
1.656729868201672
 10
2.074527895100249
 20
1.656729868201672
 10
2.074527895100249
 20
1.640660713320958
  0
LWPOLYLINE
  5
22
100
AcDbEntity
  8
USP-GEO
100
AcDbPolyline
 90
        5
 70
   128
 43
0.0
 10
2.010251275577392
 20
2.107469662605716
 10
2.010251275577392
 20
2.12353881748643
 10
2.010251275577392
 20
2.139607972367144
 10
2.074527895100249
 20
2.139607972367144
 10
2.074527895100249
 20
2.12353881748643
  0
LWPOLYLINE
  5
23
100
AcDbEntity
  8
USP-GEO
100
AcDbPolyline
 90
        2
 70
   129
 43
0.0
 10
2.075331352844285
 20
1.640660713320958
 10
2.074527895100249
 20
1.640660713320958
  0
LWPOLYLINE
  5
24
100
AcDbEntity
  8
USP-GEO
100
AcDbPolyline
 90
        4
 70
   128
 43
0.0
 10
2.074527895100249
 20
1.656729868201672
 10
2.074527895100249
 20
2.107469662605716
 10
2.074527895100249
 20
2.12353881748643
 10
2.075331352844285
 20
2.12353881748643
  0
LWPOLYLINE
  5
25
100
AcDbEntity
  8
USP-GEO
100
AcDbPolyline
 90
        4
 70
   128
 43
0.0
 10
3.135895574971447
 20
2.91173086438548
 10
3.103757265210019
 20
2.927800019266195
 10
3.071618955448588
 20
2.959938329027623
 10
3.055549800567874
 20
3.008145793669767
  0
LWPOLYLINE
  5
26
100
AcDbEntity
  8
USP-GEO
100
AcDbPolyline
 90
        2
 70
   129
 43
0.0
 10
4.308943881263612
 20
0.0
 10
3.296587123778593
 20
0.0
  0
LWPOLYLINE
  5
27
100
AcDbEntity
  8
USP-GEO
100
AcDbPolyline
 90
        4
 70
   128
 43
0.0
 10
3.216241349375019
 20
0.096414929284288
 10
3.264448814017164
 20
0.0803457744035736
 10
3.296587123778593
 20
0.0482074646421449
 10
3.296587123778593
 20
0.0
  0
LWPOLYLINE
  5
28
100
AcDbEntity
  8
USP-GEO
100
AcDbPolyline
 90
        4
 70
   128
 43
0.0
 10
4.308943881263612
 20
0.0
 10
4.308943881263612
 20
0.0482074646421449
 10
4.341082191025041
 20
0.0803457744035736
 10
4.390093113411218
 20
0.096414929284288
  0
LWPOLYLINE
  5
29
100
AcDbEntity
  8
USP-GEO
100
AcDbPolyline
 90
        2
 70
   129
 43
0.0
 10
4.454369732934079
 20
0.096414929284288
 10
4.390093113411218
 20
0.096414929284288
  0
LWPOLYLINE
  5
2A
100
AcDbEntity
  8
USP-GEO
100
AcDbPolyline
 90
        4
 70
   128
 43
0.0
 10
4.454369732934079
 20
0.096414929284288
 10
4.502577197576222
 20
0.0803457744035736
 10
4.534715507337651
 20
0.0482074646421449
 10
4.550784662218365
 20
0.0
  0
LWPOLYLINE
  5
2B
100
AcDbEntity
  8
USP-GEO
100
AcDbPolyline
 90
        8
 70
   128
 43
0.0
 10
4.390093113411218
 20
2.91173086438548
 10
4.341082191025041
 20
2.927800019266195
 10
4.308943881263612
 20
2.959938329027623
 10
4.308943881263612
 20
3.008145793669767
 10
3.296587123778593
 20
3.008145793669767
 10
3.296587123778593
 20
2.959938329027623
 10
3.264448814017164
 20
2.927800019266195
 10
3.216241349375019
 20
2.91173086438548
  0
LWPOLYLINE
  5
2C
100
AcDbEntity
  8
USP-GEO
100
AcDbPolyline
 90
        2
 70
   128
 43
0.0
 10
4.308943881263612
 20
3.008145793669767
 10
3.296587123778593
 20
3.008145793669767
  0
LWPOLYLINE
  5
2D
100
AcDbEntity
  8
USP-GEO
100
AcDbPolyline
 90
        2
 70
   129
 43
0.0
 10
4.390093113411218
 20
2.91173086438548
 10
4.454369732934079
 20
2.91173086438548
  0
LWPOLYLINE
  5
2E
100
AcDbEntity
  8
USP-GEO
100
AcDbPolyline
 90
        4
 70
   128
 43
0.0
 10
4.550784662218365
 20
3.008145793669767
 10
4.534715507337651
 20
2.959938329027623
 10
4.502577197576222
 20
2.927800019266195
 10
4.454369732934079
 20
2.91173086438548
  0
LWPOLYLINE
  5
2F
100
AcDbEntity
  8
USP-GEO
100
AcDbPolyline
 90
        9
 70
   128
 43
0.0
 10
5.595279729464813
 20
0.0
 10
5.595279729464813
 20
0.0160691548807162
 10
5.595279729464813
 20
0.0321383097614305
 10
5.595279729464813
 20
1.447830854752382
 10
5.595279729464813
 20
1.54424578403667
 10
5.595279729464813
 20
1.608522403559527
 10
5.595279729464813
 20
1.624591558440243
 10
5.595279729464813
 20
1.640660713320958
 10
5.595279729464813
 20
1.656729868201672
  0
LWPOLYLINE
  5
30
100
AcDbEntity
  8
USP-GEO
100
AcDbPolyline
 90
       13
 70
   128
 43
0.0
 10
5.514933955061238
 20
0.0
 10
5.514933955061238
 20
0.0160691548807162
 10
5.514933955061238
 20
0.0321383097614305
 10
5.514933955061238
 20
1.447830854752382
 10
5.514933955061238
 20
1.54424578403667
 10
5.514933955061238
 20
1.608522403559527
 10
5.514933955061238
 20
1.624591558440243
 10
5.514933955061238
 20
1.640660713320958
 10
5.514933955061238
 20
1.656729868201672
 10
5.514933955061238
 20
2.107469662605716
 10
5.514933955061238
 20
2.12353881748643
 10
5.514933955061238
 20
2.139607972367144
 10
5.514933955061238
 20
3.200975652238343
  0
LWPOLYLINE
  5
31
100
AcDbEntity
  8
USP-GEO
100
AcDbPolyline
 90
        4
 70
   128
 43
0.0
 10
5.595279729464813
 20
1.447830854752382
 10
5.514933955061238
 20
1.447830854752382
 10
5.514933955061238
 20
0.0321383097614305
 10
5.595279729464813
 20
0.0321383097614305
  0
LWPOLYLINE
  5
32
100
AcDbEntity
  8
USP-GEO
100
AcDbPolyline
 90
       23
 70
   128
 43
0.0
 10
5.596083187208847
 20
0.0
 10
5.595279729464813
 20
0.0
 10
5.595279729464813
 20
0.0160691548807162
 10
5.595279729464813
 20
0.0321383097614305
 10
5.595279729464813
 20
1.447830854752382
 10
5.595279729464813
 20
1.54424578403667
 10
5.595279729464813
 20
1.608522403559527
 10
5.595279729464813
 20
1.624591558440243
 10
5.514933955061238
 20
1.624591558440243
 10
5.595279729464813
 20
1.624591558440243
 10
5.595279729464813
 20
1.640660713320958
 10
5.595279729464813
 20
1.656729868201672
 10
5.595279729464813
 20
2.107469662605716
 10
5.595279729464813
 20
2.12353881748643
 10
5.595279729464813
 20
2.139607972367144
 10
5.514933955061238
 20
2.139607972367144
 10
5.595279729464813
 20
2.139607972367144
 10
5.595279729464813
 20
2.12353881748643
 10
5.595279729464813
 20
2.107469662605716
 10
5.595279729464813
 20
1.656729868201672
 10
5.514933955061238
 20
1.656729868201672
 10
5.514933955061238
 20
2.107469662605716
 10
5.595279729464813
 20
2.107469662605716
  0
LWPOLYLINE
  5
33
100
AcDbEntity
  8
USP-GEO
100
AcDbPolyline
 90
        2
 70
   129
 43
0.0
 10
5.595279729464813
 20
0.0
 10
5.514933955061238
 20
0.0
  0
LWPOLYLINE
  5
34
100
AcDbEntity
  8
USP-GEO
100
AcDbPolyline
 90
        2
 70
   129
 43
0.0
 10
5.515737412805275
 20
0.0
 10
5.514933955061238
 20
0.0
  0
LWPOLYLINE
  5
35
100
AcDbEntity
  8
USP-GEO
100
AcDbPolyline
 90
        3
 70
   128
 43
0.0
 10
5.514933955061238
 20
0.0
 10
5.514933955061238
 20
0.0160691548807162
 10
5.514933955061238
 20
0.0321383097614305
  0
LWPOLYLINE
  5
36
100
AcDbEntity
  8
USP-GEO
100
AcDbPolyline
 90
        4
 70
   128
 43
0.0
 10
5.514933955061238
 20
2.107469662605716
 10
5.514933955061238
 20
2.12353881748643
 10
5.514933955061238
 20
2.139607972367144
 10
5.514933955061238
 20
3.200975652238343
  0
LWPOLYLINE
  5
37
100
AcDbEntity
  8
USP-GEO
100
AcDbPolyline
 90
        5
 70
   128
 43
0.0
 10
5.514933955061238
 20
1.447830854752382
 10
5.514933955061238
 20
1.54424578403667
 10
5.514933955061238
 20
1.608522403559527
 10
5.514933955061238
 20
1.624591558440243
 10
5.514933955061238
 20
1.640660713320958
  0
LWPOLYLINE
  5
38
100
AcDbEntity
  8
USP-GEO
100
AcDbPolyline
 90
        3
 70
   128
 43
0.0
 10
5.514933955061238
 20
1.656729868201672
 10
5.514933955061238
 20
1.640660713320958
 10
5.515737412805275
 20
1.640660713320958
  0
LWPOLYLINE
  5
39
100
AcDbEntity
  8
USP-GEO
100
AcDbPolyline
 90
        2
 70
   129
 43
0.0
 10
5.595279729464813
 20
3.136699032715485
 10
5.595279729464813
 20
2.139607972367144
  0
LWPOLYLINE
  5
3A
100
AcDbEntity
  8
USP-GEO
100
AcDbPolyline
 90
        2
 70
   128
 43
0.0
 10
5.595279729464813
 20
1.640660713320958
 10
5.596083187208847
 20
1.640660713320958
  0
LWPOLYLINE
  5
3B
100
AcDbEntity
  8
USP-GEO
100
AcDbPolyline
 90
        3
 70
   128
 43
0.0
 10
7.589461850161491
 20
3.136699032715485
 10
7.589461850161491
 20
3.200975652238343
 10
7.589461850161491
 20
3.136699032715485
  0
ENDBLK
  5
3E
100
AcDbEntity
  8
0
100
AcDbBlockEnd
  0
BLOCK
  5
EB
100
AcDbEntity
  8
0
100
AcDbBlockBegin
  2
THD210-2_F
 70
     0
 10
0.0
 20
0.0
 30
0.0
  3
THD210-2_F
  1

  0
LWPOLYLINE
  5
41
100
AcDbEntity
  8
USP-GEO
100
AcDbPolyline
 90
       27
 70
   128
 43
0.0
 10
5.595279729464813
 20
6.434089614238111
 10
5.595279729464813
 20
6.450158769118827
 10
5.595279729464813
 20
6.482297078880256
 10
5.595279729464813
 20
6.514435388641684
 10
5.595279729464813
 20
6.997313492807158
 10
5.595279729464813
 20
7.029451802568587
 10
5.595279729464813
 20
7.061590112330016
 10
5.595279729464813
 20
7.093728422091444
 10
5.595279729464813
 20
7.399042364825021
 10
5.595279729464813
 20
7.43118067458645
 10
5.595279729464813
 20
7.447249829467164
 10
5.595279729464813
 20
7.479388139228595
 10
5.595279729464813
 20
7.978335398274783
 10
5.595279729464813
 20
7.994404553155497
 10
5.595279729464813
 20
8.026542862916926
 10
5.595279729464813
 20
8.058681172678355
 10
5.595279729464813
 20
8.299718495889074
 10
5.595279729464813
 20
8.331856805650502
 10
5.595279729464813
 20
8.363995115411931
 10
5.595279729464813
 20
8.380064270292646
 10
5.595279729464813
 20
8.879011529338832
 10
5.595279729464813
 20
8.911149839100263
 10
5.595279729464813
 20
8.927218993980977
 10
5.595279729464813
 20
8.959357303742406
 10
5.595279729464813
 20
9.248602091595268
 10
7.589461850161491
 20
9.248602091595268
 10
7.589461850161491
 20
8.959357303742406
  0
LWPOLYLINE
  5
42
100
AcDbEntity
  8
USP-GEO
100
AcDbPolyline
 90
        2
 70
   128
 43
0.0
 10
7.557323540400062
 20
5.597690102696919
 10
7.123456358620767
 20
6.096637361743105
  0
LWPOLYLINE
  5
43
100
AcDbEntity
  8
USP-GEO
100
AcDbPolyline
 90
        2
 70
   128
 43
0.0
 10
7.557323540400062
 20
7.479388139228595
 10
7.123456358620767
 20
7.978335398274783
  0
LWPOLYLINE
  5
44
100
AcDbEntity
  8
USP-GEO
100
AcDbPolyline
 90
       12
 70
   129
 43
0.0
 10
7.300217062308629
 20
5.324514469724771
 10
7.252009597666482
 20
5.324514469724771
 10
7.219871287905053
 20
5.276307005082626
 10
7.203802133024339
 20
5.244168695321198
 10
7.219871287905053
 20
5.195961230679055
 10
7.252009597666482
 20
5.163822920917626
 10
7.300217062308629
 20
5.14775376603691
 10
7.348424526950772
 20
5.163822920917626
 10
7.380562836712201
 20
5.195961230679055
 10
7.380562836712201
 20
5.244168695321198
 10
7.380562836712201
 20
5.276307005082626
 10
7.348424526950772
 20
5.324514469724771
  0
LWPOLYLINE
  5
45
100
AcDbEntity
  8
USP-GEO
100
AcDbPolyline
 90
       12
 70
   129
 43
0.0
 10
7.300217062308629
 20
7.07765926721073
 10
7.348424526950772
 20
7.061590112330016
 10
7.380562836712201
 20
7.029451802568587
 10
7.380562836712201
 20
6.997313492807158
 10
7.380562836712201
 20
6.949106028165013
 10
7.348424526950772
 20
6.916967718403585
 10
7.300217062308629
 20
6.90089856352287
 10
7.252009597666482
 20
6.916967718403585
 10
7.219871287905053
 20
6.949106028165013
 10
7.203802133024339
 20
6.997313492807158
 10
7.219871287905053
 20
7.029451802568587
 10
7.252009597666482
 20
7.061590112330016
  0
LWPOLYLINE
  5
46
100
AcDbEntity
  8
USP-GEO
100
AcDbPolyline
 90
       12
 70
   129
 43
0.0
 10
7.219871287905053
 20
9.039703078145979
 10
7.252009597666482
 20
9.071841387907408
 10
7.300217062308629
 20
9.087910542788122
 10
7.348424526950772
 20
9.071841387907408
 10
7.380562836712201
 20
9.039703078145979
 10
7.380562836712201
 20
8.991495613503836
 10
7.380562836712201
 20
8.943288148861691
 10
7.348424526950772
 20
8.911149839100263
 10
7.300217062308629
 20
8.895080684219546
 10
7.252009597666482
 20
8.911149839100263
 10
7.219871287905053
 20
8.943288148861691
 10
7.203802133024339
 20
8.991495613503836
  0
LWPOLYLINE
  5
47
100
AcDbEntity
  8
USP-GEO
100
AcDbPolyline
 90
        2
 70
   128
 43
0.0
 10
7.123456358620767
 20
4.632737352110009
 10
7.557323540400062
 20
5.130881153412159
  0
LWPOLYLINE
  5
48
100
AcDbEntity
  8
USP-GEO
100
AcDbPolyline
 90
        2
 70
   128
 43
0.0
 10
7.123456358620767
 20
6.514435388641684
 10
7.557323540400062
 20
6.997313492807158
  0
LWPOLYLINE
  5
49
100
AcDbEntity
  8
USP-GEO
100
AcDbPolyline
 90
        2
 70
   128
 43
0.0
 10
7.123456358620767
 20
8.380064270292646
 10
7.557323540400062
 20
8.879011529338832
  0
LWPOLYLINE
  5
4A
100
AcDbEntity
  8
USP-GEO
100
AcDbPolyline
 90
       89
 70
   128
 43
0.0
 10
5.514933955061238
 20
6.096637361743105
 10
5.595279729464813
 20
6.096637361743105
 10
5.595279729464813
 20
5.597690102696919
 10
5.595279729464813
 20
5.581620947816205
 10
5.595279729464813
 20
5.549482638054774
 10
5.595279729464813
 20
5.581620947816205
 10
5.595279729464813
 20
5.597690102696919
 10
5.514933955061238
 20
5.597690102696919
 10
5.514933955061238
 20
5.581620947816205
 10
5.514933955061238
 20
5.549482638054774
 10
5.514933955061238
 20
5.517344328293345
 10
5.514933955061238
 20
5.549482638054774
 10
5.514933955061238
 20
5.581620947816205
 10
5.514933955061238
 20
5.597690102696919
 10
5.514933955061238
 20
6.096637361743105
 10
5.514933955061238
 20
6.11270651662382
 10
5.514933955061238
 20
6.144844826385249
 10
5.514933955061238
 20
6.176983136146679
 10
5.514933955061238
 20
6.434089614238111
 10
5.514933955061238
 20
6.450158769118827
 10
5.514933955061238
 20
6.482297078880256
 10
5.514933955061238
 20
6.514435388641684
 10
5.514933955061238
 20
6.997313492807158
 10
5.514933955061238
 20
7.029451802568587
 10
5.514933955061238
 20
7.061590112330016
 10
5.514933955061238
 20
7.093728422091444
 10
5.514933955061238
 20
7.399042364825021
 10
5.514933955061238
 20
7.43118067458645
 10
5.514933955061238
 20
7.399042364825021
 10
5.595279729464813
 20
7.399042364825021
 10
5.595279729464813
 20
7.43118067458645
 10
5.595279729464813
 20
7.447249829467164
 10
5.595279729464813
 20
7.479388139228595
 10
5.595279729464813
 20
7.978335398274783
 10
5.595279729464813
 20
7.994404553155497
 10
5.595279729464813
 20
8.026542862916926
 10
5.595279729464813
 20
8.058681172678355
 10
5.595279729464813
 20
8.299718495889074
 10
5.595279729464813
 20
8.331856805650502
 10
5.595279729464813
 20
8.363995115411931
 10
5.595279729464813
 20
8.380064270292646
 10
5.595279729464813
 20
8.879011529338832
 10
5.595279729464813
 20
8.911149839100263
 10
5.595279729464813
 20
8.927218993980977
 10
5.595279729464813
 20
8.959357303742406
 10
5.595279729464813
 20
9.248602091595268
 10
7.589461850161491
 20
9.248602091595268
 10
7.589461850161491
 20
8.959357303742406
 10
7.589461850161491
 20
8.927218993980977
 10
7.589461850161491
 20
8.911149839100263
 10
7.557323540400062
 20
8.879011529338832
 10
7.123456358620767
 20
8.380064270292646
 10
7.107387203740053
 20
8.363995115411931
 10
7.107387203740053
 20
8.331856805650502
 10
7.091318048859339
 20
8.299718495889074
 10
7.091318048859339
 20
8.058681172678355
 10
7.107387203740053
 20
8.026542862916926
 10
7.107387203740053
 20
7.994404553155497
 10
7.123456358620767
 20
7.978335398274783
 10
7.557323540400062
 20
7.479388139228595
 10
7.589461850161491
 20
7.447249829467164
 10
7.589461850161491
 20
7.43118067458645
 10
7.589461850161491
 20
7.399042364825021
 10
7.589461850161491
 20
7.093728422091444
 10
7.589461850161491
 20
7.061590112330016
 10
7.589461850161491
 20
7.029451802568587
 10
7.557323540400062
 20
6.997313492807158
 10
7.123456358620767
 20
6.514435388641684
 10
7.107387203740053
 20
6.482297078880256
 10
7.107387203740053
 20
6.450158769118827
 10
7.091318048859339
 20
6.434089614238111
 10
7.091318048859339
 20
6.176983136146679
 10
7.107387203740053
 20
6.144844826385249
 10
7.107387203740053
 20
6.11270651662382
 10
7.123456358620767
 20
6.096637361743105
 10
7.557323540400062
 20
5.597690102696919
 10
7.589461850161491
 20
5.581620947816205
 10
7.589461850161491
 20
5.549482638054774
 10
7.589461850161491
 20
5.517344328293345
 10
7.589461850161491
 20
5.212030385559769
 10
7.589461850161491
 20
5.17989207579834
 10
7.589461850161491
 20
5.14775376603691
 10
7.557323540400062
 20
5.130881153412159
 10
7.123456358620767
 20
4.632737352110009
 10
7.107387203740053
 20
4.616668197229294
 10
7.107387203740053
 20
4.584529887467866
 10
7.091318048859339
 20
4.552391577706435
 10
7.091318048859339
 20
2.47706022486215
 10
7.091318048859339
 20
4.552391577706435
  0
TEXT
  5
4B
100
AcDbEntity
  8
USP-TXT
100
AcDbText
 10
0.7597967525211034
 20
-1.206611458624919
 30
-1.050183983838884
 40
0.296875
  1
THD210-2 - FRONT VIEW
 72
     1
 11
3.802765502521102
 21
-1.206611458624919
 31
-1.050183983838884
100
AcDbText
  0
LWPOLYLINE
  5
4C
100
AcDbEntity
  8
USP-GEO
100
AcDbPolyline
 90
       82
 70
   128
 43
0.0
 10
0.0
 20
5.517344328293345
 10
0.0160691548807144
 20
5.549482638054774
 10
0.0160691548807144
 20
5.581620947816205
 10
0.0321383097614287
 20
5.597690102696919
 10
0.4828781041654722
 20
6.096637361743105
 10
0.4989472590461866
 20
6.11270651662382
 10
0.4989472590461866
 20
6.144844826385249
 10
0.5150164139269009
 20
6.176983136146679
 10
0.5150164139269009
 20
6.434089614238111
 10
0.4989472590461866
 20
6.450158769118827
 10
0.4989472590461866
 20
6.482297078880256
 10
0.4828781041654722
 20
6.514435388641684
 10
0.0321383097614287
 20
6.997313492807158
 10
0.0160691548807144
 20
7.029451802568587
 10
0.0160691548807144
 20
7.061590112330016
 10
0.0
 20
7.093728422091444
 10
0.0
 20
7.399042364825021
 10
0.0160691548807144
 20
7.43118067458645
 10
0.0160691548807144
 20
7.447249829467164
 10
0.0321383097614287
 20
7.479388139228595
 10
0.4828781041654722
 20
7.978335398274783
 10
0.4989472590461866
 20
7.994404553155497
 10
0.4989472590461866
 20
8.026542862916926
 10
0.5150164139269009
 20
8.058681172678355
 10
0.5150164139269009
 20
8.299718495889074
 10
0.4989472590461866
 20
8.331856805650502
 10
0.4989472590461866
 20
8.363995115411931
 10
0.4828781041654722
 20
8.380064270292646
 10
0.0321383097614287
 20
8.879011529338832
 10
0.0160691548807144
 20
8.911149839100263
 10
0.0160691548807144
 20
8.927218993980977
 10
0.0
 20
8.959357303742406
 10
0.0
 20
9.248602091595268
 10
2.010251275577392
 20
9.248602091595268
 10
2.010251275577392
 20
8.959357303742406
 10
2.010251275577392
 20
8.927218993980977
 10
2.010251275577392
 20
8.911149839100263
 10
2.010251275577392
 20
8.879011529338832
 10
2.010251275577392
 20
8.380064270292646
 10
2.010251275577392
 20
8.363995115411931
 10
2.010251275577392
 20
8.331856805650502
 10
2.010251275577392
 20
8.299718495889074
 10
2.010251275577392
 20
8.058681172678355
 10
2.010251275577392
 20
8.026542862916926
 10
2.010251275577392
 20
7.994404553155497
 10
2.010251275577392
 20
7.978335398274783
 10
2.010251275577392
 20
7.479388139228595
 10
2.010251275577392
 20
7.447249829467164
 10
2.010251275577392
 20
7.43118067458645
 10
2.010251275577392
 20
7.399042364825021
 10
2.010251275577392
 20
7.093728422091444
 10
2.010251275577392
 20
7.061590112330016
 10
2.010251275577392
 20
7.029451802568587
 10
2.010251275577392
 20
6.997313492807158
 10
2.010251275577392
 20
6.514435388641684
 10
2.010251275577392
 20
6.482297078880256
 10
2.010251275577392
 20
6.450158769118827
 10
2.010251275577392
 20
6.434089614238111
 10
2.010251275577392
 20
6.176983136146679
 10
2.010251275577392
 20
6.144844826385249
 10
2.010251275577392
 20
6.11270651662382
 10
2.010251275577392
 20
6.096637361743105
 10
2.010251275577392
 20
5.597690102696919
 10
2.010251275577392
 20
5.581620947816205
 10
2.010251275577392
 20
5.549482638054774
 10
2.010251275577392
 20
5.517344328293345
 10
2.010251275577392
 20
5.212030385559769
 10
2.010251275577392
 20
5.17989207579834
 10
2.010251275577392
 20
5.14775376603691
 10
2.010251275577392
 20
5.130881153412159
 10
2.010251275577392
 20
4.632737352110009
 10
2.010251275577392
 20
4.616668197229294
 10
2.010251275577392
 20
4.584529887467866
 10
2.010251275577392
 20
4.552391577706435
 10
2.010251275577392
 20
2.47706022486215
 10
2.010251275577392
 20
2.316368676055004
 10
2.010251275577392
 20
2.139607972367143
 10
2.010251275577392
 20
1.994985578440712
 10
2.010251275577392
 20
0.3061174004776124
 10
2.010251275577392
 20
0.290048245596898
 10
2.010251275577392
 20
0.2579099358354675
 10
2.010251275577392
 20
0.2257716260740388
  0
LWPOLYLINE
  5
4D
100
AcDbEntity
  8
USP-GEO
100
AcDbPolyline
 90
       69
 70
   128
 43
0.0
 10
0.0
 20
8.959357303742406
 10
0.0
 20
9.248602091595268
 10
2.010251275577392
 20
9.248602091595268
 10
2.074527895100249
 20
9.248602091595268
 10
2.074527895100249
 20
8.959357303742406
 10
2.074527895100249
 20
8.927218993980977
 10
2.074527895100249
 20
8.911149839100263
 10
2.074527895100249
 20
8.879011529338832
 10
2.074527895100249
 20
8.380064270292646
 10
2.074527895100249
 20
8.363995115411931
 10
2.074527895100249
 20
8.331856805650502
 10
2.074527895100249
 20
8.299718495889074
 10
2.074527895100249
 20
8.058681172678355
 10
2.074527895100249
 20
8.026542862916926
 10
2.074527895100249
 20
7.994404553155497
 10
2.074527895100249
 20
7.978335398274783
 10
2.074527895100249
 20
7.479388139228595
 10
2.074527895100249
 20
7.447249829467164
 10
2.074527895100249
 20
7.43118067458645
 10
2.074527895100249
 20
7.399042364825021
 10
2.074527895100249
 20
7.093728422091444
 10
2.074527895100249
 20
7.061590112330016
 10
2.074527895100249
 20
7.029451802568587
 10
2.074527895100249
 20
6.997313492807158
 10
2.074527895100249
 20
6.514435388641684
 10
2.074527895100249
 20
6.482297078880256
 10
2.074527895100249
 20
6.450158769118827
 10
2.074527895100249
 20
6.434089614238111
 10
2.074527895100249
 20
6.176983136146679
 10
2.074527895100249
 20
6.144844826385249
 10
2.074527895100249
 20
6.11270651662382
 10
2.074527895100249
 20
6.096637361743105
 10
2.074527895100249
 20
5.597690102696919
 10
2.074527895100249
 20
5.581620947816205
 10
2.074527895100249
 20
5.549482638054774
 10
2.074527895100249
 20
5.517344328293345
 10
2.074527895100249
 20
5.212030385559769
 10
2.074527895100249
 20
5.17989207579834
 10
2.074527895100249
 20
5.14775376603691
 10
2.074527895100249
 20
5.130881153412159
 10
2.074527895100249
 20
4.632737352110009
 10
2.074527895100249
 20
4.616668197229294
 10
2.074527895100249
 20
4.584529887467866
 10
2.074527895100249
 20
4.552391577706435
 10
2.074527895100249
 20
2.47706022486215
 10
2.074527895100249
 20
2.316368676055004
 10
2.074527895100249
 20
2.139607972367143
 10
2.074527895100249
 20
1.994985578440712
 10
2.074527895100249
 20
0.3061174004776124
 10
2.074527895100249
 20
0.290048245596898
 10
2.074527895100249
 20
0.2579099358354675
 10
2.074527895100249
 20
0.2257716260740388
 10
2.074527895100249
 20
0.0811492321476077
 10
3.055549800567874
 20
0.0811492321476077
 10
3.071618955448588
 20
0.0811492321476077
 10
3.103757265210019
 20
0.0811492321476077
 10
3.135895574971447
 20
0.0811492321476077
 10
3.216241349375019
 20
0.0811492321476077
 10
3.264448814017164
 20
0.0811492321476077
 10
3.296587123778593
 20
0.0811492321476077
 10
4.308943881263612
 20
0.0811492321476077
 10
4.341082191025041
 20
0.0811492321476077
 10
4.390093113411218
 20
0.0811492321476077
 10
4.454369732934079
 20
0.0811492321476077
 10
4.502577197576222
 20
0.0811492321476077
 10
4.534715507337651
 20
0.0811492321476077
 10
4.550784662218365
 20
0.0811492321476077
 10
5.514933955061238
 20
0.0811492321476077
 10
4.550784662218365
 20
0.0811492321476077
  0
LWPOLYLINE
  5
4E
100
AcDbEntity
  8
USP-GEO
100
AcDbPolyline
 90
        2
 70
   129
 43
0.0
 10
2.010251275577392
 20
0.418601484642613
 10
0.6757079627340481
 20
1.994985578440712
  0
LWPOLYLINE
  5
4F
100
AcDbEntity
  8
USP-GEO
100
AcDbPolyline
 90
        2
 70
   128
 43
0.0
 10
0.0321383097614287
 20
8.879011529338832
 10
0.4828781041654722
 20
8.380064270292646
  0
LWPOLYLINE
  5
50
100
AcDbEntity
  8
USP-GEO
100
AcDbPolyline
 90
        4
 70
   128
 43
0.0
 10
0.5150164139269009
 20
2.47706022486215
 10
0.5310855688076171
 20
2.316368676055004
 10
0.5792930334497602
 20
2.139607972367143
 10
0.6757079627340481
 20
1.994985578440712
  0
LWPOLYLINE
  5
51
100
AcDbEntity
  8
USP-GEO
100
AcDbPolyline
 90
        4
 70
   128
 43
0.0
 10
0.4828781041654722
 20
4.632737352110009
 10
0.4989472590461866
 20
4.616668197229294
 10
0.4989472590461866
 20
4.584529887467866
 10
0.5150164139269009
 20
4.552391577706435
  0
LWPOLYLINE
  5
52
100
AcDbEntity
  8
USP-GEO
100
AcDbPolyline
 90
        2
 70
   129
 43
0.0
 10
0.5150164139269009
 20
2.47706022486215
 10
0.5150164139269009
 20
4.552391577706435
  0
LWPOLYLINE
  5
53
100
AcDbEntity
  8
USP-GEO
100
AcDbPolyline
 90
        2
 70
   128
 43
0.0
 10
0.0321383097614287
 20
6.997313492807158
 10
0.4828781041654722
 20
6.514435388641684
  0
LWPOLYLINE
  5
54
100
AcDbEntity
  8
USP-GEO
100
AcDbPolyline
 90
        2
 70
   129
 43
0.0
 10
0.4828781041654722
 20
4.632737352110009
 10
0.0321383097614287
 20
5.130881153412159
  0
LWPOLYLINE
  5
55
100
AcDbEntity
  8
USP-GEO
100
AcDbPolyline
 90
        2
 70
   128
 43
0.0
 10
0.4828781041654722
 20
6.096637361743105
 10
0.0321383097614287
 20
5.597690102696919
  0
LWPOLYLINE
  5
56
100
AcDbEntity
  8
USP-GEO
100
AcDbPolyline
 90
        4
 70
   128
 43
0.0
 10
0.0
 20
5.212030385559769
 10
0.0160691548807144
 20
5.17989207579834
 10
0.0160691548807144
 20
5.14775376603691
 10
0.0321383097614287
 20
5.130881153412159
  0
LWPOLYLINE
  5
57
100
AcDbEntity
  8
USP-GEO
100
AcDbPolyline
 90
        2
 70
   129
 43
0.0
 10
0.0
 20
5.212030385559769
 10
0.0
 20
5.517344328293345
  0
LWPOLYLINE
  5
58
100
AcDbEntity
  8
USP-GEO
100
AcDbPolyline
 90
        2
 70
   129
 43
0.0
 10
0.386463174881186
 20
5.276307005082626
 10
0.3543248651197555
 20
5.324514469724771
  0
LWPOLYLINE
  5
59
100
AcDbEntity
  8
USP-GEO
100
AcDbPolyline
 90
       12
 70
   128
 43
0.0
 10
0.386463174881186
 20
5.276307005082626
 10
0.4025323297619004
 20
5.244168695321198
 10
0.386463174881186
 20
5.195961230679055
 10
0.3543248651197555
 20
5.163822920917626
 10
0.3053139427335765
 20
5.14775376603691
 10
0.2571064780914334
 20
5.163822920917626
 10
0.2249681683300047
 20
5.195961230679055
 10
0.2088990134492885
 20
5.244168695321198
 10
0.2249681683300047
 20
5.276307005082626
 10
0.2571064780914334
 20
5.324514469724771
 10
0.3053139427335765
 20
5.324514469724771
 10
0.3543248651197555
 20
5.324514469724771
  0
LWPOLYLINE
  5
5A
100
AcDbEntity
  8
USP-GEO
100
AcDbPolyline
 90
        2
 70
   128
 43
0.0
 10
0.5150164139269009
 20
6.434089614238111
 10
0.5150164139269009
 20
6.176983136146679
  0
LWPOLYLINE
  5
5B
100
AcDbEntity
  8
USP-GEO
100
AcDbPolyline
 90
        2
 70
   128
 43
0.0
 10
0.4828781041654722
 20
7.978335398274783
 10
0.0321383097614287
 20
7.479388139228595
  0
LWPOLYLINE
  5
5C
100
AcDbEntity
  8
USP-GEO
100
AcDbPolyline
 90
        2
 70
   128
 43
0.0
 10
0.0
 20
7.399042364825021
 10
0.0
 20
7.093728422091444
  0
LWPOLYLINE
  5
5D
100
AcDbEntity
  8
USP-GEO
100
AcDbPolyline
 90
       12
 70
   129
 43
0.0
 10
0.2249681683300047
 20
7.029451802568587
 10
0.2571064780914334
 20
7.061590112330016
 10
0.3053139427335765
 20
7.07765926721073
 10
0.3543248651197555
 20
7.061590112330016
 10
0.386463174881186
 20
7.029451802568587
 10
0.4025323297619004
 20
6.997313492807158
 10
0.386463174881186
 20
6.949106028165013
 10
0.3543248651197555
 20
6.916967718403585
 10
0.3053139427335765
 20
6.90089856352287
 10
0.2571064780914334
 20
6.916967718403585
 10
0.2249681683300047
 20
6.949106028165013
 10
0.2088990134492885
 20
6.997313492807158
  0
LWPOLYLINE
  5
5E
100
AcDbEntity
  8
USP-GEO
100
AcDbPolyline
 90
        2
 70
   128
 43
0.0
 10
0.3543248651197555
 20
7.061590112330016
 10
0.386463174881186
 20
7.029451802568587
  0
LWPOLYLINE
  5
5F
100
AcDbEntity
  8
USP-GEO
100
AcDbPolyline
 90
        2
 70
   128
 43
0.0
 10
0.5150164139269009
 20
8.299718495889074
 10
0.5150164139269009
 20
8.058681172678355
  0
LWPOLYLINE
  5
60
100
AcDbEntity
  8
USP-GEO
100
AcDbPolyline
 90
       12
 70
   128
 43
0.0
 10
0.8846069761833366
 20
3.152768187596198
 10
0.9006761310640509
 20
3.104560722954053
 10
0.8846069761833366
 20
3.05635325831191
 10
0.8524686664219078
 20
3.024214948550481
 10
0.8042612017797647
 20
3.008145793669767
 10
0.75605373713762
 20
3.024214948550481
 10
0.7239154273761912
 20
3.05635325831191
 10
0.7239154273761912
 20
3.104560722954053
 10
0.7239154273761912
 20
3.152768187596198
 10
0.75605373713762
 20
3.184906497357626
 10
0.8042612017797647
 20
3.184906497357626
 10
0.8524686664219078
 20
3.184906497357626
  0
LWPOLYLINE
  5
61
100
AcDbEntity
  8
USP-GEO
100
AcDbPolyline
 90
        2
 70
   129
 43
0.0
 10
0.8846069761833366
 20
3.152768187596198
 10
0.8524686664219078
 20
3.184906497357626
  0
LWPOLYLINE
  5
62
100
AcDbEntity
  8
USP-GEO
100
AcDbPolyline
 90
        2
 70
   129
 43
0.0
 10
0.8846069761833366
 20
4.02130600889882
 10
0.8524686664219078
 20
4.053444318660249
  0
LWPOLYLINE
  5
63
100
AcDbEntity
  8
USP-GEO
100
AcDbPolyline
 90
       12
 70
   128
 43
0.0
 10
0.8846069761833366
 20
4.02130600889882
 10
0.9006761310640509
 20
3.973098544256675
 10
0.8846069761833366
 20
3.940960234495246
 10
0.8524686664219078
 20
3.892752769853103
 10
0.8042612017797647
 20
3.892752769853103
 10
0.75605373713762
 20
3.892752769853103
 10
0.7239154273761912
 20
3.940960234495246
 10
0.7239154273761912
 20
3.973098544256675
 10
0.7239154273761912
 20
4.02130600889882
 10
0.75605373713762
 20
4.053444318660249
 10
0.8042612017797647
 20
4.069513473540963
 10
0.8524686664219078
 20
4.053444318660249
  0
LWPOLYLINE
  5
64
100
AcDbEntity
  8
USP-GEO
100
AcDbPolyline
 90
       12
 70
   128
 43
0.0
 10
1.591649790934777
 20
2.525267689504293
 10
1.591649790934777
 20
2.47706022486215
 10
1.591649790934777
 20
2.428852760220006
 10
1.559511481173348
 20
2.396714450458576
 10
1.511304016531205
 20
2.380645295577862
 10
1.46309655188906
 20
2.396714450458576
 10
1.430958242127632
 20
2.428852760220006
 10
1.414889087246917
 20
2.47706022486215
 10
1.430958242127632
 20
2.525267689504293
 10
1.46309655188906
 20
2.557405999265721
 10
1.511304016531205
 20
2.573475154146438
 10
1.559511481173348
 20
2.557405999265721
  0
LWPOLYLINE
  5
65
100
AcDbEntity
  8
USP-GEO
100
AcDbPolyline
 90
       12
 70
   128
 43
0.0
 10
1.591649790934777
 20
1.640660713320956
 10
1.591649790934777
 20
1.608522403559527
 10
1.591649790934777
 20
1.560314938917382
 10
1.559511481173348
 20
1.528176629155954
 10
1.511304016531205
 20
1.512107474275239
 10
1.46309655188906
 20
1.528176629155954
 10
1.430958242127632
 20
1.560314938917382
 10
1.414889087246917
 20
1.608522403559527
 10
1.430958242127632
 20
1.640660713320956
 10
1.46309655188906
 20
1.672799023082385
 10
1.511304016531205
 20
1.688868177963099
 10
1.559511481173348
 20
1.672799023082385
  0
LWPOLYLINE
  5
66
100
AcDbEntity
  8
USP-GEO
100
AcDbPolyline
 90
        2
 70
   129
 43
0.0
 10
1.591649790934777
 20
1.640660713320956
 10
1.559511481173348
 20
1.672799023082385
  0
LWPOLYLINE
  5
67
100
AcDbEntity
  8
USP-GEO
100
AcDbPolyline
 90
       12
 70
   128
 43
0.0
 10
1.591649790934777
 20
3.393805510806915
 10
1.591649790934777
 20
3.345598046164772
 10
1.591649790934777
 20
3.313459736403343
 10
1.559511481173348
 20
3.281321426641913
 10
1.511304016531205
 20
3.265252271761198
 10
1.46309655188906
 20
3.281321426641913
 10
1.430958242127632
 20
3.313459736403343
 10
1.414889087246917
 20
3.345598046164772
 10
1.430958242127632
 20
3.393805510806915
 10
1.46309655188906
 20
3.425943820568345
 10
1.511304016531205
 20
3.442816433193096
 10
1.559511481173348
 20
3.425943820568345
  0
LWPOLYLINE
  5
68
100
AcDbEntity
  8
USP-GEO
100
AcDbPolyline
 90
       12
 70
   128
 43
0.0
 10
1.591649790934777
 20
4.278412486990252
 10
1.591649790934777
 20
4.230205022348108
 10
1.591649790934777
 20
4.181997557705965
 10
1.559511481173348
 20
4.149859247944537
 10
1.511304016531205
 20
4.13379009306382
 10
1.46309655188906
 20
4.149859247944537
 10
1.430958242127632
 20
4.181997557705965
 10
1.414889087246917
 20
4.230205022348108
 10
1.430958242127632
 20
4.278412486990252
 10
1.46309655188906
 20
4.311354254495718
 10
1.511304016531205
 20
4.311354254495718
 10
1.559511481173348
 20
4.311354254495718
  0
LWPOLYLINE
  5
69
100
AcDbEntity
  8
USP-GEO
100
AcDbPolyline
 90
        2
 70
   129
 43
0.0
 10
1.591649790934777
 20
2.525267689504293
 10
1.559511481173348
 20
2.557405999265721
  0
LWPOLYLINE
  5
6A
100
AcDbEntity
  8
USP-GEO
100
AcDbPolyline
 90
        2
 70
   129
 43
0.0
 10
1.591649790934777
 20
3.393805510806915
 10
1.559511481173348
 20
3.425943820568345
  0
LWPOLYLINE
  5
6B
100
AcDbEntity
  8
USP-GEO
100
AcDbPolyline
 90
        2
 70
   129
 43
0.0
 10
1.591649790934777
 20
4.278412486990252
 10
1.559511481173348
 20
4.311354254495718
  0
LWPOLYLINE
  5
6C
100
AcDbEntity
  8
USP-GEO
100
AcDbPolyline
 90
       12
 70
   129
 43
0.0
 10
0.7239154273761912
 20
6.610850317925972
 10
0.7239154273761912
 20
6.642988627687401
 10
0.75605373713762
 20
6.691196092329544
 10
0.8042612017797647
 20
6.691196092329544
 10
0.8524686664219078
 20
6.691196092329544
 10
0.8846069761833366
 20
6.642988627687401
 10
0.9006761310640509
 20
6.610850317925972
 10
0.8846069761833366
 20
6.562642853283827
 10
0.8524686664219078
 20
6.530504543522399
 10
0.8042612017797647
 20
6.514435388641684
 10
0.75605373713762
 20
6.530504543522399
 10
0.7239154273761912
 20
6.562642853283827
  0
LWPOLYLINE
  5
6D
100
AcDbEntity
  8
USP-GEO
100
AcDbPolyline
 90
        2
 70
   128
 43
0.0
 10
0.8524686664219078
 20
6.691196092329544
 10
0.8846069761833366
 20
6.642988627687401
  0
LWPOLYLINE
  5
6E
100
AcDbEntity
  8
USP-GEO
100
AcDbPolyline
 90
       12
 70
   128
 43
0.0
 10
0.8846069761833366
 20
4.905912985082157
 10
0.9006761310640509
 20
4.857705520440012
 10
0.8846069761833366
 20
4.809498055797869
 10
0.8524686664219078
 20
4.77735974603644
 10
0.8042612017797647
 20
4.761290591155725
 10
0.75605373713762
 20
4.77735974603644
 10
0.7239154273761912
 20
4.809498055797869
 10
0.7239154273761912
 20
4.857705520440012
 10
0.7239154273761912
 20
4.905912985082157
 10
0.75605373713762
 20
4.938051294843585
 10
0.8042612017797647
 20
4.938051294843585
 10
0.8524686664219078
 20
4.938051294843585
  0
LWPOLYLINE
  5
6F
100
AcDbEntity
  8
USP-GEO
100
AcDbPolyline
 90
        2
 70
   129
 43
0.0
 10
0.8846069761833366
 20
4.905912985082157
 10
0.8524686664219078
 20
4.938051294843585
  0
LWPOLYLINE
  5
70
100
AcDbEntity
  8
USP-GEO
100
AcDbPolyline
 90
       12
 70
   129
 43
0.0
 10
0.7239154273761912
 20
5.726243341742636
 10
0.7239154273761912
 20
5.774450806384779
 10
0.75605373713762
 20
5.806589116146207
 10
0.8042612017797647
 20
5.822658271026922
 10
0.8524686664219078
 20
5.806589116146207
 10
0.8846069761833366
 20
5.774450806384779
 10
0.9006761310640509
 20
5.726243341742636
 10
0.8846069761833366
 20
5.678035877100491
 10
0.8524686664219078
 20
5.645897567339062
 10
0.8042612017797647
 20
5.645897567339062
 10
0.75605373713762
 20
5.645897567339062
 10
0.7239154273761912
 20
5.678035877100491
  0
LWPOLYLINE
  5
71
100
AcDbEntity
  8
USP-GEO
100
AcDbPolyline
 90
        2
 70
   128
 43
0.0
 10
0.8524686664219078
 20
5.806589116146207
 10
0.8846069761833366
 20
5.774450806384779
  0
LWPOLYLINE
  5
72
100
AcDbEntity
  8
USP-GEO
100
AcDbPolyline
 90
       12
 70
   129
 43
0.0
 10
0.7239154273761912
 20
7.479388139228595
 10
0.7239154273761912
 20
7.527595603870738
 10
0.75605373713762
 20
7.559733913632168
 10
0.8042612017797647
 20
7.575803068512882
 10
0.8524686664219078
 20
7.559733913632168
 10
0.8846069761833366
 20
7.527595603870738
 10
0.9006761310640509
 20
7.479388139228595
 10
0.8846069761833366
 20
7.43118067458645
 10
0.8524686664219078
 20
7.399042364825021
 10
0.8042612017797647
 20
7.399042364825021
 10
0.75605373713762
 20
7.399042364825021
 10
0.7239154273761912
 20
7.43118067458645
  0
LWPOLYLINE
  5
73
100
AcDbEntity
  8
USP-GEO
100
AcDbPolyline
 90
       12
 70
   129
 43
0.0
 10
0.7239154273761912
 20
8.39613342517336
 10
0.75605373713762
 20
8.428271734934789
 10
0.8042612017797647
 20
8.444340889815503
 10
0.8524686664219078
 20
8.428271734934789
 10
0.8846069761833366
 20
8.39613342517336
 10
0.9006761310640509
 20
8.363995115411931
 10
0.8846069761833366
 20
8.315787650769788
 10
0.8524686664219078
 20
8.283649341008359
 10
0.8042612017797647
 20
8.267580186127645
 10
0.75605373713762
 20
8.283649341008359
 10
0.7239154273761912
 20
8.315787650769788
 10
0.7239154273761912
 20
8.363995115411931
  0
LWPOLYLINE
  5
74
100
AcDbEntity
  8
USP-GEO
100
AcDbPolyline
 90
        2
 70
   128
 43
0.0
 10
0.8524686664219078
 20
8.428271734934789
 10
0.8846069761833366
 20
8.39613342517336
  0
LWPOLYLINE
  5
75
100
AcDbEntity
  8
USP-GEO
100
AcDbPolyline
 90
        2
 70
   128
 43
0.0
 10
0.8524686664219078
 20
7.559733913632168
 10
0.8846069761833366
 20
7.527595603870738
  0
LWPOLYLINE
  5
76
100
AcDbEntity
  8
USP-GEO
100
AcDbPolyline
 90
        2
 70
   128
 43
0.0
 10
0.75605373713762
 20
7.399042364825021
 10
0.7239154273761912
 20
7.43118067458645
  0
LWPOLYLINE
  5
77
100
AcDbEntity
  8
USP-GEO
100
AcDbPolyline
 90
        2
 70
   128
 43
0.0
 10
0.75605373713762
 20
8.283649341008359
 10
0.7239154273761912
 20
8.315787650769788
  0
LWPOLYLINE
  5
78
100
AcDbEntity
  8
USP-GEO
100
AcDbPolyline
 90
       12
 70
   128
 43
0.0
 10
1.591649790934777
 20
5.14775376603691
 10
1.591649790934777
 20
5.098742843650731
 10
1.591649790934777
 20
5.066604533889302
 10
1.559511481173348
 20
5.018397069247159
 10
1.511304016531205
 20
5.018397069247159
 10
1.46309655188906
 20
5.018397069247159
 10
1.430958242127632
 20
5.066604533889302
 10
1.414889087246917
 20
5.098742843650731
 10
1.430958242127632
 20
5.14775376603691
 10
1.46309655188906
 20
5.17989207579834
 10
1.511304016531205
 20
5.195961230679055
 10
1.559511481173348
 20
5.17989207579834
  0
LWPOLYLINE
  5
79
100
AcDbEntity
  8
USP-GEO
100
AcDbPolyline
 90
       12
 70
   129
 43
0.0
 10
1.414889087246917
 20
5.983349819834067
 10
1.430958242127632
 20
6.032360742220248
 10
1.46309655188906
 20
6.064499051981677
 10
1.511304016531205
 20
6.064499051981677
 10
1.559511481173348
 20
6.064499051981677
 10
1.591649790934777
 20
6.032360742220248
 10
1.591649790934777
 20
5.983349819834067
 10
1.591649790934777
 20
5.935142355191924
 10
1.559511481173348
 20
5.903004045430495
 10
1.511304016531205
 20
5.886934890549781
 10
1.46309655188906
 20
5.903004045430495
 10
1.430958242127632
 20
5.935142355191924
  0
LWPOLYLINE
  5
7A
100
AcDbEntity
  8
USP-GEO
100
AcDbPolyline
 90
        2
 70
   129
 43
0.0
 10
1.591649790934777
 20
5.14775376603691
 10
1.559511481173348
 20
5.17989207579834
  0
LWPOLYLINE
  5
7B
100
AcDbEntity
  8
USP-GEO
100
AcDbPolyline
 90
        2
 70
   128
 43
0.0
 10
1.559511481173348
 20
6.064499051981677
 10
1.591649790934777
 20
6.032360742220248
  0
LWPOLYLINE
  5
7C
100
AcDbEntity
  8
USP-GEO
100
AcDbPolyline
 90
       12
 70
   129
 43
0.0
 10
1.414889087246917
 20
6.852691098880725
 10
1.430958242127632
 20
6.90089856352287
 10
1.46309655188906
 20
6.933036873284299
 10
1.511304016531205
 20
6.949106028165013
 10
1.559511481173348
 20
6.933036873284299
 10
1.591649790934777
 20
6.90089856352287
 10
1.591649790934777
 20
6.852691098880725
 10
1.591649790934777
 20
6.803680176494546
 10
1.559511481173348
 20
6.771541866733118
 10
1.511304016531205
 20
6.771541866733118
 10
1.46309655188906
 20
6.771541866733118
 10
1.430958242127632
 20
6.803680176494546
  0
LWPOLYLINE
  5
7D
100
AcDbEntity
  8
USP-GEO
100
AcDbPolyline
 90
       12
 70
   129
 43
0.0
 10
1.414889087246917
 20
7.737298075064064
 10
1.430958242127632
 20
7.769436384825493
 10
1.46309655188906
 20
7.817643849467636
 10
1.511304016531205
 20
7.817643849467636
 10
1.559511481173348
 20
7.817643849467636
 10
1.591649790934777
 20
7.769436384825493
 10
1.591649790934777
 20
7.737298075064064
 10
1.591649790934777
 20
7.688287152677883
 10
1.559511481173348
 20
7.656148842916454
 10
1.511304016531205
 20
7.64007968803574
 10
1.46309655188906
 20
7.656148842916454
 10
1.430958242127632
 20
7.688287152677883
  0
LWPOLYLINE
  5
7E
100
AcDbEntity
  8
USP-GEO
100
AcDbPolyline
 90
       12
 70
   129
 43
0.0
 10
1.430958242127632
 20
8.654043361008829
 10
1.46309655188906
 20
8.686181670770258
 10
1.511304016531205
 20
8.702250825650974
 10
1.559511481173348
 20
8.686181670770258
 10
1.591649790934777
 20
8.654043361008829
 10
1.591649790934777
 20
8.605835896366684
 10
1.591649790934777
 20
8.557628431724541
 10
1.559511481173348
 20
8.524686664219077
 10
1.511304016531205
 20
8.524686664219077
 10
1.46309655188906
 20
8.524686664219077
 10
1.430958242127632
 20
8.557628431724541
 10
1.414889087246917
 20
8.605835896366684
  0
LWPOLYLINE
  5
7F
100
AcDbEntity
  8
USP-GEO
100
AcDbPolyline
 90
        2
 70
   128
 43
0.0
 10
1.46309655188906
 20
7.656148842916454
 10
1.430958242127632
 20
7.688287152677883
  0
LWPOLYLINE
  5
80
100
AcDbEntity
  8
USP-GEO
100
AcDbPolyline
 90
        2
 70
   128
 43
0.0
 10
1.46309655188906
 20
8.524686664219077
 10
1.430958242127632
 20
8.557628431724541
  0
LWPOLYLINE
  5
81
100
AcDbEntity
  8
USP-GEO
100
AcDbPolyline
 90
        2
 70
   128
 43
0.0
 10
1.559511481173348
 20
6.933036873284299
 10
1.591649790934777
 20
6.90089856352287
  0
LWPOLYLINE
  5
82
100
AcDbEntity
  8
USP-GEO
100
AcDbPolyline
 90
        2
 70
   128
 43
0.0
 10
1.559511481173348
 20
7.817643849467636
 10
1.591649790934777
 20
7.769436384825493
  0
LWPOLYLINE
  5
83
100
AcDbEntity
  8
USP-GEO
100
AcDbPolyline
 90
        2
 70
   128
 43
0.0
 10
1.559511481173348
 20
8.686181670770258
 10
1.591649790934777
 20
8.654043361008829
  0
LWPOLYLINE
  5
84
100
AcDbEntity
  8
USP-GEO
100
AcDbPolyline
 90
       12
 70
   129
 43
0.0
 10
0.2088990134492885
 20
8.991495613503836
 10
0.2249681683300047
 20
8.943288148861691
 10
0.2571064780914334
 20
8.911149839100263
 10
0.3053139427335765
 20
8.895080684219546
 10
0.3543248651197555
 20
8.911149839100263
 10
0.386463174881186
 20
8.943288148861691
 10
0.4025323297619004
 20
8.991495613503836
 10
0.386463174881186
 20
9.039703078145979
 10
0.3543248651197555
 20
9.071841387907408
 10
0.3053139427335765
 20
9.087910542788122
 10
0.2571064780914334
 20
9.071841387907408
 10
0.2249681683300047
 20
9.039703078145979
  0
LWPOLYLINE
  5
85
100
AcDbEntity
  8
USP-GEO
100
AcDbPolyline
 90
        2
 70
   128
 43
0.0
 10
0.3543248651197555
 20
9.071841387907408
 10
0.386463174881186
 20
9.039703078145979
  0
LWPOLYLINE
  5
86
100
AcDbEntity
  8
USP-GEO
100
AcDbPolyline
 90
        2
 70
   128
 43
0.0
 10
0.2571064780914334
 20
8.911149839100263
 10
0.2249681683300047
 20
8.943288148861691
  0
LWPOLYLINE
  5
87
100
AcDbEntity
  8
USP-GEO
100
AcDbPolyline
 90
        6
 70
   128
 43
0.0
 10
2.010251275577392
 20
8.879011529338832
 10
2.010251275577392
 20
8.380064270292646
 10
2.074527895100249
 20
8.380064270292646
 10
2.074527895100249
 20
8.363995115411931
 10
2.074527895100249
 20
8.331856805650502
 10
2.074527895100249
 20
8.299718495889074
  0
LWPOLYLINE
  5
88
100
AcDbEntity
  8
USP-GEO
100
AcDbPolyline
 90
        2
 70
   128
 43
0.0
 10
2.074527895100249
 20
8.380064270292646
 10
2.074527895100249
 20
8.879011529338832
  0
LWPOLYLINE
  5
89
100
AcDbEntity
  8
USP-GEO
100
AcDbPolyline
 90
        2
 70
   128
 43
0.0
 10
5.514933955061238
 20
8.879011529338832
 10
5.514933955061238
 20
8.380064270292646
  0
LWPOLYLINE
  5
8A
100
AcDbEntity
  8
USP-GEO
100
AcDbPolyline
 90
       22
 70
   128
 43
0.0
 10
5.595279729464813
 20
7.479388139228595
 10
5.514933955061238
 20
7.479388139228595
 10
5.514933955061238
 20
7.447249829467164
 10
5.514933955061238
 20
7.43118067458645
 10
5.514933955061238
 20
7.447249829467164
 10
5.514933955061238
 20
7.479388139228595
 10
5.514933955061238
 20
7.978335398274783
 10
5.514933955061238
 20
7.994404553155497
 10
5.514933955061238
 20
8.026542862916926
 10
5.514933955061238
 20
8.058681172678355
 10
5.514933955061238
 20
8.299718495889074
 10
5.514933955061238
 20
8.331856805650502
 10
5.514933955061238
 20
8.363995115411931
 10
5.514933955061238
 20
8.380064270292646
 10
5.514933955061238
 20
8.879011529338832
 10
5.514933955061238
 20
8.911149839100263
 10
5.514933955061238
 20
8.927218993980977
 10
5.514933955061238
 20
8.959357303742406
 10
5.514933955061238
 20
9.248602091595268
 10
5.595279729464813
 20
9.248602091595268
 10
5.514933955061238
 20
9.248602091595268
 10
5.514933955061238
 20
8.959357303742406
  0
LWPOLYLINE
  5
8B
100
AcDbEntity
  8
USP-GEO
100
AcDbPolyline
 90
       19
 70
   128
 43
0.0
 10
4.550784662218365
 20
0.0
 10
5.595279729464813
 20
0.0
 10
5.595279729464813
 20
0.2257716260740388
 10
5.595279729464813
 20
0.2579099358354675
 10
5.595279729464813
 20
0.290048245596898
 10
5.595279729464813
 20
0.3061174004776124
 10
5.595279729464813
 20
1.994985578440712
 10
5.595279729464813
 20
2.139607972367143
 10
5.595279729464813
 20
2.316368676055004
 10
5.595279729464813
 20
2.47706022486215
 10
5.595279729464813
 20
4.552391577706435
 10
5.595279729464813
 20
4.584529887467866
 10
5.595279729464813
 20
4.616668197229294
 10
5.595279729464813
 20
4.632737352110009
 10
5.595279729464813
 20
5.130881153412159
 10
5.595279729464813
 20
5.14775376603691
 10
5.595279729464813
 20
5.17989207579834
 10
5.595279729464813
 20
5.212030385559769
 10
5.595279729464813
 20
5.517344328293345
  0
LWPOLYLINE
  5
8C
100
AcDbEntity
  8
USP-GEO
100
AcDbPolyline
 90
       17
 70
   128
 43
0.0
 10
2.010251275577392
 20
0.0
 10
3.055549800567874
 20
0.0
 10
3.071618955448588
 20
0.0
 10
3.103757265210019
 20
0.0
 10
3.135895574971447
 20
0.0
 10
3.216241349375019
 20
0.0
 10
3.264448814017164
 20
0.0
 10
3.296587123778593
 20
0.0
 10
4.308943881263612
 20
0.0
 10
4.341082191025041
 20
0.0
 10
4.390093113411218
 20
0.0
 10
4.454369732934079
 20
0.0
 10
4.502577197576222
 20
0.0
 10
4.534715507337651
 20
0.0
 10
4.550784662218365
 20
0.0
 10
5.595279729464813
 20
0.0
 10
5.595279729464813
 20
0.2257716260740388
  0
LWPOLYLINE
  5
8D
100
AcDbEntity
  8
USP-GEO
100
AcDbPolyline
 90
        4
 70
   128
 43
0.0
 10
2.010251275577392
 20
1.994985578440712
 10
2.010251275577392
 20
0.3061174004776124
 10
2.074527895100249
 20
0.3061174004776124
 10
2.074527895100249
 20
1.994985578440712
  0
LWPOLYLINE
  5
8E
100
AcDbEntity
  8
USP-GEO
100
AcDbPolyline
 90
       20
 70
   128
 43
0.0
 10
2.010251275577392
 20
0.0
 10
3.055549800567874
 20
0.0
 10
3.071618955448588
 20
0.0
 10
3.103757265210019
 20
0.0
 10
3.135895574971447
 20
0.0
 10
3.216241349375019
 20
0.0
 10
3.264448814017164
 20
0.0
 10
3.296587123778593
 20
0.0
 10
4.308943881263612
 20
0.0
 10
4.341082191025041
 20
0.0
 10
4.390093113411218
 20
0.0
 10
4.454369732934079
 20
0.0
 10
4.502577197576222
 20
0.0
 10
4.534715507337651
 20
0.0
 10
4.550784662218365
 20
0.0
 10
4.550784662218365
 20
0.0811492321476077
 10
4.534715507337651
 20
0.0811492321476077
 10
4.502577197576222
 20
0.0811492321476077
 10
4.454369732934079
 20
0.0811492321476077
 10
4.454369732934079
 20
0.0
  0
LWPOLYLINE
  5
8F
100
AcDbEntity
  8
USP-GEO
100
AcDbPolyline
 90
        3
 70
   128
 43
0.0
 10
3.135895574971447
 20
0.0
 10
3.135895574971447
 20
0.0811492321476077
 10
3.216241349375019
 20
0.0811492321476077
  0
LWPOLYLINE
  5
90
100
AcDbEntity
  8
USP-GEO
100
AcDbPolyline
 90
        7
 70
   128
 43
0.0
 10
3.055549800567874
 20
0.0811492321476077
 10
2.074527895100249
 20
0.0811492321476077
 10
2.074527895100249
 20
0.2257716260740388
 10
2.010251275577392
 20
0.2257716260740388
 10
2.010251275577392
 20
0.2579099358354675
 10
2.010251275577392
 20
0.290048245596898
 10
2.010251275577392
 20
0.3061174004776124
  0
LWPOLYLINE
  5
91
100
AcDbEntity
  8
USP-GEO
100
AcDbPolyline
 90
        2
 70
   129
 43
0.0
 10
2.010251275577392
 20
0.0
 10
2.010251275577392
 20
0.2257716260740388
  0
LWPOLYLINE
  5
92
100
AcDbEntity
  8
USP-GEO
100
AcDbPolyline
 90
        4
 70
   128
 43
0.0
 10
2.074527895100249
 20
0.2257716260740388
 10
2.074527895100249
 20
0.2579099358354675
 10
2.074527895100249
 20
0.290048245596898
 10
2.074527895100249
 20
0.3061174004776124
  0
LWPOLYLINE
  5
93
100
AcDbEntity
  8
USP-GEO
100
AcDbPolyline
 90
        5
 70
   128
 43
0.0
 10
3.135895574971447
 20
0.0811492321476077
 10
3.103757265210019
 20
0.0811492321476077
 10
3.071618955448588
 20
0.0811492321476077
 10
3.055549800567874
 20
0.0811492321476077
 10
3.055549800567874
 20
0.0
  0
LWPOLYLINE
  5
94
100
AcDbEntity
  8
USP-GEO
100
AcDbPolyline
 90
        6
 70
   128
 43
0.0
 10
4.308943881263612
 20
0.0
 10
4.308943881263612
 20
0.0811492321476077
 10
3.296587123778593
 20
0.0811492321476077
 10
3.264448814017164
 20
0.0811492321476077
 10
3.216241349375019
 20
0.0811492321476077
 10
3.216241349375019
 20
0.0
  0
LWPOLYLINE
  5
95
100
AcDbEntity
  8
USP-GEO
100
AcDbPolyline
 90
        4
 70
   128
 43
0.0
 10
3.297390581522629
 20
0.0811492321476077
 10
3.296587123778593
 20
0.0811492321476077
 10
3.296587123778593
 20
0.0
 10
3.297390581522629
 20
0.0
  0
LWPOLYLINE
  5
96
100
AcDbEntity
  8
USP-GEO
100
AcDbPolyline
 90
        4
 70
   128
 43
0.0
 10
4.390093113411218
 20
0.0811492321476077
 10
4.341082191025041
 20
0.0811492321476077
 10
4.308943881263612
 20
0.0811492321476077
 10
4.309747339007646
 20
0.0811492321476077
  0
LWPOLYLINE
  5
97
100
AcDbEntity
  8
USP-GEO
100
AcDbPolyline
 90
        3
 70
   128
 43
0.0
 10
4.390093113411218
 20
0.0
 10
4.390093113411218
 20
0.0811492321476077
 10
4.454369732934079
 20
0.0811492321476077
  0
LWPOLYLINE
  5
98
100
AcDbEntity
  8
USP-GEO
100
AcDbPolyline
 90
        8
 70
   129
 43
0.0
 10
2.074527895100249
 20
4.552391577706435
 10
2.010251275577392
 20
4.552391577706435
 10
2.010251275577392
 20
4.584529887467866
 10
2.010251275577392
 20
4.616668197229294
 10
2.010251275577392
 20
4.632737352110009
 10
2.074527895100249
 20
4.632737352110009
 10
2.074527895100249
 20
4.616668197229294
 10
2.074527895100249
 20
4.584529887467866
  0
LWPOLYLINE
  5
99
100
AcDbEntity
  8
USP-GEO
100
AcDbPolyline
 90
        2
 70
   128
 43
0.0
 10
2.010251275577392
 20
4.552391577706435
 10
2.010251275577392
 20
2.47706022486215
  0
LWPOLYLINE
  5
9A
100
AcDbEntity
  8
USP-GEO
100
AcDbPolyline
 90
        2
 70
   128
 43
0.0
 10
2.074527895100249
 20
2.47706022486215
 10
2.074527895100249
 20
4.552391577706435
  0
LWPOLYLINE
  5
9B
100
AcDbEntity
  8
USP-GEO
100
AcDbPolyline
 90
        8
 70
   129
 43
0.0
 10
2.010251275577392
 20
2.47706022486215
 10
2.074527895100249
 20
2.47706022486215
 10
2.074527895100249
 20
2.316368676055004
 10
2.074527895100249
 20
2.139607972367143
 10
2.074527895100249
 20
1.994985578440712
 10
2.010251275577392
 20
1.994985578440712
 10
2.010251275577392
 20
2.139607972367143
 10
2.010251275577392
 20
2.316368676055004
  0
LWPOLYLINE
  5
9C
100
AcDbEntity
  8
USP-GEO
100
AcDbPolyline
 90
        4
 70
   128
 43
0.0
 10
2.010251275577392
 20
6.997313492807158
 10
2.010251275577392
 20
6.514435388641684
 10
2.074527895100249
 20
6.514435388641684
 10
2.074527895100249
 20
6.997313492807158
  0
LWPOLYLINE
  5
9D
100
AcDbEntity
  8
USP-GEO
100
AcDbPolyline
 90
        2
 70
   128
 43
0.0
 10
2.010251275577392
 20
6.096637361743105
 10
2.010251275577392
 20
5.597690102696919
  0
LWPOLYLINE
  5
9E
100
AcDbEntity
  8
USP-GEO
100
AcDbPolyline
 90
        2
 70
   128
 43
0.0
 10
2.074527895100249
 20
5.597690102696919
 10
2.074527895100249
 20
6.096637361743105
  0
LWPOLYLINE
  5
9F
100
AcDbEntity
  8
USP-GEO
100
AcDbPolyline
 90
        6
 70
   128
 43
0.0
 10
2.074527895100249
 20
4.632737352110009
 10
2.074527895100249
 20
5.130881153412159
 10
2.010251275577392
 20
5.130881153412159
 10
2.010251275577392
 20
5.14775376603691
 10
2.010251275577392
 20
5.17989207579834
 10
2.010251275577392
 20
5.212030385559769
  0
LWPOLYLINE
  5
A0
100
AcDbEntity
  8
USP-GEO
100
AcDbPolyline
 90
        6
 70
   128
 43
0.0
 10
2.010251275577392
 20
5.517344328293345
 10
2.010251275577392
 20
5.212030385559769
 10
2.074527895100249
 20
5.212030385559769
 10
2.074527895100249
 20
5.17989207579834
 10
2.074527895100249
 20
5.14775376603691
 10
2.074527895100249
 20
5.130881153412159
  0
LWPOLYLINE
  5
A1
100
AcDbEntity
  8
USP-GEO
100
AcDbPolyline
 90
        8
 70
   129
 43
0.0
 10
2.010251275577392
 20
5.581620947816205
 10
2.010251275577392
 20
5.549482638054774
 10
2.010251275577392
 20
5.517344328293345
 10
2.074527895100249
 20
5.517344328293345
 10
2.074527895100249
 20
5.549482638054774
 10
2.074527895100249
 20
5.581620947816205
 10
2.074527895100249
 20
5.597690102696919
 10
2.010251275577392
 20
5.597690102696919
  0
LWPOLYLINE
  5
A2
100
AcDbEntity
  8
USP-GEO
100
AcDbPolyline
 90
        2
 70
   128
 43
0.0
 10
2.010251275577392
 20
5.130881153412159
 10
2.010251275577392
 20
4.632737352110009
  0
LWPOLYLINE
  5
A3
100
AcDbEntity
  8
USP-GEO
100
AcDbPolyline
 90
        2
 70
   128
 43
0.0
 10
2.074527895100249
 20
5.212030385559769
 10
2.074527895100249
 20
5.517344328293345
  0
LWPOLYLINE
  5
A4
100
AcDbEntity
  8
USP-GEO
100
AcDbPolyline
 90
        8
 70
   128
 43
0.0
 10
2.074527895100249
 20
6.176983136146679
 10
2.074527895100249
 20
6.144844826385249
 10
2.074527895100249
 20
6.11270651662382
 10
2.074527895100249
 20
6.096637361743105
 10
2.010251275577392
 20
6.096637361743105
 10
2.010251275577392
 20
6.11270651662382
 10
2.010251275577392
 20
6.144844826385249
 10
2.010251275577392
 20
6.176983136146679
  0
LWPOLYLINE
  5
A5
100
AcDbEntity
  8
USP-GEO
100
AcDbPolyline
 90
        4
 70
   128
 43
0.0
 10
2.010251275577392
 20
6.434089614238111
 10
2.010251275577392
 20
6.176983136146679
 10
2.074527895100249
 20
6.176983136146679
 10
2.074527895100249
 20
6.434089614238111
  0
LWPOLYLINE
  5
A6
100
AcDbEntity
  8
USP-GEO
100
AcDbPolyline
 90
        8
 70
   128
 43
0.0
 10
2.010251275577392
 20
6.514435388641684
 10
2.010251275577392
 20
6.482297078880256
 10
2.010251275577392
 20
6.450158769118827
 10
2.010251275577392
 20
6.434089614238111
 10
2.074527895100249
 20
6.434089614238111
 10
2.074527895100249
 20
6.450158769118827
 10
2.074527895100249
 20
6.482297078880256
 10
2.074527895100249
 20
6.514435388641684
  0
LWPOLYLINE
  5
A7
100
AcDbEntity
  8
USP-GEO
100
AcDbPolyline
 90
        2
 70
   128
 43
0.0
 10
2.010251275577392
 20
7.978335398274783
 10
2.010251275577392
 20
7.479388139228595
  0
LWPOLYLINE
  5
A8
100
AcDbEntity
  8
USP-GEO
100
AcDbPolyline
 90
        2
 70
   128
 43
0.0
 10
2.074527895100249
 20
7.479388139228595
 10
2.074527895100249
 20
7.978335398274783
  0
LWPOLYLINE
  5
A9
100
AcDbEntity
  8
USP-GEO
100
AcDbPolyline
 90
        8
 70
   128
 43
0.0
 10
2.010251275577392
 20
7.093728422091444
 10
2.010251275577392
 20
7.061590112330016
 10
2.010251275577392
 20
7.029451802568587
 10
2.010251275577392
 20
6.997313492807158
 10
2.074527895100249
 20
6.997313492807158
 10
2.074527895100249
 20
7.029451802568587
 10
2.074527895100249
 20
7.061590112330016
 10
2.074527895100249
 20
7.093728422091444
  0
LWPOLYLINE
  5
AA
100
AcDbEntity
  8
USP-GEO
100
AcDbPolyline
 90
        4
 70
   128
 43
0.0
 10
2.010251275577392
 20
7.399042364825021
 10
2.010251275577392
 20
7.093728422091444
 10
2.074527895100249
 20
7.093728422091444
 10
2.074527895100249
 20
7.399042364825021
  0
LWPOLYLINE
  5
AB
100
AcDbEntity
  8
USP-GEO
100
AcDbPolyline
 90
        8
 70
   129
 43
0.0
 10
2.074527895100249
 20
7.399042364825021
 10
2.010251275577392
 20
7.399042364825021
 10
2.010251275577392
 20
7.43118067458645
 10
2.010251275577392
 20
7.447249829467164
 10
2.010251275577392
 20
7.479388139228595
 10
2.074527895100249
 20
7.479388139228595
 10
2.074527895100249
 20
7.447249829467164
 10
2.074527895100249
 20
7.43118067458645
  0
LWPOLYLINE
  5
AC
100
AcDbEntity
  8
USP-GEO
100
AcDbPolyline
 90
        8
 70
   128
 43
0.0
 10
2.074527895100249
 20
8.058681172678355
 10
2.074527895100249
 20
8.026542862916926
 10
2.074527895100249
 20
7.994404553155497
 10
2.074527895100249
 20
7.978335398274783
 10
2.010251275577392
 20
7.978335398274783
 10
2.010251275577392
 20
7.994404553155497
 10
2.010251275577392
 20
8.026542862916926
 10
2.010251275577392
 20
8.058681172678355
  0
LWPOLYLINE
  5
AD
100
AcDbEntity
  8
USP-GEO
100
AcDbPolyline
 90
        4
 70
   129
 43
0.0
 10
2.074527895100249
 20
8.299718495889074
 10
2.010251275577392
 20
8.299718495889074
 10
2.010251275577392
 20
8.058681172678355
 10
2.074527895100249
 20
8.058681172678355
  0
LWPOLYLINE
  5
AE
100
AcDbEntity
  8
USP-GEO
100
AcDbPolyline
 90
        4
 70
   128
 43
0.0
 10
2.010251275577392
 20
8.380064270292646
 10
2.010251275577392
 20
8.363995115411931
 10
2.010251275577392
 20
8.331856805650502
 10
2.010251275577392
 20
8.299718495889074
  0
LWPOLYLINE
  5
AF
100
AcDbEntity
  8
USP-GEO
100
AcDbPolyline
 90
        2
 70
   129
 43
0.0
 10
6.913753887427443
 20
1.994985578440712
 10
5.595279729464813
 20
0.418601484642613
  0
LWPOLYLINE
  5
B0
100
AcDbEntity
  8
USP-GEO
100
AcDbPolyline
 90
       18
 70
   128
 43
0.0
 10
5.595279729464813
 20
5.517344328293345
 10
5.514933955061238
 20
5.517344328293345
 10
5.514933955061238
 20
5.212030385559769
 10
5.514933955061238
 20
5.17989207579834
 10
5.514933955061238
 20
5.14775376603691
 10
5.514933955061238
 20
5.130881153412159
 10
5.514933955061238
 20
4.632737352110009
 10
5.514933955061238
 20
4.616668197229294
 10
5.514933955061238
 20
4.584529887467866
 10
5.514933955061238
 20
4.552391577706435
 10
5.514933955061238
 20
2.47706022486215
 10
5.514933955061238
 20
2.316368676055004
 10
5.514933955061238
 20
2.139607972367143
 10
5.514933955061238
 20
1.994985578440712
 10
5.514933955061238
 20
0.3061174004776124
 10
5.514933955061238
 20
0.290048245596898
 10
5.514933955061238
 20
0.2579099358354675
 10
5.514933955061238
 20
0.2257716260740388
  0
LWPOLYLINE
  5
B1
100
AcDbEntity
  8
USP-GEO
100
AcDbPolyline
 90
        4
 70
   129
 43
0.0
 10
5.514933955061238
 20
1.994985578440712
 10
5.514933955061238
 20
0.3061174004776124
 10
5.595279729464813
 20
0.3061174004776124
 10
5.595279729464813
 20
1.994985578440712
  0
LWPOLYLINE
  5
B2
100
AcDbEntity
  8
USP-GEO
100
AcDbPolyline
 90
        8
 70
   128
 43
0.0
 10
5.595279729464813
 20
0.3061174004776124
 10
5.595279729464813
 20
0.290048245596898
 10
5.595279729464813
 20
0.2579099358354675
 10
5.595279729464813
 20
0.2257716260740388
 10
5.514933955061238
 20
0.2257716260740388
 10
5.514933955061238
 20
0.2579099358354675
 10
5.514933955061238
 20
0.290048245596898
 10
5.514933955061238
 20
0.3061174004776124
  0
LWPOLYLINE
  5
B3
100
AcDbEntity
  8
USP-GEO
100
AcDbPolyline
 90
        2
 70
   129
 43
0.0
 10
5.514933955061238
 20
0.0811492321476077
 10
5.514933955061238
 20
0.2257716260740388
  0
LWPOLYLINE
  5
B4
100
AcDbEntity
  8
USP-GEO
100
AcDbPolyline
 90
        6
 70
   128
 43
0.0
 10
5.595279729464813
 20
4.552391577706435
 10
5.595279729464813
 20
4.584529887467866
 10
5.595279729464813
 20
4.616668197229294
 10
5.595279729464813
 20
4.632737352110009
 10
5.514933955061238
 20
4.632737352110009
 10
5.514933955061238
 20
5.130881153412159
  0
LWPOLYLINE
  5
B5
100
AcDbEntity
  8
USP-GEO
100
AcDbPolyline
 90
        6
 70
   128
 43
0.0
 10
5.595279729464813
 20
2.47706022486215
 10
5.595279729464813
 20
4.552391577706435
 10
5.514933955061238
 20
4.552391577706435
 10
5.514933955061238
 20
4.584529887467866
 10
5.514933955061238
 20
4.616668197229294
 10
5.514933955061238
 20
4.632737352110009
  0
LWPOLYLINE
  5
B6
100
AcDbEntity
  8
USP-GEO
100
AcDbPolyline
 90
        6
 70
   128
 43
0.0
 10
5.595279729464813
 20
1.994985578440712
 10
5.595279729464813
 20
2.139607972367143
 10
5.595279729464813
 20
2.316368676055004
 10
5.595279729464813
 20
2.47706022486215
 10
5.514933955061238
 20
2.47706022486215
 10
5.514933955061238
 20
4.552391577706435
  0
LWPOLYLINE
  5
B7
100
AcDbEntity
  8
USP-GEO
100
AcDbPolyline
 90
        4
 70
   128
 43
0.0
 10
5.514933955061238
 20
2.47706022486215
 10
5.514933955061238
 20
2.316368676055004
 10
5.514933955061238
 20
2.139607972367143
 10
5.514933955061238
 20
1.994985578440712
  0
LWPOLYLINE
  5
B8
100
AcDbEntity
  8
USP-GEO
100
AcDbPolyline
 90
        7
 70
   128
 43
0.0
 10
5.595279729464813
 20
6.514435388641684
 10
5.595279729464813
 20
6.997313492807158
 10
5.514933955061238
 20
6.997313492807158
 10
5.514933955061238
 20
7.029451802568587
 10
5.514933955061238
 20
7.061590112330016
 10
5.514933955061238
 20
7.093728422091444
 10
5.514933955061238
 20
7.399042364825021
  0
LWPOLYLINE
  5
B9
100
AcDbEntity
  8
USP-GEO
100
AcDbPolyline
 90
        6
 70
   128
 43
0.0
 10
5.514933955061238
 20
6.997313492807158
 10
5.514933955061238
 20
6.514435388641684
 10
5.595279729464813
 20
6.514435388641684
 10
5.595279729464813
 20
6.482297078880256
 10
5.595279729464813
 20
6.450158769118827
 10
5.595279729464813
 20
6.434089614238111
  0
LWPOLYLINE
  5
BA
100
AcDbEntity
  8
USP-GEO
100
AcDbPolyline
 90
        8
 70
   129
 43
0.0
 10
5.514933955061238
 20
5.212030385559769
 10
5.595279729464813
 20
5.212030385559769
 10
5.595279729464813
 20
5.17989207579834
 10
5.595279729464813
 20
5.14775376603691
 10
5.595279729464813
 20
5.130881153412159
 10
5.514933955061238
 20
5.130881153412159
 10
5.514933955061238
 20
5.14775376603691
 10
5.514933955061238
 20
5.17989207579834
  0
LWPOLYLINE
  5
BB
100
AcDbEntity
  8
USP-GEO
100
AcDbPolyline
 90
        5
 70
   128
 43
0.0
 10
5.595279729464813
 20
6.434089614238111
 10
5.514933955061238
 20
6.434089614238111
 10
5.514933955061238
 20
6.450158769118827
 10
5.514933955061238
 20
6.482297078880256
 10
5.514933955061238
 20
6.514435388641684
  0
LWPOLYLINE
  5
BC
100
AcDbEntity
  8
USP-GEO
100
AcDbPolyline
 90
        2
 70
   128
 43
0.0
 10
5.595279729464813
 20
6.176983136146679
 10
5.514933955061238
 20
6.176983136146679
  0
LWPOLYLINE
  5
BD
100
AcDbEntity
  8
USP-GEO
100
AcDbPolyline
 90
        6
 70
   128
 43
0.0
 10
5.514933955061238
 20
6.434089614238111
 10
5.514933955061238
 20
6.176983136146679
 10
5.514933955061238
 20
6.144844826385249
 10
5.514933955061238
 20
6.11270651662382
 10
5.514933955061238
 20
6.096637361743105
 10
5.514933955061238
 20
5.597690102696919
  0
LWPOLYLINE
  5
BE
100
AcDbEntity
  8
USP-GEO
100
AcDbPolyline
 90
        2
 70
   128
 43
0.0
 10
5.514933955061238
 20
5.517344328293345
 10
5.514933955061238
 20
5.212030385559769
  0
LWPOLYLINE
  5
BF
100
AcDbEntity
  8
USP-GEO
100
AcDbPolyline
 90
        2
 70
   128
 43
0.0
 10
5.595279729464813
 20
5.597690102696919
 10
5.595279729464813
 20
6.096637361743105
  0
LWPOLYLINE
  5
C0
100
AcDbEntity
  8
USP-GEO
100
AcDbPolyline
 90
        2
 70
   128
 43
0.0
 10
5.595279729464813
 20
5.212030385559769
 10
5.595279729464813
 20
5.517344328293345
  0
LWPOLYLINE
  5
C1
100
AcDbEntity
  8
USP-GEO
100
AcDbPolyline
 90
        2
 70
   128
 43
0.0
 10
5.595279729464813
 20
4.632737352110009
 10
5.595279729464813
 20
5.130881153412159
  0
LWPOLYLINE
  5
C2
100
AcDbEntity
  8
USP-GEO
100
AcDbPolyline
 90
        2
 70
   129
 43
0.0
 10
5.595279729464813
 20
5.549482638054774
 10
5.595279729464813
 20
5.517344328293345
  0
LWPOLYLINE
  5
C3
100
AcDbEntity
  8
USP-GEO
100
AcDbPolyline
 90
        8
 70
   129
 43
0.0
 10
5.595279729464813
 20
6.434089614238111
 10
5.595279729464813
 20
6.176983136146679
 10
5.595279729464813
 20
6.144844826385249
 10
5.595279729464813
 20
6.11270651662382
 10
5.595279729464813
 20
6.096637361743105
 10
5.595279729464813
 20
6.11270651662382
 10
5.595279729464813
 20
6.144844826385249
 10
5.595279729464813
 20
6.176983136146679
  0
LWPOLYLINE
  5
C4
100
AcDbEntity
  8
USP-GEO
100
AcDbPolyline
 90
        5
 70
   128
 43
0.0
 10
5.514933955061238
 20
7.093728422091444
 10
5.595279729464813
 20
7.093728422091444
 10
5.595279729464813
 20
7.061590112330016
 10
5.595279729464813
 20
7.029451802568587
 10
5.595279729464813
 20
6.997313492807158
  0
LWPOLYLINE
  5
C5
100
AcDbEntity
  8
USP-GEO
100
AcDbPolyline
 90
        5
 70
   128
 43
0.0
 10
5.595279729464813
 20
8.380064270292646
 10
5.514933955061238
 20
8.380064270292646
 10
5.514933955061238
 20
8.363995115411931
 10
5.514933955061238
 20
8.331856805650502
 10
5.514933955061238
 20
8.299718495889074
  0
LWPOLYLINE
  5
C6
100
AcDbEntity
  8
USP-GEO
100
AcDbPolyline
 90
        3
 70
   128
 43
0.0
 10
5.595279729464813
 20
8.299718495889074
 10
5.514933955061238
 20
8.299718495889074
 10
5.514933955061238
 20
8.058681172678355
  0
LWPOLYLINE
  5
C7
100
AcDbEntity
  8
USP-GEO
100
AcDbPolyline
 90
        5
 70
   128
 43
0.0
 10
5.595279729464813
 20
8.058681172678355
 10
5.514933955061238
 20
8.058681172678355
 10
5.514933955061238
 20
8.026542862916926
 10
5.514933955061238
 20
7.994404553155497
 10
5.514933955061238
 20
7.978335398274783
  0
LWPOLYLINE
  5
C8
100
AcDbEntity
  8
USP-GEO
100
AcDbPolyline
 90
        3
 70
   128
 43
0.0
 10
5.595279729464813
 20
7.978335398274783
 10
5.514933955061238
 20
7.978335398274783
 10
5.514933955061238
 20
7.479388139228595
  0
LWPOLYLINE
  5
C9
100
AcDbEntity
  8
USP-GEO
100
AcDbPolyline
 90
        2
 70
   128
 43
0.0
 10
5.595279729464813
 20
7.093728422091444
 10
5.595279729464813
 20
7.399042364825021
  0
LWPOLYLINE
  5
CA
100
AcDbEntity
  8
USP-GEO
100
AcDbPolyline
 90
       12
 70
   129
 43
0.0
 10
6.013881214107428
 20
2.428852760220006
 10
6.013881214107428
 20
2.47706022486215
 10
6.013881214107428
 20
2.525267689504293
 10
6.046019523868856
 20
2.557405999265721
 10
6.094226988511
 20
2.573475154146438
 10
6.142434453153143
 20
2.557405999265721
 10
6.174572762914571
 20
2.525267689504293
 10
6.190641917795286
 20
2.47706022486215
 10
6.174572762914571
 20
2.428852760220006
 10
6.142434453153143
 20
2.396714450458576
 10
6.094226988511
 20
2.380645295577862
 10
6.046019523868856
 20
2.396714450458576
  0
LWPOLYLINE
  5
CB
100
AcDbEntity
  8
USP-GEO
100
AcDbPolyline
 90
       12
 70
   129
 43
0.0
 10
6.013881214107428
 20
1.640660713320956
 10
6.013881214107428
 20
1.608522403559527
 10
6.013881214107428
 20
1.560314938917382
 10
6.046019523868856
 20
1.528176629155954
 10
6.094226988511
 20
1.512107474275239
 10
6.142434453153143
 20
1.528176629155954
 10
6.174572762914571
 20
1.560314938917382
 10
6.190641917795286
 20
1.608522403559527
 10
6.174572762914571
 20
1.640660713320956
 10
6.142434453153143
 20
1.672799023082385
 10
6.094226988511
 20
1.688868177963099
 10
6.046019523868856
 20
1.672799023082385
  0
LWPOLYLINE
  5
CC
100
AcDbEntity
  8
USP-GEO
100
AcDbPolyline
 90
       12
 70
   129
 43
0.0
 10
6.013881214107428
 20
3.313459736403343
 10
6.013881214107428
 20
3.345598046164772
 10
6.013881214107428
 20
3.393805510806915
 10
6.046019523868856
 20
3.425943820568345
 10
6.094226988511
 20
3.442816433193096
 10
6.142434453153143
 20
3.425943820568345
 10
6.174572762914571
 20
3.393805510806915
 10
6.190641917795286
 20
3.345598046164772
 10
6.174572762914571
 20
3.313459736403343
 10
6.142434453153143
 20
3.281321426641913
 10
6.094226988511
 20
3.265252271761198
 10
6.046019523868856
 20
3.281321426641913
  0
LWPOLYLINE
  5
CD
100
AcDbEntity
  8
USP-GEO
100
AcDbPolyline
 90
       12
 70
   129
 43
0.0
 10
6.013881214107428
 20
4.230205022348108
 10
6.013881214107428
 20
4.278412486990252
 10
6.046019523868856
 20
4.311354254495718
 10
6.094226988511
 20
4.311354254495718
 10
6.142434453153143
 20
4.311354254495718
 10
6.174572762914571
 20
4.278412486990252
 10
6.190641917795286
 20
4.230205022348108
 10
6.174572762914571
 20
4.181997557705965
 10
6.142434453153143
 20
4.149859247944537
 10
6.094226988511
 20
4.13379009306382
 10
6.046019523868856
 20
4.149859247944537
 10
6.013881214107428
 20
4.181997557705965
  0
LWPOLYLINE
  5
CE
100
AcDbEntity
  8
USP-GEO
100
AcDbPolyline
 90
        4
 70
   128
 43
0.0
 10
7.091318048859339
 20
2.47706022486215
 10
7.075248893978624
 20
2.316368676055004
 10
7.010168816711729
 20
2.139607972367143
 10
6.913753887427443
 20
1.994985578440712
  0
LWPOLYLINE
  5
CF
100
AcDbEntity
  8
USP-GEO
100
AcDbPolyline
 90
       12
 70
   129
 43
0.0
 10
6.704854873978153
 20
3.104560722954053
 10
6.720924028858867
 20
3.152768187596198
 10
6.753062338620296
 20
3.184906497357626
 10
6.801269803262439
 20
3.184906497357626
 10
6.833408113023871
 20
3.184906497357626
 10
6.881615577666014
 20
3.152768187596198
 10
6.881615577666014
 20
3.104560722954053
 10
6.881615577666014
 20
3.05635325831191
 10
6.833408113023871
 20
3.024214948550481
 10
6.801269803262439
 20
3.008145793669767
 10
6.753062338620296
 20
3.024214948550481
 10
6.720924028858867
 20
3.05635325831191
  0
LWPOLYLINE
  5
D0
100
AcDbEntity
  8
USP-GEO
100
AcDbPolyline
 90
       12
 70
   129
 43
0.0
 10
6.720924028858867
 20
3.940960234495246
 10
6.704854873978153
 20
3.973098544256675
 10
6.720924028858867
 20
4.02130600889882
 10
6.753062338620296
 20
4.053444318660249
 10
6.801269803262439
 20
4.069513473540963
 10
6.833408113023871
 20
4.053444318660249
 10
6.881615577666014
 20
4.02130600889882
 10
6.881615577666014
 20
3.973098544256675
 10
6.881615577666014
 20
3.940960234495246
 10
6.833408113023871
 20
3.892752769853103
 10
6.801269803262439
 20
3.892752769853103
 10
6.753062338620296
 20
3.892752769853103
  0
LWPOLYLINE
  5
D1
100
AcDbEntity
  8
USP-GEO
100
AcDbPolyline
 90
       12
 70
   129
 43
0.0
 10
6.013881214107428
 20
5.098742843650731
 10
6.013881214107428
 20
5.14775376603691
 10
6.046019523868856
 20
5.17989207579834
 10
6.094226988511
 20
5.195961230679055
 10
6.142434453153143
 20
5.17989207579834
 10
6.174572762914571
 20
5.14775376603691
 10
6.190641917795286
 20
5.098742843650731
 10
6.174572762914571
 20
5.066604533889302
 10
6.142434453153143
 20
5.018397069247159
 10
6.094226988511
 20
5.018397069247159
 10
6.046019523868856
 20
5.018397069247159
 10
6.013881214107428
 20
5.066604533889302
  0
LWPOLYLINE
  5
D2
100
AcDbEntity
  8
USP-GEO
100
AcDbPolyline
 90
       12
 70
   129
 43
0.0
 10
6.013881214107428
 20
5.983349819834067
 10
6.013881214107428
 20
6.032360742220248
 10
6.046019523868856
 20
6.064499051981677
 10
6.094226988511
 20
6.064499051981677
 10
6.142434453153143
 20
6.064499051981677
 10
6.174572762914571
 20
6.032360742220248
 10
6.190641917795286
 20
5.983349819834067
 10
6.174572762914571
 20
5.935142355191924
 10
6.142434453153143
 20
5.903004045430495
 10
6.094226988511
 20
5.886934890549781
 10
6.046019523868856
 20
5.903004045430495
 10
6.013881214107428
 20
5.935142355191924
  0
LWPOLYLINE
  5
D3
100
AcDbEntity
  8
USP-GEO
100
AcDbPolyline
 90
       12
 70
   129
 43
0.0
 10
6.013881214107428
 20
7.688287152677883
 10
6.013881214107428
 20
7.737298075064064
 10
6.013881214107428
 20
7.769436384825493
 10
6.046019523868856
 20
7.817643849467636
 10
6.094226988511
 20
7.817643849467636
 10
6.142434453153143
 20
7.817643849467636
 10
6.174572762914571
 20
7.769436384825493
 10
6.190641917795286
 20
7.737298075064064
 10
6.174572762914571
 20
7.688287152677883
 10
6.142434453153143
 20
7.656148842916454
 10
6.094226988511
 20
7.64007968803574
 10
6.046019523868856
 20
7.656148842916454
  0
LWPOLYLINE
  5
D4
100
AcDbEntity
  8
USP-GEO
100
AcDbPolyline
 90
       12
 70
   129
 43
0.0
 10
6.013881214107428
 20
6.803680176494546
 10
6.013881214107428
 20
6.852691098880725
 10
6.013881214107428
 20
6.90089856352287
 10
6.046019523868856
 20
6.933036873284299
 10
6.094226988511
 20
6.949106028165013
 10
6.142434453153143
 20
6.933036873284299
 10
6.174572762914571
 20
6.90089856352287
 10
6.190641917795286
 20
6.852691098880725
 10
6.174572762914571
 20
6.803680176494546
 10
6.142434453153143
 20
6.771541866733118
 10
6.094226988511
 20
6.771541866733118
 10
6.046019523868856
 20
6.771541866733118
  0
LWPOLYLINE
  5
D5
100
AcDbEntity
  8
USP-GEO
100
AcDbPolyline
 90
        2
 70
   128
 43
0.0
 10
6.094226988511
 20
7.64007968803574
 10
6.046019523868856
 20
7.656148842916454
  0
LWPOLYLINE
  5
D6
100
AcDbEntity
  8
USP-GEO
100
AcDbPolyline
 90
       12
 70
   129
 43
0.0
 10
6.094226988511
 20
8.702250825650974
 10
6.142434453153143
 20
8.686181670770258
 10
6.174572762914571
 20
8.654043361008829
 10
6.190641917795286
 20
8.605835896366684
 10
6.174572762914571
 20
8.557628431724541
 10
6.142434453153143
 20
8.524686664219077
 10
6.094226988511
 20
8.524686664219077
 10
6.046019523868856
 20
8.524686664219077
 10
6.013881214107428
 20
8.557628431724541
 10
6.013881214107428
 20
8.605835896366684
 10
6.013881214107428
 20
8.654043361008829
 10
6.046019523868856
 20
8.686181670770258
  0
LWPOLYLINE
  5
D7
100
AcDbEntity
  8
USP-GEO
100
AcDbPolyline
 90
        2
 70
   128
 43
0.0
 10
6.046019523868856
 20
8.686181670770258
 10
6.094226988511
 20
8.702250825650974
  0
LWPOLYLINE
  5
D8
100
AcDbEntity
  8
USP-GEO
100
AcDbPolyline
 90
        2
 70
   128
 43
0.0
 10
6.094226988511
 20
8.524686664219077
 10
6.046019523868856
 20
8.524686664219077
  0
LWPOLYLINE
  5
D9
100
AcDbEntity
  8
USP-GEO
100
AcDbPolyline
 90
        2
 70
   128
 43
0.0
 10
6.046019523868856
 20
7.817643849467636
 10
6.094226988511
 20
7.817643849467636
  0
LWPOLYLINE
  5
DA
100
AcDbEntity
  8
USP-GEO
100
AcDbPolyline
 90
       12
 70
   129
 43
0.0
 10
6.720924028858867
 20
6.562642853283827
 10
6.704854873978153
 20
6.610850317925972
 10
6.720924028858867
 20
6.642988627687401
 10
6.753062338620296
 20
6.691196092329544
 10
6.801269803262439
 20
6.691196092329544
 10
6.833408113023871
 20
6.691196092329544
 10
6.881615577666014
 20
6.642988627687401
 10
6.881615577666014
 20
6.610850317925972
 10
6.881615577666014
 20
6.562642853283827
 10
6.833408113023871
 20
6.530504543522399
 10
6.801269803262439
 20
6.514435388641684
 10
6.753062338620296
 20
6.530504543522399
  0
LWPOLYLINE
  5
DB
100
AcDbEntity
  8
USP-GEO
100
AcDbPolyline
 90
       12
 70
   129
 43
0.0
 10
6.704854873978153
 20
4.857705520440012
 10
6.720924028858867
 20
4.905912985082157
 10
6.753062338620296
 20
4.938051294843585
 10
6.801269803262439
 20
4.938051294843585
 10
6.833408113023871
 20
4.938051294843585
 10
6.881615577666014
 20
4.905912985082157
 10
6.881615577666014
 20
4.857705520440012
 10
6.881615577666014
 20
4.809498055797869
 10
6.833408113023871
 20
4.77735974603644
 10
6.801269803262439
 20
4.761290591155725
 10
6.753062338620296
 20
4.77735974603644
 10
6.720924028858867
 20
4.809498055797869
  0
LWPOLYLINE
  5
DC
100
AcDbEntity
  8
USP-GEO
100
AcDbPolyline
 90
       12
 70
   129
 43
0.0
 10
6.704854873978153
 20
5.726243341742636
 10
6.720924028858867
 20
5.774450806384779
 10
6.753062338620296
 20
5.806589116146207
 10
6.801269803262439
 20
5.822658271026922
 10
6.833408113023871
 20
5.806589116146207
 10
6.881615577666014
 20
5.774450806384779
 10
6.881615577666014
 20
5.726243341742636
 10
6.881615577666014
 20
5.678035877100491
 10
6.833408113023871
 20
5.645897567339062
 10
6.801269803262439
 20
5.645897567339062
 10
6.753062338620296
 20
5.645897567339062
 10
6.720924028858867
 20
5.678035877100491
  0
LWPOLYLINE
  5
DD
100
AcDbEntity
  8
USP-GEO
100
AcDbPolyline
 90
        3
 70
   128
 43
0.0
 10
7.107387203740053
 20
6.144844826385249
 10
7.091318048859339
 20
6.176983136146679
 10
7.091318048859339
 20
6.434089614238111
  0
LWPOLYLINE
  5
DE
100
AcDbEntity
  8
USP-GEO
100
AcDbPolyline
 90
       12
 70
   129
 43
0.0
 10
6.704854873978153
 20
7.479388139228595
 10
6.720924028858867
 20
7.527595603870738
 10
6.753062338620296
 20
7.559733913632168
 10
6.801269803262439
 20
7.575803068512882
 10
6.833408113023871
 20
7.559733913632168
 10
6.881615577666014
 20
7.527595603870738
 10
6.881615577666014
 20
7.479388139228595
 10
6.881615577666014
 20
7.43118067458645
 10
6.833408113023871
 20
7.399042364825021
 10
6.801269803262439
 20
7.399042364825021
 10
6.753062338620296
 20
7.399042364825021
 10
6.720924028858867
 20
7.43118067458645
  0
LWPOLYLINE
  5
DF
100
AcDbEntity
  8
USP-GEO
100
AcDbPolyline
 90
        2
 70
   128
 43
0.0
 10
6.753062338620296
 20
7.559733913632168
 10
6.801269803262439
 20
7.575803068512882
  0
LWPOLYLINE
  5
E0
100
AcDbEntity
  8
USP-GEO
100
AcDbPolyline
 90
        2
 70
   128
 43
0.0
 10
6.801269803262439
 20
7.399042364825021
 10
6.753062338620296
 20
7.399042364825021
  0
LWPOLYLINE
  5
E1
100
AcDbEntity
  8
USP-GEO
100
AcDbPolyline
 90
       12
 70
   129
 43
0.0
 10
6.720924028858867
 20
8.39613342517336
 10
6.753062338620296
 20
8.428271734934789
 10
6.801269803262439
 20
8.444340889815503
 10
6.833408113023871
 20
8.428271734934789
 10
6.881615577666014
 20
8.39613342517336
 10
6.881615577666014
 20
8.363995115411931
 10
6.881615577666014
 20
8.315787650769788
 10
6.833408113023871
 20
8.283649341008359
 10
6.801269803262439
 20
8.267580186127645
 10
6.753062338620296
 20
8.283649341008359
 10
6.720924028858867
 20
8.315787650769788
 10
6.704854873978153
 20
8.363995115411931
  0
LWPOLYLINE
  5
E2
100
AcDbEntity
  8
USP-GEO
100
AcDbPolyline
 90
        2
 70
   128
 43
0.0
 10
6.753062338620296
 20
8.428271734934789
 10
6.801269803262439
 20
8.444340889815503
  0
LWPOLYLINE
  5
E3
100
AcDbEntity
  8
USP-GEO
100
AcDbPolyline
 90
        2
 70
   128
 43
0.0
 10
6.801269803262439
 20
8.267580186127645
 10
6.753062338620296
 20
8.283649341008359
  0
LWPOLYLINE
  5
E4
100
AcDbEntity
  8
USP-GEO
100
AcDbPolyline
 90
        3
 70
   128
 43
0.0
 10
7.107387203740053
 20
8.026542862916926
 10
7.091318048859339
 20
8.058681172678355
 10
7.091318048859339
 20
8.299718495889074
  0
LWPOLYLINE
  5
E5
100
AcDbEntity
  8
USP-GEO
100
AcDbPolyline
 90
       12
 70
   128
 43
0.0
 10
2.074527895100249
 20
8.959357303742406
 10
2.074527895100249
 20
9.248602091595268
 10
2.010251275577392
 20
9.248602091595268
 10
2.010251275577392
 20
8.959357303742406
 10
2.010251275577392
 20
8.927218993980977
 10
2.010251275577392
 20
8.911149839100263
 10
2.010251275577392
 20
8.879011529338832
 10
2.074527895100249
 20
8.879011529338832
 10
2.074527895100249
 20
8.911149839100263
 10
2.074527895100249
 20
8.927218993980977
 10
2.074527895100249
 20
8.959357303742406
 10
2.010251275577392
 20
8.959357303742406
  0
LWPOLYLINE
  5
E6
100
AcDbEntity
  8
USP-GEO
100
AcDbPolyline
 90
        6
 70
   128
 43
0.0
 10
5.595279729464813
 20
8.959357303742406
 10
5.514933955061238
 20
8.959357303742406
 10
5.514933955061238
 20
8.927218993980977
 10
5.514933955061238
 20
8.911149839100263
 10
5.514933955061238
 20
8.879011529338832
 10
5.595279729464813
 20
8.879011529338832
  0
LWPOLYLINE
  5
E7
100
AcDbEntity
  8
USP-GEO
100
AcDbPolyline
 90
        2
 70
   128
 43
0.0
 10
7.589461850161491
 20
5.212030385559769
 10
7.589461850161491
 20
5.517344328293345
  0
LWPOLYLINE
  5
E8
100
AcDbEntity
  8
USP-GEO
100
AcDbPolyline
 90
        2
 70
   128
 43
0.0
 10
7.589461850161491
 20
7.093728422091444
 10
7.589461850161491
 20
7.399042364825021
  0
LWPOLYLINE
  5
E9
100
AcDbEntity
  8
USP-GEO
100
AcDbPolyline
 90
        2
 70
   128
 43
0.0
 10
7.252009597666482
 20
9.071841387907408
 10
7.300217062308629
 20
9.087910542788122
  0
LWPOLYLINE
  5
EA
100
AcDbEntity
  8
USP-GEO
100
AcDbPolyline
 90
        2
 70
   128
 43
0.0
 10
7.300217062308629
 20
8.895080684219546
 10
7.252009597666482
 20
8.911149839100263
  0
ENDBLK
  5
EC
100
AcDbEntity
  8
0
100
AcDbBlockEnd
  0
BLOCK
  5
12D
100
AcDbEntity
  8
0
100
AcDbBlockBegin
  2
THD210-2_S
 70
     0
 10
0.0
 20
0.0
 30
0.0
  3
THD210-2_S
  1

  0
TEXT
  5
EF
100
AcDbEntity
  8
USP-TXT
100
AcDbText
 10
-0.9309041947804491
 20
-1.206611458624919
 30
-1.050183983838884
 40
0.296875
  1
THD210-2 - SIDE VIEW
 72
     1
 11
1.914147888552883
 21
-1.206611458624919
 31
-1.050183983838884
100
AcDbText
  0
LWPOLYLINE
  5
F0
100
AcDbEntity
  8
USP-GEO
100
AcDbPolyline
 90
       22
 70
   128
 43
0.0
 10
0.0
 20
5.212030385559769
 10
0.0
 20
5.517344328293345
 10
0.0803457744035727
 20
5.517344328293345
 10
0.0803457744035727
 20
5.212030385559769
 10
0.0803457744035727
 20
5.17989207579834
 10
0.0803457744035727
 20
5.14775376603691
 10
0.0803457744035727
 20
5.130881153412159
 10
0.0803457744035727
 20
4.632737352110009
 10
0.0803457744035727
 20
4.616668197229294
 10
0.0803457744035727
 20
4.584529887467866
 10
0.0803457744035727
 20
4.552391577706435
 10
0.0803457744035727
 20
2.47706022486215
 10
0.0803457744035727
 20
2.316368676055004
 10
0.0803457744035727
 20
2.139607972367143
 10
0.0803457744035727
 20
1.994985578440712
 10
0.0803457744035727
 20
0.418601484642613
 10
0.1775641614318957
 20
0.3061174004776124
 10
0.19363331631261
 20
0.290048245596898
 10
0.19363331631261
 20
0.2579099358354675
 10
0.2097024711933244
 20
0.2257716260740388
 10
0.2097024711933244
 20
0.0
 10
3.200172194494306
 20
0.0
  0
LWPOLYLINE
  5
F1
100
AcDbEntity
  8
USP-GEO
100
AcDbPolyline
 90
       82
 70
   128
 43
0.0
 10
0.0803457744035727
 20
5.517344328293345
 10
0.0803457744035727
 20
5.549482638054774
 10
0.0803457744035727
 20
5.581620947816205
 10
0.0803457744035727
 20
5.597690102696919
 10
0.0803457744035727
 20
6.096637361743105
 10
0.0803457744035727
 20
6.11270651662382
 10
0.0803457744035727
 20
6.144844826385249
 10
0.0803457744035727
 20
6.176983136146679
 10
0.0803457744035727
 20
6.434089614238111
 10
0.0803457744035727
 20
6.450158769118827
 10
0.0803457744035727
 20
6.482297078880256
 10
0.0803457744035727
 20
6.514435388641684
 10
0.0803457744035727
 20
6.997313492807158
 10
0.0803457744035727
 20
7.029451802568587
 10
0.0803457744035727
 20
7.061590112330016
 10
0.0803457744035727
 20
7.093728422091444
 10
0.0803457744035727
 20
7.399042364825021
 10
0.0803457744035727
 20
7.43118067458645
 10
0.0803457744035727
 20
7.447249829467164
 10
0.0803457744035727
 20
7.479388139228595
 10
0.0803457744035727
 20
7.978335398274783
 10
0.0803457744035727
 20
7.994404553155497
 10
0.0803457744035727
 20
8.026542862916926
 10
0.0803457744035727
 20
8.058681172678355
 10
0.0803457744035727
 20
8.299718495889074
 10
0.0803457744035727
 20
8.331856805650502
 10
0.0803457744035727
 20
8.363995115411931
 10
0.0803457744035727
 20
8.380064270292646
 10
0.0803457744035727
 20
8.879011529338832
 10
0.0803457744035727
 20
8.911149839100263
 10
0.0803457744035727
 20
8.927218993980977
 10
0.0803457744035727
 20
8.959357303742406
 10
0.0803457744035727
 20
9.248602091595268
 10
1.077436834751911
 20
9.248602091595268
 10
1.077436834751911
 20
8.959357303742406
 10
1.077436834751911
 20
8.927218993980977
 10
1.093505989632626
 20
8.911149839100263
 10
1.10957514451334
 20
8.879011529338832
 10
1.544245784036669
 20
8.380064270292646
 10
1.560314938917383
 20
8.363995115411931
 10
1.576384093798099
 20
8.331856805650502
 10
1.576384093798099
 20
8.299718495889074
 10
1.576384093798099
 20
8.058681172678355
 10
1.576384093798099
 20
8.026542862916926
 10
1.560314938917383
 20
7.994404553155497
 10
1.544245784036669
 20
7.978335398274783
 10
1.10957514451334
 20
7.479388139228595
 10
1.093505989632626
 20
7.447249829467164
 10
1.077436834751911
 20
7.43118067458645
 10
1.077436834751911
 20
7.399042364825021
 10
1.077436834751911
 20
7.093728422091444
 10
1.077436834751911
 20
7.061590112330016
 10
1.093505989632626
 20
7.029451802568587
 10
1.10957514451334
 20
6.997313492807158
 10
1.544245784036669
 20
6.514435388641684
 10
1.560314938917383
 20
6.482297078880256
 10
1.576384093798099
 20
6.450158769118827
 10
1.576384093798099
 20
6.434089614238111
 10
1.576384093798099
 20
6.176983136146679
 10
1.576384093798099
 20
6.144844826385249
 10
1.560314938917383
 20
6.11270651662382
 10
1.544245784036669
 20
6.096637361743105
 10
1.10957514451334
 20
5.597690102696919
 10
1.093505989632626
 20
5.581620947816205
 10
1.077436834751911
 20
5.549482638054774
 10
1.077436834751911
 20
5.517344328293345
 10
1.077436834751911
 20
5.212030385559769
 10
1.077436834751911
 20
5.17989207579834
 10
1.093505989632626
 20
5.14775376603691
 10
1.10957514451334
 20
5.130881153412159
 10
1.544245784036669
 20
4.632737352110009
 10
1.560314938917383
 20
4.616668197229294
 10
1.576384093798099
 20
4.584529887467866
 10
1.576384093798099
 20
4.552391577706435
 10
1.576384093798099
 20
2.47706022486215
 10
1.608522403559527
 20
2.316368676055004
 10
1.656729868201671
 20
2.139607972367143
 10
1.753144797485958
 20
1.994985578440712
 10
3.184103039613591
 20
0.3061174004776124
 10
3.200172194494306
 20
0.290048245596898
 10
3.200172194494306
 20
0.2579099358354675
 10
3.200172194494306
 20
0.2257716260740388
  0
LWPOLYLINE
  5
F2
100
AcDbEntity
  8
USP-GEO
100
AcDbPolyline
 90
        3
 70
   128
 43
0.0
 10
0.2097024711933244
 20
0.2257716260740388
 10
0.2097024711933244
 20
0.0
 10
3.200172194494306
 20
0.0
  0
LWPOLYLINE
  5
F3
100
AcDbEntity
  8
USP-GEO
100
AcDbPolyline
 90
        2
 70
   128
 43
0.0
 10
3.184103039613591
 20
0.3061174004776124
 10
1.753144797485958
 20
1.994985578440712
  0
LWPOLYLINE
  5
F4
100
AcDbEntity
  8
USP-GEO
100
AcDbPolyline
 90
        2
 70
   128
 43
0.0
 10
3.200172194494306
 20
0.0811492321476077
 10
0.2097024711933244
 20
0.0811492321476077
  0
LWPOLYLINE
  5
F5
100
AcDbEntity
  8
USP-GEO
100
AcDbPolyline
 90
       49
 70
   128
 43
0.0
 10
0.0803457744035727
 20
8.959357303742406
 10
0.0803457744035727
 20
9.248602091595268
 10
0.0
 20
9.248602091595268
 10
0.0
 20
8.959357303742406
 10
0.0
 20
8.927218993980977
 10
0.0
 20
8.911149839100263
 10
0.0
 20
8.879011529338832
 10
0.0
 20
8.380064270292646
 10
0.0
 20
8.363995115411931
 10
0.0
 20
8.331856805650502
 10
0.0
 20
8.299718495889074
 10
0.0
 20
8.058681172678355
 10
0.0
 20
8.026542862916926
 10
0.0
 20
7.994404553155497
 10
0.0
 20
7.978335398274783
 10
0.0
 20
7.479388139228595
 10
0.0
 20
7.447249829467164
 10
0.0
 20
7.43118067458645
 10
0.0
 20
7.399042364825021
 10
0.0
 20
7.093728422091444
 10
0.0
 20
7.061590112330016
 10
0.0
 20
7.029451802568587
 10
0.0
 20
6.997313492807158
 10
0.0
 20
6.514435388641684
 10
0.0
 20
6.482297078880256
 10
0.0
 20
6.450158769118827
 10
0.0
 20
6.434089614238111
 10
0.0
 20
6.176983136146679
 10
0.0
 20
6.144844826385249
 10
0.0
 20
6.11270651662382
 10
0.0
 20
6.096637361743105
 10
0.0
 20
5.597690102696919
 10
0.0
 20
5.581620947816205
 10
0.0
 20
5.549482638054774
 10
0.0
 20
5.517344328293345
 10
0.0
 20
5.212030385559769
 10
0.0
 20
5.17989207579834
 10
0.0
 20
5.14775376603691
 10
0.0
 20
5.130881153412159
 10
0.0
 20
4.632737352110009
 10
0.0
 20
4.616668197229294
 10
0.0
 20
4.584529887467866
 10
0.0
 20
4.552391577706435
 10
0.0
 20
2.47706022486215
 10
0.0
 20
2.316368676055004
 10
0.0
 20
2.139607972367143
 10
0.0
 20
1.994985578440712
 10
0.0
 20
0.418601484642613
 10
0.0
 20
1.994985578440712
  0
LWPOLYLINE
  5
F6
100
AcDbEntity
  8
USP-GEO
100
AcDbPolyline
 90
       17
 70
   128
 43
0.0
 10
0.0
 20
7.093728422091444
 10
0.0
 20
7.399042364825021
 10
0.0803457744035727
 20
7.399042364825021
 10
0.0803457744035727
 20
7.43118067458645
 10
0.0803457744035727
 20
7.447249829467164
 10
0.0803457744035727
 20
7.479388139228595
 10
0.0803457744035727
 20
7.978335398274783
 10
0.0803457744035727
 20
7.994404553155497
 10
0.0803457744035727
 20
8.026542862916926
 10
0.0803457744035727
 20
8.058681172678355
 10
0.0803457744035727
 20
8.299718495889074
 10
0.0803457744035727
 20
8.331856805650502
 10
0.0803457744035727
 20
8.363995115411931
 10
0.0803457744035727
 20
8.380064270292646
 10
0.0803457744035727
 20
8.879011529338832
 10
0.0
 20
8.879011529338832
 10
0.0
 20
8.380064270292646
  0
LWPOLYLINE
  5
F7
100
AcDbEntity
  8
USP-GEO
100
AcDbPolyline
 90
        2
 70
   128
 43
0.0
 10
1.544245784036669
 20
8.380064270292646
 10
1.10957514451334
 20
8.879011529338832
  0
LWPOLYLINE
  5
F8
100
AcDbEntity
  8
USP-GEO
100
AcDbPolyline
 90
       24
 70
   128
 43
0.0
 10
0.1775641614318957
 20
0.3061174004776124
 10
0.0803457744035727
 20
0.418601484642613
 10
0.0803457744035727
 20
1.994985578440712
 10
0.0803457744035727
 20
2.139607972367143
 10
0.0803457744035727
 20
2.316368676055004
 10
0.0803457744035727
 20
2.47706022486215
 10
0.0803457744035727
 20
4.552391577706435
 10
0.0803457744035727
 20
4.584529887467866
 10
0.0803457744035727
 20
4.616668197229294
 10
0.0803457744035727
 20
4.632737352110009
 10
0.0803457744035727
 20
5.130881153412159
 10
0.0803457744035727
 20
5.14775376603691
 10
0.0803457744035727
 20
5.17989207579834
 10
0.0803457744035727
 20
5.212030385559769
 10
0.0803457744035727
 20
5.517344328293345
 10
0.0803457744035727
 20
5.549482638054774
 10
0.0803457744035727
 20
5.581620947816205
 10
0.0803457744035727
 20
5.597690102696919
 10
0.0803457744035727
 20
6.096637361743105
 10
0.0
 20
6.096637361743105
 10
0.0
 20
6.11270651662382
 10
0.0
 20
6.144844826385249
 10
0.0
 20
6.176983136146679
 10
0.0803457744035727
 20
6.176983136146679
  0
LWPOLYLINE
  5
F9
100
AcDbEntity
  8
USP-GEO
100
AcDbPolyline
 90
        2
 70
   129
 43
0.0
 10
0.0803457744035727
 20
0.418601484642613
 10
0.0
 20
0.418601484642613
  0
LWPOLYLINE
  5
FA
100
AcDbEntity
  8
USP-GEO
100
AcDbPolyline
 90
        5
 70
   128
 43
0.0
 10
0.0803457744035727
 20
4.632737352110009
 10
0.0
 20
4.632737352110009
 10
0.0
 20
4.616668197229294
 10
0.0
 20
4.584529887467866
 10
0.0
 20
4.552391577706435
  0
LWPOLYLINE
  5
FB
100
AcDbEntity
  8
USP-GEO
100
AcDbPolyline
 90
        3
 70
   128
 43
0.0
 10
0.0803457744035727
 20
4.552391577706435
 10
0.0
 20
4.552391577706435
 10
0.0
 20
2.47706022486215
  0
LWPOLYLINE
  5
FC
100
AcDbEntity
  8
USP-GEO
100
AcDbPolyline
 90
        6
 70
   128
 43
0.0
 10
0.0803457744035727
 20
2.47706022486215
 10
0.0
 20
2.47706022486215
 10
0.0
 20
2.316368676055004
 10
0.0
 20
2.139607972367143
 10
0.0
 20
1.994985578440712
 10
0.0803457744035727
 20
1.994985578440712
  0
LWPOLYLINE
  5
FD
100
AcDbEntity
  8
USP-GEO
100
AcDbPolyline
 90
       11
 70
   128
 43
0.0
 10
0.0803457744035727
 20
6.096637361743105
 10
0.0803457744035727
 20
6.11270651662382
 10
0.0803457744035727
 20
6.144844826385249
 10
0.0803457744035727
 20
6.176983136146679
 10
0.0803457744035727
 20
6.434089614238111
 10
0.0803457744035727
 20
6.450158769118827
 10
0.0803457744035727
 20
6.482297078880256
 10
0.0803457744035727
 20
6.514435388641684
 10
0.0803457744035727
 20
6.997313492807158
 10
0.0
 20
6.997313492807158
 10
0.0
 20
6.514435388641684
  0
LWPOLYLINE
  5
FE
100
AcDbEntity
  8
USP-GEO
100
AcDbPolyline
 90
        3
 70
   128
 43
0.0
 10
0.0803457744035727
 20
5.597690102696919
 10
0.0
 20
5.597690102696919
 10
0.0
 20
6.096637361743105
  0
LWPOLYLINE
  5
FF
100
AcDbEntity
  8
USP-GEO
100
AcDbPolyline
 90
        6
 70
   128
 43
0.0
 10
0.0803457744035727
 20
5.212030385559769
 10
0.0
 20
5.212030385559769
 10
0.0
 20
5.17989207579834
 10
0.0
 20
5.14775376603691
 10
0.0
 20
5.130881153412159
 10
0.0803457744035727
 20
5.130881153412159
  0
LWPOLYLINE
  5
100
100
AcDbEntity
  8
USP-GEO
100
AcDbPolyline
 90
        2
 70
   128
 43
0.0
 10
0.0
 20
5.130881153412159
 10
0.0
 20
4.632737352110009
  0
LWPOLYLINE
  5
101
100
AcDbEntity
  8
USP-GEO
100
AcDbPolyline
 90
        4
 70
   128
 43
0.0
 10
0.0
 20
5.517344328293345
 10
0.0
 20
5.549482638054774
 10
0.0
 20
5.581620947816205
 10
0.0
 20
5.597690102696919
  0
LWPOLYLINE
  5
102
100
AcDbEntity
  8
USP-GEO
100
AcDbPolyline
 90
        6
 70
   128
 43
0.0
 10
0.0803457744035727
 20
6.514435388641684
 10
0.0
 20
6.514435388641684
 10
0.0
 20
6.482297078880256
 10
0.0
 20
6.450158769118827
 10
0.0
 20
6.434089614238111
 10
0.0803457744035727
 20
6.434089614238111
  0
LWPOLYLINE
  5
103
100
AcDbEntity
  8
USP-GEO
100
AcDbPolyline
 90
        2
 70
   128
 43
0.0
 10
0.0
 20
6.434089614238111
 10
0.0
 20
6.176983136146679
  0
LWPOLYLINE
  5
104
100
AcDbEntity
  8
USP-GEO
100
AcDbPolyline
 90
        3
 70
   128
 43
0.0
 10
0.0803457744035727
 20
7.978335398274783
 10
0.0
 20
7.978335398274783
 10
0.0
 20
7.479388139228595
  0
LWPOLYLINE
  5
105
100
AcDbEntity
  8
USP-GEO
100
AcDbPolyline
 90
        2
 70
   128
 43
0.0
 10
0.0803457744035727
 20
7.093728422091444
 10
0.0803457744035727
 20
7.399042364825021
  0
LWPOLYLINE
  5
106
100
AcDbEntity
  8
USP-GEO
100
AcDbPolyline
 90
        8
 70
   128
 43
0.0
 10
0.0803457744035727
 20
6.997313492807158
 10
0.0803457744035727
 20
7.029451802568587
 10
0.0803457744035727
 20
7.061590112330016
 10
0.0803457744035727
 20
7.093728422091444
 10
0.0
 20
7.093728422091444
 10
0.0
 20
7.061590112330016
 10
0.0
 20
7.029451802568587
 10
0.0
 20
6.997313492807158
  0
LWPOLYLINE
  5
107
100
AcDbEntity
  8
USP-GEO
100
AcDbPolyline
 90
        5
 70
   128
 43
0.0
 10
0.0803457744035727
 20
7.479388139228595
 10
0.0
 20
7.479388139228595
 10
0.0
 20
7.447249829467164
 10
0.0
 20
7.43118067458645
 10
0.0
 20
7.399042364825021
  0
LWPOLYLINE
  5
108
100
AcDbEntity
  8
USP-GEO
100
AcDbPolyline
 90
        6
 70
   128
 43
0.0
 10
0.0803457744035727
 20
8.380064270292646
 10
0.0
 20
8.380064270292646
 10
0.0
 20
8.363995115411931
 10
0.0
 20
8.331856805650502
 10
0.0
 20
8.299718495889074
 10
0.0803457744035727
 20
8.299718495889074
  0
LWPOLYLINE
  5
109
100
AcDbEntity
  8
USP-GEO
100
AcDbPolyline
 90
        2
 70
   128
 43
0.0
 10
0.0
 20
8.299718495889074
 10
0.0
 20
8.058681172678355
  0
LWPOLYLINE
  5
10A
100
AcDbEntity
  8
USP-GEO
100
AcDbPolyline
 90
        5
 70
   128
 43
0.0
 10
0.0803457744035727
 20
8.058681172678355
 10
0.0
 20
8.058681172678355
 10
0.0
 20
8.026542862916926
 10
0.0
 20
7.994404553155497
 10
0.0
 20
7.978335398274783
  0
LWPOLYLINE
  5
10B
100
AcDbEntity
  8
USP-GEO
100
AcDbPolyline
 90
       12
 70
   129
 43
0.0
 10
1.173851764036198
 20
4.616668197229294
 10
1.189920918916913
 20
4.56846073258715
 10
1.222059228678342
 20
4.536322422825721
 10
1.270266693320486
 20
4.520253267945006
 10
1.318474157962629
 20
4.536322422825721
 10
1.350612467724059
 20
4.56846073258715
 10
1.350612467724059
 20
4.616668197229294
 10
1.350612467724059
 20
4.664875661871437
 10
1.318474157962629
 20
4.697013971632866
 10
1.270266693320486
 20
4.697013971632866
 10
1.222059228678342
 20
4.697013971632866
 10
1.189920918916913
 20
4.664875661871437
  0
LWPOLYLINE
  5
10C
100
AcDbEntity
  8
USP-GEO
100
AcDbPolyline
 90
       12
 70
   129
 43
0.0
 10
0.6757079627340472
 20
1.608522403559527
 10
0.6917771176147616
 20
1.65672986820167
 10
0.7239154273761912
 20
1.688868177963099
 10
0.7721228920183343
 20
1.704937332843813
 10
0.8042612017797639
 20
1.688868177963099
 10
0.8524686664219078
 20
1.65672986820167
 10
0.8524686664219078
 20
1.608522403559527
 10
0.8524686664219078
 20
1.560314938917382
 10
0.8042612017797639
 20
1.528176629155954
 10
0.7721228920183343
 20
1.528176629155954
 10
0.7239154273761912
 20
1.528176629155954
 10
0.6917771176147616
 20
1.560314938917382
  0
LWPOLYLINE
  5
10D
100
AcDbEntity
  8
USP-GEO
100
AcDbPolyline
 90
        2
 70
   128
 43
0.0
 10
0.7721228920183343
 20
1.528176629155954
 10
0.7239154273761912
 20
1.528176629155954
  0
LWPOLYLINE
  5
10E
100
AcDbEntity
  8
USP-GEO
100
AcDbPolyline
 90
       12
 70
   129
 43
0.0
 10
0.6757079627340472
 20
3.361667201045486
 10
0.6917771176147616
 20
3.409874665687629
 10
0.7239154273761912
 20
3.442816433193096
 10
0.7721228920183343
 20
3.45888558807381
 10
0.8042612017797639
 20
3.442816433193096
 10
0.8524686664219078
 20
3.409874665687629
 10
0.8524686664219078
 20
3.361667201045486
 10
0.8524686664219078
 20
3.313459736403343
 10
0.8042612017797639
 20
3.281321426641913
 10
0.7721228920183343
 20
3.265252271761198
 10
0.7239154273761912
 20
3.281321426641913
 10
0.6917771176147616
 20
3.313459736403343
  0
LWPOLYLINE
  5
10F
100
AcDbEntity
  8
USP-GEO
100
AcDbPolyline
 90
        2
 70
   128
 43
0.0
 10
0.7721228920183343
 20
3.265252271761198
 10
0.7239154273761912
 20
3.281321426641913
  0
LWPOLYLINE
  5
110
100
AcDbEntity
  8
USP-GEO
100
AcDbPolyline
 90
        3
 70
   128
 43
0.0
 10
1.608522403559527
 20
2.316368676055004
 10
1.576384093798099
 20
2.47706022486215
 10
1.576384093798099
 20
4.552391577706435
  0
LWPOLYLINE
  5
111
100
AcDbEntity
  8
USP-GEO
100
AcDbPolyline
 90
       12
 70
   129
 43
0.0
 10
1.270266693320486
 20
1.013963672973089
 10
1.222059228678342
 20
1.030032827853803
 10
1.189920918916913
 20
1.062171137615232
 10
1.173851764036198
 20
1.110378602257375
 10
1.189920918916913
 20
1.15858606689952
 10
1.222059228678342
 20
1.190724376660948
 10
1.270266693320486
 20
1.206793531541663
 10
1.318474157962629
 20
1.190724376660948
 10
1.350612467724059
 20
1.15858606689952
 10
1.350612467724059
 20
1.110378602257375
 10
1.350612467724059
 20
1.062171137615232
 10
1.318474157962629
 20
1.030032827853803
  0
LWPOLYLINE
  5
112
100
AcDbEntity
  8
USP-GEO
100
AcDbPolyline
 90
        2
 70
   128
 43
0.0
 10
1.270266693320486
 20
1.013963672973089
 10
1.222059228678342
 20
1.030032827853803
  0
LWPOLYLINE
  5
113
100
AcDbEntity
  8
USP-GEO
100
AcDbPolyline
 90
       12
 70
   129
 43
0.0
 10
1.173851764036198
 20
2.863523399743336
 10
1.189920918916913
 20
2.815315935101191
 10
1.222059228678342
 20
2.783177625339762
 10
1.270266693320486
 20
2.767108470459048
 10
1.318474157962629
 20
2.783177625339762
 10
1.350612467724059
 20
2.815315935101191
 10
1.350612467724059
 20
2.863523399743336
 10
1.350612467724059
 20
2.911730864385479
 10
1.318474157962629
 20
2.943869174146907
 10
1.270266693320486
 20
2.943869174146907
 10
1.222059228678342
 20
2.943869174146907
 10
1.189920918916913
 20
2.911730864385479
  0
LWPOLYLINE
  5
114
100
AcDbEntity
  8
USP-GEO
100
AcDbPolyline
 90
        2
 70
   128
 43
0.0
 10
1.270266693320486
 20
2.767108470459048
 10
1.222059228678342
 20
2.783177625339762
  0
LWPOLYLINE
  5
115
100
AcDbEntity
  8
USP-GEO
100
AcDbPolyline
 90
        2
 70
   128
 43
0.0
 10
1.270266693320486
 20
4.520253267945006
 10
1.222059228678342
 20
4.536322422825721
  0
LWPOLYLINE
  5
116
100
AcDbEntity
  8
USP-GEO
100
AcDbPolyline
 90
       12
 70
   129
 43
0.0
 10
0.6757079627340472
 20
5.114811998531445
 10
0.6917771176147616
 20
5.163822920917626
 10
0.7239154273761912
 20
5.195961230679055
 10
0.7721228920183343
 20
5.212030385559769
 10
0.8042612017797639
 20
5.195961230679055
 10
0.8524686664219078
 20
5.163822920917626
 10
0.8524686664219078
 20
5.114811998531445
 10
0.8524686664219078
 20
5.066604533889302
 10
0.8042612017797639
 20
5.034466224127873
 10
0.7721228920183343
 20
5.018397069247159
 10
0.7239154273761912
 20
5.034466224127873
 10
0.6917771176147616
 20
5.066604533889302
  0
LWPOLYLINE
  5
117
100
AcDbEntity
  8
USP-GEO
100
AcDbPolyline
 90
        2
 70
   128
 43
0.0
 10
0.7721228920183343
 20
5.018397069247159
 10
0.7239154273761912
 20
5.034466224127873
  0
LWPOLYLINE
  5
118
100
AcDbEntity
  8
USP-GEO
100
AcDbPolyline
 90
       12
 70
   129
 43
0.0
 10
0.6917771176147616
 20
6.916967718403585
 10
0.7239154273761912
 20
6.949106028165013
 10
0.7721228920183343
 20
6.949106028165013
 10
0.8042612017797639
 20
6.949106028165013
 10
0.8524686664219078
 20
6.916967718403585
 10
0.8524686664219078
 20
6.86876025376144
 10
0.8524686664219078
 20
6.819749331375261
 10
0.8042612017797639
 20
6.787611021613832
 10
0.7721228920183343
 20
6.771541866733118
 10
0.7239154273761912
 20
6.787611021613832
 10
0.6917771176147616
 20
6.819749331375261
 10
0.6757079627340472
 20
6.86876025376144
  0
LWPOLYLINE
  5
119
100
AcDbEntity
  8
USP-GEO
100
AcDbPolyline
 90
        2
 70
   128
 43
0.0
 10
0.7721228920183343
 20
6.771541866733118
 10
0.7239154273761912
 20
6.787611021613832
  0
LWPOLYLINE
  5
11A
100
AcDbEntity
  8
USP-GEO
100
AcDbPolyline
 90
        2
 70
   128
 43
0.0
 10
1.544245784036669
 20
6.514435388641684
 10
1.10957514451334
 20
6.997313492807158
  0
LWPOLYLINE
  5
11B
100
AcDbEntity
  8
USP-GEO
100
AcDbPolyline
 90
       12
 70
   129
 43
0.0
 10
1.270266693320486
 20
6.273398065430965
 10
1.222059228678342
 20
6.28946722031168
 10
1.189920918916913
 20
6.32160553007311
 10
1.173851764036198
 20
6.369812994715253
 10
1.189920918916913
 20
6.418020459357396
 10
1.222059228678342
 20
6.450158769118827
 10
1.270266693320486
 20
6.450158769118827
 10
1.318474157962629
 20
6.450158769118827
 10
1.350612467724059
 20
6.418020459357396
 10
1.350612467724059
 20
6.369812994715253
 10
1.350612467724059
 20
6.32160553007311
 10
1.318474157962629
 20
6.28946722031168
  0
LWPOLYLINE
  5
11C
100
AcDbEntity
  8
USP-GEO
100
AcDbPolyline
 90
        2
 70
   128
 43
0.0
 10
1.544245784036669
 20
4.632737352110009
 10
1.10957514451334
 20
5.130881153412159
  0
LWPOLYLINE
  5
11D
100
AcDbEntity
  8
USP-GEO
100
AcDbPolyline
 90
        3
 70
   128
 43
0.0
 10
1.093505989632626
 20
5.581620947816205
 10
1.10957514451334
 20
5.597690102696919
 10
1.544245784036669
 20
6.096637361743105
  0
LWPOLYLINE
  5
11E
100
AcDbEntity
  8
USP-GEO
100
AcDbPolyline
 90
        3
 70
   128
 43
0.0
 10
1.077436834751911
 20
5.17989207579834
 10
1.077436834751911
 20
5.212030385559769
 10
1.077436834751911
 20
5.517344328293345
  0
LWPOLYLINE
  5
11F
100
AcDbEntity
  8
USP-GEO
100
AcDbPolyline
 90
        2
 70
   128
 43
0.0
 10
1.270266693320486
 20
6.273398065430965
 10
1.222059228678342
 20
6.28946722031168
  0
LWPOLYLINE
  5
120
100
AcDbEntity
  8
USP-GEO
100
AcDbPolyline
 90
        2
 70
   128
 43
0.0
 10
1.576384093798099
 20
6.176983136146679
 10
1.576384093798099
 20
6.434089614238111
  0
LWPOLYLINE
  5
121
100
AcDbEntity
  8
USP-GEO
100
AcDbPolyline
 90
       12
 70
   129
 43
0.0
 10
1.189920918916913
 20
8.315787650769788
 10
1.222059228678342
 20
8.283649341008359
 10
1.270266693320486
 20
8.283649341008359
 10
1.318474157962629
 20
8.283649341008359
 10
1.350612467724059
 20
8.315787650769788
 10
1.350612467724059
 20
8.363995115411931
 10
1.350612467724059
 20
8.412202580054074
 10
1.318474157962629
 20
8.444340889815503
 10
1.270266693320486
 20
8.460410044696217
 10
1.222059228678342
 20
8.444340889815503
 10
1.189920918916913
 20
8.412202580054074
 10
1.173851764036198
 20
8.363995115411931
  0
LWPOLYLINE
  5
122
100
AcDbEntity
  8
USP-GEO
100
AcDbPolyline
 90
        3
 70
   128
 43
0.0
 10
1.093505989632626
 20
7.447249829467164
 10
1.10957514451334
 20
7.479388139228595
 10
1.544245784036669
 20
7.978335398274783
  0
LWPOLYLINE
  5
123
100
AcDbEntity
  8
USP-GEO
100
AcDbPolyline
 90
        3
 70
   128
 43
0.0
 10
1.077436834751911
 20
7.061590112330016
 10
1.077436834751911
 20
7.093728422091444
 10
1.077436834751911
 20
7.399042364825021
  0
LWPOLYLINE
  5
124
100
AcDbEntity
  8
USP-GEO
100
AcDbPolyline
 90
        2
 70
   128
 43
0.0
 10
1.270266693320486
 20
8.283649341008359
 10
1.222059228678342
 20
8.283649341008359
  0
LWPOLYLINE
  5
125
100
AcDbEntity
  8
USP-GEO
100
AcDbPolyline
 90
        2
 70
   128
 43
0.0
 10
1.576384093798099
 20
8.058681172678355
 10
1.576384093798099
 20
8.299718495889074
  0
LWPOLYLINE
  5
126
100
AcDbEntity
  8
USP-GEO
100
AcDbPolyline
 90
       12
 70
   129
 43
0.0
 10
0.19363331631261
 20
8.846873219577403
 10
0.1775641614318957
 20
8.927218993980977
 10
0.19363331631261
 20
9.007564768384551
 10
0.2579099358354684
 20
9.071841387907408
 10
0.3221865553583267
 20
9.087910542788122
 10
0.4025323297618995
 20
9.071841387907408
 10
0.4668089492847578
 20
9.007564768384551
 10
0.4828781041654722
 20
8.927218993980977
 10
0.4668089492847578
 20
8.846873219577403
 10
0.4025323297618995
 20
8.79866575493526
 10
0.3221865553583267
 20
8.766527445173831
 10
0.2579099358354684
 20
8.79866575493526
  0
LWPOLYLINE
  5
127
100
AcDbEntity
  8
USP-GEO
100
AcDbPolyline
 90
        6
 70
   128
 43
0.0
 10
1.077436834751911
 20
8.927218993980977
 10
1.077436834751911
 20
8.959357303742406
 10
1.077436834751911
 20
9.248602091595268
 10
0.0803457744035727
 20
9.248602091595268
 10
0.0
 20
9.248602091595268
 10
0.0
 20
8.959357303742406
  0
LWPOLYLINE
  5
128
100
AcDbEntity
  8
USP-GEO
100
AcDbPolyline
 90
        2
 70
   128
 43
0.0
 10
0.2579099358354684
 20
9.071841387907408
 10
0.3221865553583267
 20
9.087910542788122
  0
LWPOLYLINE
  5
129
100
AcDbEntity
  8
USP-GEO
100
AcDbPolyline
 90
        8
 70
   128
 43
0.0
 10
0.0803457744035727
 20
8.879011529338832
 10
0.0803457744035727
 20
8.911149839100263
 10
0.0803457744035727
 20
8.927218993980977
 10
0.0803457744035727
 20
8.959357303742406
 10
0.0
 20
8.959357303742406
 10
0.0
 20
8.927218993980977
 10
0.0
 20
8.911149839100263
 10
0.0
 20
8.879011529338832
  0
LWPOLYLINE
  5
12A
100
AcDbEntity
  8
USP-GEO
100
AcDbPolyline
 90
       12
 70
   129
 43
0.0
 10
0.6917771176147616
 20
8.911149839100263
 10
0.7239154273761912
 20
8.943288148861691
 10
0.7721228920183343
 20
8.959357303742406
 10
0.8042612017797639
 20
8.943288148861691
 10
0.8524686664219078
 20
8.911149839100263
 10
0.8524686664219078
 20
8.862942374458118
 10
0.8524686664219078
 20
8.814734909815975
 10
0.8042612017797639
 20
8.782596600054546
 10
0.7721228920183343
 20
8.782596600054546
 10
0.7239154273761912
 20
8.782596600054546
 10
0.6917771176147616
 20
8.814734909815975
 10
0.6757079627340472
 20
8.862942374458118
  0
LWPOLYLINE
  5
12B
100
AcDbEntity
  8
USP-GEO
100
AcDbPolyline
 90
        2
 70
   128
 43
0.0
 10
0.7721228920183343
 20
8.782596600054546
 10
0.7239154273761912
 20
8.782596600054546
  0
LWPOLYLINE
  5
12C
100
AcDbEntity
  8
USP-GEO
100
AcDbPolyline
 90
        2
 70
   129
 43
0.0
 10
3.200172194494306
 20
0.2257716260740388
 10
3.200172194494306
 20
0.0
  0
ENDBLK
  5
12E
100
AcDbEntity
  8
0
100
AcDbBlockEnd
  0
ENDSEC
  0
SECTION
  2
ENTITIES
  0
INSERT
  5
3
100
AcDbEntity
  8
USP
100
AcDbBlockReference
  2
THD210-2_T
 10
6.910700325721776
 20
12.90302911036225
 30
0.0
  0
INSERT
  5
3F
100
AcDbEntity
  8
USP
100
AcDbBlockReference
  2
THD210-2_F
 10
6.910700325721776
 20
1.209505103666266
 30
0.0
  0
INSERT
  5
ED
100
AcDbEntity
  8
USP
100
AcDbBlockReference
  2
THD210-2_S
 10
0.4308136200736277
 20
1.209505103666266
 30
0.0
  0
ENDSEC
  0
SECTION
  2
OBJECTS
  0
DICTIONARY
  5
147
102
{ACAD_XDICTIONARY
360
148
102
}
100
AcDbDictionary
  3
ACAD_GROUP
350
145
  3
ACAD_MLINESTYLE
350
146
  0
DICTIONARY
  5
9
100
AcDbDictionary
280
     1
  3
ACAD_XREC_ROUNDTRIP
360
A
  0
DICTIONARY
  5
E
100
AcDbDictionary
280
     1
  3
ACAD_XREC_ROUNDTRIP
360
F
  0
DICTIONARY
  5
12F
100
AcDbDictionary
280
     1
  3
ACAD_LAYOUTSELFREF
360
130
  0
DICTIONARY
  5
134
100
AcDbDictionary
280
     1
  3
ACAD_LAYOUTSELFREF
360
135
  0
DICTIONARY
  5
148
100
AcDbDictionary
280
     1
  3
ACAD_XREC_ROUNDTRIP
360
149
  0
DICTIONARY
  5
145
102
{ACAD_REACTORS
330
147
102
}
100
AcDbDictionary
  0
DICTIONARY
  5
146
102
{ACAD_REACTORS
330
147
102
}
100
AcDbDictionary
  3
STANDARD
350
14A
  0
XRECORD
  5
A
102
{ACAD_REACTORS
330
9
102
}
100
AcDbXrecord
102
EXTNAMES
  1
USP-GEO
  2
USP-Geo
  0
XRECORD
  5
F
102
{ACAD_REACTORS
330
E
102
}
100
AcDbXrecord
102
EXTNAMES
  1
USP-TXT
  2
USP-Txt
  0
XRECORD
  5
130
102
{ACAD_REACTORS
330
12F
102
}
100
AcDbXrecord
340
18
  0
XRECORD
  5
135
102
{ACAD_REACTORS
330
134
102
}
100
AcDbXrecord
340
15
  0
XRECORD
  5
149
102
{ACAD_REACTORS
330
148
102
}
100
AcDbXrecord
102
EXTNAMES
  1
ACDBVARIABLEDICTIONARY
  2
AcDbVariableDictionary
  0
MLINESTYLE
  5
14A
102
{ACAD_REACTORS
330
146
102
}
100
AcDbMlineStyle
  2
STANDARD
 70
     0
  3

 62
     0
 51
90.0
 52
90.0
 71
     2
 49
0.5
 62
   256
  6
BYLAYER
 49
-0.5
 62
   256
  6
BYLAYER
  0
ENDSEC
  0
EOF
