  0
SECTION
  2
HEADER
  9
$ACADVER
  1
AC1015
  9
$ACADMAINTVER
 70
     6
  9
$DWGCODEPAGE
  3
ANSI_1252
  9
$INSBASE
 10
0.0
 20
0.0
 30
0.0
  9
$EXTMIN
 10
0.0
 20
0.0
 30
0.0
  9
$EXTMAX
 10
4.0
 20
4.0
 30
0.0
  9
$LIMMIN
 10
0.0
 20
0.0
  9
$LIMMAX
 10
0.0
 20
0.0
  9
$ORTHOMODE
 70
     0
  9
$REGENMODE
 70
     1
  9
$FILLMODE
 70
     1
  9
$QTEXTMODE
 70
     0
  9
$MIRRTEXT
 70
     1
  9
$LTSCALE
 40
1.0
  9
$ATTMODE
 70
     1
  9
$TEXTSIZE
 40
0.125
  9
$TRACEWID
 40
0.05
  9
$TEXTSTYLE
  7
Standard
  9
$CLAYER
  8
0
  9
$CELTYPE
  6
ByLayer
  9
$CECOLOR
 62
   256
  9
$CELTSCALE
 40
1.0
  9
$DISPSILH
 70
     0
  9
$DIMSCALE
 40
1.0
  9
$DIMASZ
 40
0.156
  9
$DIMEXO
 40
0.05
  9
$DIMDLI
 40
0.38
  9
$DIMRND
 40
0.0
  9
$DIMDLE
 40
0.0
  9
$DIMEXE
 40
0.125
  9
$DIMTP
 40
0.0
  9
$DIMTM
 40
0.0
  9
$DIMTXT
 40
0.125
  9
$DIMCEN
 40
0.09
  9
$DIMTSZ
 40
0.0
  9
$DIMTOL
 70
     0
  9
$DIMLIM
 70
     0
  9
$DIMTIH
 70
     1
  9
$DIMTOH
 70
     1
  9
$DIMSE1
 70
     0
  9
$DIMSE2
 70
     0
  9
$DIMTAD
 70
     0
  9
$DIMZIN
 70
     0
  9
$DIMBLK
  1

  9
$DIMASO
 70
     1
  9
$DIMSHO
 70
     1
  9
$DIMPOST
  1

  9
$DIMAPOST
  1

  9
$DIMALT
 70
     0
  9
$DIMALTD
 70
     2
  9
$DIMALTF
 40
25.4
  9
$DIMLFAC
 40
8.0
  9
$DIMTOFL
 70
     0
  9
$DIMTVP
 40
0.0
  9
$DIMTIX
 70
     0
  9
$DIMSOXD
 70
     0
  9
$DIMSAH
 70
     0
  9
$DIMBLK1
  1

  9
$DIMBLK2
  1

  9
$DIMSTYLE
  2
Standard
  9
$DIMCLRD
 70
     0
  9
$DIMCLRE
 70
     0
  9
$DIMCLRT
 70
     0
  9
$DIMTFAC
 40
1.0
  9
$DIMGAP
 40
0.06
  9
$DIMJUST
 70
     0
  9
$DIMSD1
 70
     0
  9
$DIMSD2
 70
     0
  9
$DIMTOLJ
 70
     1
  9
$DIMTZIN
 70
     0
  9
$DIMALTZ
 70
     0
  9
$DIMALTTZ
 70
     0
  9
$DIMUPT
 70
     0
  9
$DIMDEC
 70
     4
  9
$DIMTDEC
 70
     4
  9
$DIMALTU
 70
     2
  9
$DIMALTTD
 70
     2
  9
$DIMTXSTY
  7
Standard
  9
$DIMAUNIT
 70
     0
  9
$DIMADEC
 70
     0
  9
$DIMALTRND
 40
0.0
  9
$DIMAZIN
 70
     0
  9
$DIMDSEP
 70
    46
  9
$DIMATFIT
 70
     3
  9
$DIMFRAC
 70
     0
  9
$DIMLDRBLK
  1

  9
$DIMLUNIT
 70
     2
  9
$DIMLWD
 70
    -2
  9
$DIMLWE
 70
    -2
  9
$DIMTMOVE
 70
     0
  9
$LUNITS
 70
     2
  9
$LUPREC
 70
     3
  9
$SKETCHINC
 40
0.1
  9
$FILLETRAD
 40
0.5
  9
$AUNITS
 70
     0
  9
$AUPREC
 70
     0
  9
$MENU
  1
.
  9
$ELEVATION
 40
0.0
  9
$PELEVATION
 40
0.0
  9
$THICKNESS
 40
0.0
  9
$LIMCHECK
 70
     0
  9
$CHAMFERA
 40
0.5
  9
$CHAMFERB
 40
0.5
  9
$CHAMFERC
 40
1.0
  9
$CHAMFERD
 40
0.0
  9
$SKPOLY
 70
     0
  9
$TDCREATE
 40
2454756.377031944
  9
$TDUCREATE
 40
2454756.585365278
  9
$TDUPDATE
 40
2454756.377031956
  9
$TDUUPDATE
 40
2454756.585365289
  9
$TDINDWG
 40
0.0000000116
  9
$TDUSRTIMER
 40
0.0000000116
  9
$USRTIMER
 70
     1
  9
$ANGBASE
 50
0.0
  9
$ANGDIR
 70
     0
  9
$PDMODE
 70
     0
  9
$PDSIZE
 40
-1.0
  9
$PLINEWID
 40
0.0
  9
$SPLFRAME
 70
     0
  9
$SPLINETYPE
 70
     6
  9
$SPLINESEGS
 70
     8
  9
$HANDSEED
  5
141
  9
$SURFTAB1
 70
     6
  9
$SURFTAB2
 70
     6
  9
$SURFTYPE
 70
     6
  9
$SURFU
 70
     6
  9
$SURFV
 70
     6
  9
$UCSBASE
  2

  9
$UCSNAME
  2

  9
$UCSORG
 10
0.0
 20
0.0
 30
0.0
  9
$UCSXDIR
 10
1.0
 20
0.0
 30
0.0
  9
$UCSYDIR
 10
0.0
 20
1.0
 30
0.0
  9
$UCSORTHOREF
  2

  9
$UCSORTHOVIEW
 70
     0
  9
$UCSORGTOP
 10
0.0
 20
0.0
 30
0.0
  9
$UCSORGBOTTOM
 10
0.0
 20
0.0
 30
0.0
  9
$UCSORGLEFT
 10
0.0
 20
0.0
 30
0.0
  9
$UCSORGRIGHT
 10
0.0
 20
0.0
 30
0.0
  9
$UCSORGFRONT
 10
0.0
 20
0.0
 30
0.0
  9
$UCSORGBACK
 10
0.0
 20
0.0
 30
0.0
  9
$PUCSBASE
  2

  9
$PUCSNAME
  2

  9
$PUCSORG
 10
0.0
 20
0.0
 30
0.0
  9
$PUCSXDIR
 10
1.0
 20
0.0
 30
0.0
  9
$PUCSYDIR
 10
0.0
 20
1.0
 30
0.0
  9
$PUCSORTHOREF
  2

  9
$PUCSORTHOVIEW
 70
     0
  9
$PUCSORGTOP
 10
0.0
 20
0.0
 30
0.0
  9
$PUCSORGBOTTOM
 10
0.0
 20
0.0
 30
0.0
  9
$PUCSORGLEFT
 10
0.0
 20
0.0
 30
0.0
  9
$PUCSORGRIGHT
 10
0.0
 20
0.0
 30
0.0
  9
$PUCSORGFRONT
 10
0.0
 20
0.0
 30
0.0
  9
$PUCSORGBACK
 10
0.0
 20
0.0
 30
0.0
  9
$USERI1
 70
     0
  9
$USERI2
 70
     0
  9
$USERI3
 70
     0
  9
$USERI4
 70
     0
  9
$USERI5
 70
     0
  9
$USERR1
 40
0.0
  9
$USERR2
 40
0.0
  9
$USERR3
 40
0.0
  9
$USERR4
 40
0.0
  9
$USERR5
 40
0.0
  9
$WORLDVIEW
 70
     1
  9
$SHADEDGE
 70
     3
  9
$SHADEDIF
 70
    70
  9
$TILEMODE
 70
     1
  9
$MAXACTVP
 70
    64
  9
$PINSBASE
 10
0.0
 20
0.0
 30
0.0
  9
$PLIMCHECK
 70
     0
  9
$PEXTMIN
 10
1.0000000000E+20
 20
1.0000000000E+20
 30
1.0000000000E+20
  9
$PEXTMAX
 10
-1.0000000000E+20
 20
-1.0000000000E+20
 30
-1.0000000000E+20
  9
$PLIMMIN
 10
0.0
 20
0.0
  9
$PLIMMAX
 10
12.0
 20
9.0
  9
$UNITMODE
 70
     0
  9
$VISRETAIN
 70
     1
  9
$PLINEGEN
 70
     0
  9
$PSLTSCALE
 70
     1
  9
$TREEDEPTH
 70
  3020
  9
$CMLSTYLE
  2
Standard
  9
$CMLJUST
 70
     0
  9
$CMLSCALE
 40
1.0
  9
$PROXYGRAPHICS
 70
     1
  9
$MEASUREMENT
 70
     0
  9
$CELWEIGHT
370
    -1
  9
$ENDCAPS
280
     0
  9
$JOINSTYLE
280
     0
  9
$LWDISPLAY
290
     1
  9
$INSUNITS
 70
     1
  9
$HYPERLINKBASE
  1

  9
$STYLESHEET
  1

  9
$XEDIT
290
     1
  9
$CEPSNTYPE
380
     0
  9
$PSTYLEMODE
290
     1
  9
$FINGERPRINTGUID
  2
{8179410B-BCC8-4DD0-A0DC-6FF67DC2F944}
  9
$VERSIONGUID
  2
{FAEB1C32-E019-11D5-929B-00C0DF256EC4}
  9
$EXTNAMES
290
     1
  9
$PSVPSCALE
 40
0.0
  9
$OLESTARTUP
290
     0
  0
ENDSEC
  0
SECTION
  2
CLASSES
  0
CLASS
  1
ACDBDICTIONARYWDFLT
  2
AcDbDictionaryWithDefault
  3
ObjectDBX Classes
 90
        0
280
     0
281
     0
  0
CLASS
  1
ACDBPLACEHOLDER
  2
AcDbPlaceHolder
  3
ObjectDBX Classes
 90
        0
280
     0
281
     0
  0
CLASS
  1
LAYOUT
  2
AcDbLayout
  3
ObjectDBX Classes
 90
        0
280
     0
281
     0
  0
ENDSEC
  0
SECTION
  2
TABLES
  0
TABLE
  2
VPORT
  5
8
330
0
100
AcDbSymbolTable
 70
     1
  0
VPORT
  5
29
330
8
100
AcDbSymbolTableRecord
100
AcDbViewportTableRecord
  2
*Active
 70
     0
 10
0.0
 20
0.0
 11
1.0
 21
1.0
 12
2.0
 22
2.0
 13
0.0
 23
0.0
 14
0.5
 24
0.5
 15
0.5
 25
0.5
 16
0.0
 26
0.0
 36
1.0
 17
0.0
 27
0.0
 37
0.0
 40
4.0
 41
1.0
 42
50.0
 43
0.0
 44
0.0
 50
0.0
 51
0.0
 71
     0
 72
  2000
 73
     1
 74
     3
 75
     0
 76
     0
 77
     0
 78
     0
281
     0
 65
     1
110
0.0
120
0.0
130
0.0
111
1.0
121
0.0
131
0.0
112
0.0
122
1.0
132
0.0
 79
     0
146
0.0
  0
ENDTAB
  0
TABLE
  2
LTYPE
  5
5
330
0
100
AcDbSymbolTable
 70
     6
  0
LTYPE
  5
14
330
5
100
AcDbSymbolTableRecord
100
AcDbLinetypeTableRecord
  2
ByBlock
 70
     0
  3

 72
    65
 73
     0
 40
0.0
  0
LTYPE
  5
15
330
5
100
AcDbSymbolTableRecord
100
AcDbLinetypeTableRecord
  2
ByLayer
 70
     0
  3

 72
    65
 73
     0
 40
0.0
  0
LTYPE
  5
16
330
5
100
AcDbSymbolTableRecord
100
AcDbLinetypeTableRecord
  2
Continuous
 70
     0
  3
Solid line
 72
    65
 73
     0
 40
0.0
  0
LTYPE
  5
2A
330
5
100
AcDbSymbolTableRecord
100
AcDbLinetypeTableRecord
  2
HIDDEN
 70
     0
  3
Hidden __ __ __ __ __ __ __ __ __ __ __ __ __ __
 72
    65
 73
     2
 40
0.075
 49
0.05
 74
     0
 49
-0.025
 74
     0
  0
LTYPE
  5
2B
330
5
100
AcDbSymbolTableRecord
100
AcDbLinetypeTableRecord
  2
PHANTOM
 70
     0
  3
Phantom ______  __  __  ______  __  __  ______
 72
    65
 73
     6
 40
0.5
 49
0.25
 74
     0
 49
-0.05
 74
     0
 49
0.05
 74
     0
 49
-0.05
 74
     0
 49
0.05
 74
     0
 49
-0.05
 74
     0
  0
LTYPE
  5
2C
330
5
100
AcDbSymbolTableRecord
100
AcDbLinetypeTableRecord
  2
CENTER
 70
     0
  3
Center ____ _ ____ _ ____ _ ____ _ ____ _ ____
 72
    65
 73
     4
 40
0.4
 49
0.25
 74
     0
 49
-0.05
 74
     0
 49
0.05
 74
     0
 49
-0.05
 74
     0
  0
LTYPE
  5
2D
330
5
100
AcDbSymbolTableRecord
100
AcDbLinetypeTableRecord
  2
CENTERX2
 70
     0
  3
Center (2x) ________  __  ________  __  _____
 72
    65
 73
     4
 40
0.8
 49
0.5
 74
     0
 49
-0.1
 74
     0
 49
0.1
 74
     0
 49
-0.1
 74
     0
  0
LTYPE
  5
2E
330
5
100
AcDbSymbolTableRecord
100
AcDbLinetypeTableRecord
  2
DOT2
 70
     0
  3
Dot (.5x) ........................................
 72
    65
 73
     2
 40
0.025
 49
0.0
 74
     0
 49
-0.025
 74
     0
  0
ENDTAB
  0
TABLE
  2
LAYER
  5
2
330
0
100
AcDbSymbolTable
 70
    16
  0
LAYER
  5
10
330
2
100
AcDbSymbolTableRecord
100
AcDbLayerTableRecord
  2
0
 70
     0
 62
     7
  6
Continuous
370
    -3
390
F
  0
LAYER
  5
2F
330
2
100
AcDbSymbolTableRecord
100
AcDbLayerTableRecord
  2
SLD-0
 70
     0
 62
   179
  6
Continuous
370
    -3
390
F
  0
LAYER
  5
30
330
2
100
AcDbSymbolTableRecord
100
AcDbLayerTableRecord
  2
SLD-DEFPOINTS
 70
     0
 62
   179
  6
Continuous
370
    -3
390
F
  0
LAYER
  5
31
330
2
100
AcDbSymbolTableRecord
100
AcDbLayerTableRecord
  2
OBJ
 70
     0
 62
   179
  6
Continuous
370
    -3
390
F
  0
LAYER
  5
32
330
2
100
AcDbSymbolTableRecord
100
AcDbLayerTableRecord
  2
FORMAT
 70
     0
 62
     7
  6
Continuous
370
    -3
390
F
  0
LAYER
  5
33
330
2
100
AcDbSymbolTableRecord
100
AcDbLayerTableRecord
  2
REV-1
 70
     0
 62
    -7
  6
Continuous
370
    -3
390
F
  0
LAYER
  5
34
330
2
100
AcDbSymbolTableRecord
100
AcDbLayerTableRecord
  2
REV-2
 70
     0
 62
    -7
  6
Continuous
370
    -3
390
F
  0
LAYER
  5
35
330
2
100
AcDbSymbolTableRecord
100
AcDbLayerTableRecord
  2
REV-3
 70
     0
 62
    -7
  6
Continuous
370
    -3
390
F
  0
LAYER
  5
36
330
2
100
AcDbSymbolTableRecord
100
AcDbLayerTableRecord
  2
PAINT
 70
     0
 62
    -7
  6
Continuous
370
    -3
390
F
  0
LAYER
  5
37
330
2
100
AcDbSymbolTableRecord
100
AcDbLayerTableRecord
  2
BLANK-SIZE-1
 70
     0
 62
    -7
  6
Continuous
370
    -3
390
F
  0
LAYER
  5
38
330
2
100
AcDbSymbolTableRecord
100
AcDbLayerTableRecord
  2
BLANK-SIZE-2
 70
     0
 62
    -7
  6
Continuous
370
    -3
390
F
  0
LAYER
  5
39
330
2
100
AcDbSymbolTableRecord
100
AcDbLayerTableRecord
  2
BLANK-SIZE-3
 70
     0
 62
    -7
  6
Continuous
370
    -3
390
F
  0
LAYER
  5
3A
330
2
100
AcDbSymbolTableRecord
100
AcDbLayerTableRecord
  2
BLANK-SIZE-4
 70
     0
 62
    -7
  6
Continuous
370
    -3
390
F
  0
LAYER
  5
3B
330
2
100
AcDbSymbolTableRecord
100
AcDbLayerTableRecord
  2
BLANK-SIZE-5
 70
     0
 62
    -7
  6
Continuous
370
    -3
390
F
  0
LAYER
  5
3C
330
2
100
AcDbSymbolTableRecord
100
AcDbLayerTableRecord
  2
HDG
 70
     0
 62
    -7
  6
Continuous
370
    -3
390
F
  0
LAYER
  5
3D
330
2
100
AcDbSymbolTableRecord
100
AcDbLayerTableRecord
  2
FAX-NOTE
 70
     0
 62
    -7
  6
Continuous
370
    -3
390
F
  0
ENDTAB
  0
TABLE
  2
STYLE
  5
3
330
0
100
AcDbSymbolTable
 70
     2
  0
STYLE
  5
11
330
3
100
AcDbSymbolTableRecord
100
AcDbTextStyleTableRecord
  2
Standard
 70
     0
 40
0.0
 41
1.0
 50
0.0
 71
     0
 42
0.2
  3
txt
  4

  0
STYLE
  5
3E
330
3
100
AcDbSymbolTableRecord
100
AcDbTextStyleTableRecord
  2
SLDTEXTSTYLE0
 70
     0
 40
0.0
 41
0.605
 50
0.0
 71
     0
 42
0.2
  3
TXT
  4

  0
ENDTAB
  0
TABLE
  2
VIEW
  5
6
330
0
100
AcDbSymbolTable
 70
     0
  0
ENDTAB
  0
TABLE
  2
UCS
  5
7
330
0
100
AcDbSymbolTable
 70
     0
  0
ENDTAB
  0
TABLE
  2
APPID
  5
9
330
0
100
AcDbSymbolTable
 70
     1
  0
APPID
  5
12
330
9
100
AcDbSymbolTableRecord
100
AcDbRegAppTableRecord
  2
ACAD
 70
     0
  0
ENDTAB
  0
TABLE
  2
DIMSTYLE
  5
A
330
0
100
AcDbSymbolTable
 70
     1
100
AcDbDimStyleTable
  0
DIMSTYLE
105
27
330
A
100
AcDbSymbolTableRecord
100
AcDbDimStyleTableRecord
  2
Standard
 70
     0
340
11
  0
ENDTAB
  0
TABLE
  2
BLOCK_RECORD
  5
1
330
0
100
AcDbSymbolTable
 70
     1
  0
BLOCK_RECORD
  5
1F
330
1
100
AcDbSymbolTableRecord
100
AcDbBlockTableRecord
  2
*Model_Space
340
22
  0
BLOCK_RECORD
  5
1B
330
1
100
AcDbSymbolTableRecord
100
AcDbBlockTableRecord
  2
*Paper_Space
340
1E
  0
BLOCK_RECORD
  5
23
330
1
100
AcDbSymbolTableRecord
100
AcDbBlockTableRecord
  2
*Paper_Space0
340
26
  0
ENDTAB
  0
ENDSEC
  0
SECTION
  2
BLOCKS
  0
BLOCK
  5
20
330
1F
100
AcDbEntity
  8
0
100
AcDbBlockBegin
  2
*Model_Space
 70
     0
 71
     0
 10
0.0
 20
0.0
 30
0.0
  3
*Model_Space
  1

  0
ENDBLK
  5
21
330
1F
100
AcDbEntity
  8
0
100
AcDbBlockEnd
  0
BLOCK
  5
1C
330
1B
100
AcDbEntity
 67
     1
  8
0
100
AcDbBlockBegin
  2
*Paper_Space
 70
     0
 71
     0
 10
0.0
 20
0.0
 30
0.0
  3
*Paper_Space
  1

  0
ENDBLK
  5
1D
330
1B
100
AcDbEntity
 67
     1
  8
0
100
AcDbBlockEnd
  0
BLOCK
  5
24
330
23
100
AcDbEntity
  8
0
100
AcDbBlockBegin
  2
*Paper_Space0
 70
     0
 71
     0
 10
0.0
 20
0.0
 30
0.0
  3
*Paper_Space0
  1

  0
ENDBLK
  5
25
330
23
100
AcDbEntity
  8
0
100
AcDbBlockEnd
  0
ENDSEC
  0
SECTION
  2
ENTITIES
  0
MTEXT
  5
3F
330
1F
100
AcDbEntity
  8
OBJ
100
AcDbMText
 10
2.4798449795
 20
3.2206623416
 30
0.0
 40
0.09375
 41
0.0
 71
     1
 72
     1
  1
TFL1714-TOP-VIEW
  7
SLDTEXTSTYLE0
 73
     1
 44
1.0
  0
MTEXT
  5
40
330
1F
100
AcDbEntity
  8
OBJ
100
AcDbMText
 10
2.3756017023
 20
0.366691025
 30
0.0
 40
0.09375
 41
0.0
 71
     1
 72
     1
  1
TFL1714-FRONT-VIEW
  7
SLDTEXTSTYLE0
 73
     1
 44
1.0
  0
MTEXT
  5
41
330
1F
100
AcDbEntity
  8
OBJ
100
AcDbMText
 10
0.5795179206
 20
0.366691025
 30
0.0
 40
0.09375
 41
0.0
 71
     1
 72
     1
  1
TFL1714-SIDE-VIEW
  7
SLDTEXTSTYLE0
 73
     1
 44
1.0
  0
ARC
  5
42
330
1F
100
AcDbEntity
  8
0
  6
Continuous
 62
     7
370
    15
100
AcDbCircle
 10
2.9394005845
 20
0.6581612444
 30
0.0
 40
0.0018750000001893
100
AcDbArc
 50
0.0
 51
69.5763846362
  0
ARC
  5
43
330
1F
100
AcDbEntity
  8
0
  6
Continuous
 62
     7
370
    15
100
AcDbCircle
 10
2.9394005845
 20
0.7031438799
 30
0.0
 40
0.0018750000001893
100
AcDbArc
 50
290.4236153638
 51
0.0
  0
ARC
  5
44
330
1F
100
AcDbEntity
  8
0
  6
Continuous
 62
     7
370
    15
100
AcDbCircle
 10
2.9477755845
 20
0.6806525621
 30
0.0
 40
0.0221249999999999
100
AcDbArc
 50
165.7071263881
 51
249.5763846362
  0
ARC
  5
45
330
1F
100
AcDbEntity
  8
0
  6
Continuous
 62
     7
370
    15
100
AcDbCircle
 10
2.9477755845
 20
0.6806525621
 30
0.0
 40
0.0221250000000004
100
AcDbArc
 50
110.4236153638
 51
113.652443472
  0
ARC
  5
46
330
1F
100
AcDbEntity
  8
0
  6
Continuous
 62
     7
370
    15
100
AcDbCircle
 10
3.1749005845
 20
0.7031438799
 30
0.0
 40
0.0018749999999999
100
AcDbArc
 50
180.0
 51
249.5763846362
  0
ARC
  5
47
330
1F
100
AcDbEntity
  8
0
  6
Continuous
 62
     7
370
    15
100
AcDbCircle
 10
3.1749005845
 20
0.6581612444
 30
0.0
 40
0.0018749999999999
100
AcDbArc
 50
110.4236153638
 51
180.0
  0
ARC
  5
48
330
1F
100
AcDbEntity
  8
0
  6
Continuous
 62
     7
370
    15
100
AcDbCircle
 10
3.1665255845
 20
0.6806525621
 30
0.0
 40
0.0221250000000004
100
AcDbArc
 50
290.4236153638
 51
0.0
  0
ARC
  5
49
330
1F
100
AcDbEntity
  8
0
  6
Continuous
 62
     7
370
    15
100
AcDbCircle
 10
3.1665255845
 20
0.6806525621
 30
0.0
 40
0.0221250000000002
100
AcDbArc
 50
66.347556528
 51
69.5763846362
  0
ARC
  5
4A
330
1F
100
AcDbEntity
  8
0
  6
Continuous
 62
     7
370
    15
100
AcDbCircle
 10
3.1665255845
 20
0.6806525621
 30
0.0
 40
0.0221250000000004
100
AcDbArc
 50
0.0
 51
14.2928736119
  0
SPLINE
  5
4B
330
1F
100
AcDbEntity
  8
0
  6
Continuous
 62
     7
370
    15
100
AcDbSpline
210
0.0
220
0.0
230
1.0
 70
    24
 71
     3
 72
     8
 73
     4
 74
     0
 42
0.00000001
 43
0.00000001
 40
0.0
 40
0.0
 40
0.0
 40
0.0
 40
1.0
 40
1.0
 40
1.0
 40
1.0
 10
3.166525584457096
 20
0.8304025621478753
 30
0.0
 10
3.168692251123762
 20
0.8304025621478753
 30
0.0
 10
3.170858917790429
 20
0.8304025621478753
 30
0.0
 10
3.173025584457096
 20
0.8304025621478753
 30
0.0
  0
SPLINE
  5
4C
330
1F
100
AcDbEntity
  8
0
  6
Continuous
 62
     7
370
    15
100
AcDbSpline
210
0.0
220
0.0
230
1.0
 70
    24
 71
     3
 72
    14
 73
    10
 74
     0
 42
0.00000001
 43
0.00000001
 40
0.0
 40
0.0
 40
0.0
 40
0.0
 40
0.25
 40
0.25
 40
0.5
 40
0.5
 40
0.75
 40
0.75
 40
1.0
 40
1.0
 40
1.0
 40
1.0
 10
3.173025584457096
 20
0.8304025621478753
 30
0.0
 10
3.173025584457096
 20
0.8304025621478752
 30
0.0
 10
3.173025584457096
 20
0.8300669568539143
 30
0.0
 10
3.173025584457096
 20
0.828544051850037
 30
0.0
 10
3.173025584457096
 20
0.8273515911185685
 30
0.0
 10
3.173025584457096
 20
0.8243006200892619
 30
0.0
 10
3.173025584457096
 20
0.8224524318345278
 30
0.0
 10
3.173025584457096
 20
0.8186056521350314
 30
0.0
 10
3.173025584457096
 20
0.8166189860572153
 30
0.0
 10
3.173025584457096
 20
0.8147775621478752
 30
0.0
  0
SPLINE
  5
4D
330
1F
100
AcDbEntity
  8
0
  6
Continuous
 62
     7
370
    15
100
AcDbSpline
210
0.0
220
0.0
230
1.0
 70
    24
 71
     3
 72
    14
 73
    10
 74
     0
 42
0.00000001
 43
0.00000001
 40
0.0
 40
0.0
 40
0.0
 40
0.0
 40
0.25
 40
0.25
 40
0.5
 40
0.5
 40
0.75
 40
0.75
 40
1.0
 40
1.0
 40
1.0
 40
1.0
 10
3.166525584457096
 20
0.8147775621478752
 30
0.0
 10
3.166525584457096
 20
0.8166189860572153
 30
0.0
 10
3.166525584457096
 20
0.8186056521350314
 30
0.0
 10
3.166525584457096
 20
0.8224524318345278
 30
0.0
 10
3.166525584457096
 20
0.8243006200892619
 30
0.0
 10
3.166525584457096
 20
0.8273515911185685
 30
0.0
 10
3.166525584457096
 20
0.828544051850037
 30
0.0
 10
3.166525584457096
 20
0.8300669568539145
 30
0.0
 10
3.166525584457096
 20
0.8304025621478752
 30
0.0
 10
3.166525584457096
 20
0.8304025621478753
 30
0.0
  0
SPLINE
  5
4E
330
1F
100
AcDbEntity
  8
0
  6
Continuous
 62
     7
370
    15
100
AcDbSpline
210
0.0
220
0.0
230
1.0
 70
    24
 71
     3
 72
     8
 73
     4
 74
     0
 42
0.00000001
 43
0.00000001
 40
0.0
 40
0.0
 40
0.0
 40
0.0
 40
1.0
 40
1.0
 40
1.0
 40
1.0
 10
2.941275584457095
 20
0.8304025621478753
 30
0.0
 10
2.943442251123762
 20
0.8304025621478753
 30
0.0
 10
2.945608917790429
 20
0.8304025621478753
 30
0.0
 10
2.947775584457095
 20
0.8304025621478753
 30
0.0
  0
SPLINE
  5
4F
330
1F
100
AcDbEntity
  8
0
  6
Continuous
 62
     7
370
    15
100
AcDbSpline
210
0.0
220
0.0
230
1.0
 70
    24
 71
     3
 72
    14
 73
    10
 74
     0
 42
0.00000001
 43
0.00000001
 40
0.0
 40
0.0
 40
0.0
 40
0.0
 40
0.25
 40
0.25
 40
0.5
 40
0.5
 40
0.75
 40
0.75
 40
1.0
 40
1.0
 40
1.0
 40
1.0
 10
2.941275584457096
 20
0.8147775621478754
 30
0.0
 10
2.941275584457096
 20
0.8166189860572154
 30
0.0
 10
2.941275584457096
 20
0.8186056521350314
 30
0.0
 10
2.941275584457095
 20
0.8224524318345279
 30
0.0
 10
2.941275584457095
 20
0.8243006200892616
 30
0.0
 10
2.941275584457095
 20
0.8273515911185686
 30
0.0
 10
2.941275584457095
 20
0.8285440518500372
 30
0.0
 10
2.941275584457095
 20
0.8300669568539145
 30
0.0
 10
2.941275584457095
 20
0.8304025621478753
 30
0.0
 10
2.941275584457095
 20
0.8304025621478752
 30
0.0
  0
SPLINE
  5
50
330
1F
100
AcDbEntity
  8
0
  6
Continuous
 62
     7
370
    15
100
AcDbSpline
210
0.0
220
0.0
230
1.0
 70
    24
 71
     3
 72
    14
 73
    10
 74
     0
 42
0.00000001
 43
0.00000001
 40
0.0
 40
0.0
 40
0.0
 40
0.0
 40
0.25
 40
0.25
 40
0.5
 40
0.5
 40
0.75
 40
0.75
 40
1.0
 40
1.0
 40
1.0
 40
1.0
 10
2.947775584457095
 20
0.8304025621478754
 30
0.0
 10
2.947775584457095
 20
0.8304025621478753
 30
0.0
 10
2.947775584457095
 20
0.8300669568539145
 30
0.0
 10
2.947775584457095
 20
0.8285440518500372
 30
0.0
 10
2.947775584457095
 20
0.8273515911185685
 30
0.0
 10
2.947775584457095
 20
0.8243006200892616
 30
0.0
 10
2.947775584457095
 20
0.8224524318345278
 30
0.0
 10
2.947775584457095
 20
0.8186056521350314
 30
0.0
 10
2.947775584457095
 20
0.8166189860572154
 30
0.0
 10
2.947775584457095
 20
0.8147775621478756
 30
0.0
  0
ARC
  5
51
330
1F
100
AcDbEntity
  8
0
  6
Continuous
 62
     7
370
    15
100
AcDbCircle
 10
2.9534005845
 20
0.5456525621
 30
0.0
 40
0.0121250000000001
100
AcDbArc
 50
180.0
 51
270.0
  0
ARC
  5
52
330
1F
100
AcDbEntity
  8
0
  6
Continuous
 62
     7
370
    15
100
AcDbCircle
 10
2.9534005845
 20
0.5456525621
 30
0.0
 40
0.0056250000000002
100
AcDbArc
 50
180.0
 51
270.0
  0
LINE
  5
53
330
1F
100
AcDbEntity
  8
0
  6
Continuous
 62
     7
370
    15
100
AcDbLine
 10
2.9412755845
 20
0.8147775621
 30
0.0
 11
2.9412755845
 21
0.5456525621
 31
0.0
  0
LINE
  5
54
330
1F
100
AcDbEntity
  8
0
  6
Continuous
 62
     7
370
    15
100
AcDbLine
 10
2.9477755845
 20
0.8147775621
 30
0.0
 11
2.9477755845
 21
0.5456525621
 31
0.0
  0
ARC
  5
55
330
1F
100
AcDbEntity
  8
0
  6
Continuous
 62
     7
370
    15
100
AcDbCircle
 10
3.1609005845
 20
0.5456525621
 30
0.0
 40
0.0121250000000001
100
AcDbArc
 50
270.0
 51
0.0
  0
ARC
  5
56
330
1F
100
AcDbEntity
  8
0
  6
Continuous
 62
     7
370
    15
100
AcDbCircle
 10
3.1609005845
 20
0.5456525621
 30
0.0
 40
0.005625
100
AcDbArc
 50
270.0
 51
0.0
  0
LINE
  5
57
330
1F
100
AcDbEntity
  8
0
  6
Continuous
 62
     7
370
    15
100
AcDbLine
 10
2.9534005845
 20
0.5400275621
 30
0.0
 11
3.1609005845
 21
0.5400275621
 31
0.0
  0
LINE
  5
58
330
1F
100
AcDbEntity
  8
0
  6
Continuous
 62
     7
370
    15
100
AcDbLine
 10
2.9534005845
 20
0.5335275621
 30
0.0
 11
3.1609005845
 21
0.5335275621
 31
0.0
  0
LINE
  5
59
330
1F
100
AcDbEntity
  8
0
  6
Continuous
 62
     7
370
    15
100
AcDbLine
 10
3.1665255845
 20
0.5456525621
 30
0.0
 11
3.1665255845
 21
0.8147775621
 31
0.0
  0
LINE
  5
5A
330
1F
100
AcDbEntity
  8
0
  6
Continuous
 62
     7
370
    15
100
AcDbLine
 10
3.1730255845
 20
0.5456525621
 30
0.0
 11
3.1730255845
 21
0.8147775621
 31
0.0
  0
SPLINE
  5
5B
330
1F
100
AcDbEntity
  8
0
  6
Continuous
 62
     7
370
    15
100
AcDbSpline
210
0.0
220
0.0
230
1.0
 70
    24
 71
     3
 72
    14
 73
    10
 74
     0
 42
0.00000001
 43
0.00000001
 40
0.0
 40
0.0
 40
0.0
 40
0.0
 40
0.25
 40
0.25
 40
0.5
 40
0.5
 40
0.75
 40
0.75
 40
1.0
 40
1.0
 40
1.0
 40
1.0
 10
2.941275584457095
 20
0.8304025621478752
 30
0.0
 10
2.941275584457095
 20
0.8304025621478752
 30
0.0
 10
2.941275584457095
 20
0.83067450010643
 30
0.0
 10
2.941275584457095
 20
0.8318718919514991
 30
0.0
 10
2.941275584457095
 20
0.8327997218246456
 30
0.0
 10
2.941275584457095
 20
0.8351968815014164
 30
0.0
 10
2.941275584457095
 20
0.8366614593317752
 30
0.0
 10
2.941275584457095
 20
0.839815074823583
 30
0.0
 10
2.941275584457095
 20
0.8414974075061399
 30
0.0
 10
2.941275584457095
 20
0.8431305643479093
 30
0.0
  0
SPLINE
  5
5C
330
1F
100
AcDbEntity
  8
0
  6
Continuous
 62
     7
370
    15
100
AcDbSpline
210
0.0
220
0.0
230
1.0
 70
    24
 71
     3
 72
    14
 73
    10
 74
     0
 42
0.00000001
 43
0.00000001
 40
0.0
 40
0.0
 40
0.0
 40
0.0
 40
0.25
 40
0.25
 40
0.5
 40
0.5
 40
0.75
 40
0.75
 40
1.0
 40
1.0
 40
1.0
 40
1.0
 10
2.947775584457095
 20
0.8431305643479093
 30
0.0
 10
2.947775584457096
 20
0.8414974075061399
 30
0.0
 10
2.947775584457095
 20
0.839815074823583
 30
0.0
 10
2.947775584457096
 20
0.836661459331775
 30
0.0
 10
2.947775584457096
 20
0.8351968815014164
 30
0.0
 10
2.947775584457095
 20
0.8327997218246458
 30
0.0
 10
2.947775584457095
 20
0.8318718919514991
 30
0.0
 10
2.947775584457095
 20
0.8306745001064301
 30
0.0
 10
2.947775584457095
 20
0.8304025621478753
 30
0.0
 10
2.947775584457095
 20
0.8304025621478753
 30
0.0
  0
SPLINE
  5
5D
330
1F
100
AcDbEntity
  8
0
  6
Continuous
 62
     7
370
    15
100
AcDbSpline
210
0.0
220
0.0
230
1.0
 70
    24
 71
     3
 72
    14
 73
    10
 74
     0
 42
0.00000001
 43
0.00000001
 40
0.0
 40
0.0
 40
0.0
 40
0.0
 40
0.25
 40
0.25
 40
0.5
 40
0.5
 40
0.75
 40
0.75
 40
1.0
 40
1.0
 40
1.0
 40
1.0
 10
3.166525584457095
 20
0.8304025621478752
 30
0.0
 10
3.166525584457096
 20
0.8304025621478752
 30
0.0
 10
3.166525584457095
 20
0.83067450010643
 30
0.0
 10
3.166525584457096
 20
0.8318718919514991
 30
0.0
 10
3.166525584457095
 20
0.8327997218246459
 30
0.0
 10
3.166525584457096
 20
0.8351968815014164
 30
0.0
 10
3.166525584457095
 20
0.836661459331775
 30
0.0
 10
3.166525584457096
 20
0.8398150748235829
 30
0.0
 10
3.166525584457095
 20
0.8414974075061397
 30
0.0
 10
3.166525584457096
 20
0.8431305643479091
 30
0.0
  0
SPLINE
  5
5E
330
1F
100
AcDbEntity
  8
0
  6
Continuous
 62
     7
370
    15
100
AcDbSpline
210
0.0
220
0.0
230
1.0
 70
    24
 71
     3
 72
    14
 73
    10
 74
     0
 42
0.00000001
 43
0.00000001
 40
0.0
 40
0.0
 40
0.0
 40
0.0
 40
0.25
 40
0.25
 40
0.5
 40
0.5
 40
0.75
 40
0.75
 40
1.0
 40
1.0
 40
1.0
 40
1.0
 10
3.173025584457095
 20
0.8431305643479093
 30
0.0
 10
3.173025584457095
 20
0.8414974075061398
 30
0.0
 10
3.173025584457095
 20
0.839815074823583
 30
0.0
 10
3.173025584457095
 20
0.836661459331775
 30
0.0
 10
3.173025584457095
 20
0.8351968815014164
 30
0.0
 10
3.173025584457095
 20
0.8327997218246459
 30
0.0
 10
3.173025584457095
 20
0.8318718919514991
 30
0.0
 10
3.173025584457095
 20
0.8306745001064301
 30
0.0
 10
3.173025584457095
 20
0.8304025621478753
 30
0.0
 10
3.173025584457095
 20
0.8304025621478753
 30
0.0
  0
LINE
  5
5F
330
1F
100
AcDbEntity
  8
0
  6
Continuous
 62
     7
370
    15
100
AcDbLine
 10
2.9263354319
 20
0.6861147486
 30
0.0
 11
2.9388993083
 21
0.7009189715
 31
0.0
  0
LINE
  5
60
330
1F
100
AcDbEntity
  8
0
  6
Continuous
 62
     7
370
    15
100
AcDbLine
 10
3.1665255845
 20
1.2358500714
 30
0.0
 11
3.1665255845
 21
0.8431305643
 31
0.0
  0
LINE
  5
61
330
1F
100
AcDbEntity
  8
0
  6
Continuous
 62
     7
370
    15
100
AcDbLine
 10
3.1730255845
 20
0.8431305643
 30
0.0
 11
3.1730255845
 21
1.2358500714
 31
0.0
  0
LINE
  5
62
330
1F
100
AcDbEntity
  8
0
  6
Continuous
 62
     7
370
    15
100
AcDbLine
 10
2.9412755845
 20
0.8431305643
 30
0.0
 11
2.9412755845
 21
1.2358500714
 31
0.0
  0
LINE
  5
63
330
1F
100
AcDbEntity
  8
0
  6
Continuous
 62
     7
370
    15
100
AcDbLine
 10
2.9477755845
 20
0.8431305643
 30
0.0
 11
2.9477755845
 21
1.2358500714
 31
0.0
  0
LINE
  5
64
330
1F
100
AcDbEntity
  8
0
  6
Continuous
 62
     7
370
    15
100
AcDbLine
 10
3.1754018606
 20
0.7009189715
 30
0.0
 11
3.1879657371
 21
0.6861147486
 31
0.0
  0
SPLINE
  5
65
330
1F
100
AcDbEntity
  8
0
  6
Continuous
 62
     7
370
    15
100
AcDbSpline
210
0.0
220
0.0
230
1.0
 70
    24
 71
     3
 72
    14
 73
    10
 74
     0
 42
0.00000001
 43
0.00000001
 40
0.0
 40
0.0
 40
0.0
 40
0.0
 40
0.25
 40
0.25
 40
0.5
 40
0.5
 40
0.75
 40
0.75
 40
1.0
 40
1.0
 40
1.0
 40
1.0
 10
3.166525584457096
 20
2.062919061820973
 30
0.0
 10
3.166525584457096
 20
2.066650976062467
 30
0.0
 10
3.166525584457096
 20
2.070445861553857
 30
0.0
 10
3.166525584457096
 20
2.077974282599907
 30
0.0
 10
3.166525584457096
 20
2.081706746555513
 30
0.0
 10
3.166525584457096
 20
2.088914347984356
 30
0.0
 10
3.166525584457096
 20
2.092388441687708
 30
0.0
 10
3.166525584457096
 20
2.098909322735413
 30
0.0
 10
3.166525584457096
 20
2.101955447537379
 30
0.0
 10
3.166525584457096
 20
2.104729357547377
 30
0.0
  0
SPLINE
  5
66
330
1F
100
AcDbEntity
  8
0
  6
Continuous
 62
     7
370
    15
100
AcDbSpline
210
0.0
220
0.0
230
1.0
 70
    24
 71
     3
 72
    14
 73
    10
 74
     0
 42
0.00000001
 43
0.00000001
 40
0.0
 40
0.0
 40
0.0
 40
0.0
 40
0.2499999999999998
 40
0.2499999999999998
 40
0.4999999999999996
 40
0.4999999999999996
 40
0.7499999999999998
 40
0.7499999999999998
 40
1.0
 40
1.0
 40
1.0
 40
1.0
 10
3.173025584457096
 20
2.104729357547377
 30
0.0
 10
3.173025584457096
 20
2.101955447537379
 30
0.0
 10
3.173025584457096
 20
2.098909322735413
 30
0.0
 10
3.173025584457096
 20
2.092388441687709
 30
0.0
 10
3.173025584457096
 20
2.088914347984356
 30
0.0
 10
3.173025584457096
 20
2.081706746555514
 30
0.0
 10
3.173025584457096
 20
2.077974282599907
 30
0.0
 10
3.173025584457096
 20
2.070445861553858
 30
0.0
 10
3.173025584457096
 20
2.066650976062468
 30
0.0
 10
3.173025584457096
 20
2.062919061820975
 30
0.0
  0
SPLINE
  5
67
330
1F
100
AcDbEntity
  8
0
  6
Continuous
 62
     7
370
    15
100
AcDbSpline
210
0.0
220
0.0
230
1.0
 70
    24
 71
     3
 72
    14
 73
    10
 74
     0
 42
0.00000001
 43
0.00000001
 40
0.0
 40
0.0
 40
0.0
 40
0.0
 40
0.25
 40
0.25
 40
0.5
 40
0.5
 40
0.75
 40
0.75
 40
1.0
 40
1.0
 40
1.0
 40
1.0
 10
2.941275584457095
 20
2.062919061820975
 30
0.0
 10
2.941275584457095
 20
2.066650976062468
 30
0.0
 10
2.941275584457095
 20
2.070445861553858
 30
0.0
 10
2.941275584457095
 20
2.077974282599909
 30
0.0
 10
2.941275584457095
 20
2.081706746555513
 30
0.0
 10
2.941275584457095
 20
2.088914347984356
 30
0.0
 10
2.941275584457095
 20
2.092388441687708
 30
0.0
 10
2.941275584457095
 20
2.098909322735413
 30
0.0
 10
2.941275584457095
 20
2.101955447537379
 30
0.0
 10
2.941275584457095
 20
2.104729357547377
 30
0.0
  0
SPLINE
  5
68
330
1F
100
AcDbEntity
  8
0
  6
Continuous
 62
     7
370
    15
100
AcDbSpline
210
0.0
220
0.0
230
1.0
 70
    24
 71
     3
 72
    14
 73
    10
 74
     0
 42
0.00000001
 43
0.00000001
 40
0.0
 40
0.0
 40
0.0
 40
0.0
 40
0.2499999999999998
 40
0.2499999999999998
 40
0.4999999999999996
 40
0.4999999999999996
 40
0.7499999999999998
 40
0.7499999999999998
 40
1.0
 40
1.0
 40
1.0
 40
1.0
 10
2.947775584457095
 20
2.104729357547379
 30
0.0
 10
2.947775584457095
 20
2.101955447537379
 30
0.0
 10
2.947775584457095
 20
2.098909322735413
 30
0.0
 10
2.947775584457095
 20
2.092388441687709
 30
0.0
 10
2.947775584457095
 20
2.088914347984357
 30
0.0
 10
2.947775584457095
 20
2.081706746555513
 30
0.0
 10
2.947775584457095
 20
2.077974282599908
 30
0.0
 10
2.947775584457095
 20
2.070445861553858
 30
0.0
 10
2.947775584457095
 20
2.066650976062468
 30
0.0
 10
2.947775584457095
 20
2.062919061820975
 30
0.0
  0
SPLINE
  5
69
330
1F
100
AcDbEntity
  8
0
  6
Continuous
 62
     7
370
    15
100
AcDbSpline
210
0.0
220
0.0
230
1.0
 70
    24
 71
     3
 72
     8
 73
     4
 74
     0
 42
0.00000001
 43
0.00000001
 40
0.0
 40
0.0
 40
0.0
 40
0.0
 40
1.0
 40
1.0
 40
1.0
 40
1.0
 10
2.941275584457095
 20
1.235850071354147
 30
0.0
 10
2.941275584457095
 20
1.241568449411275
 30
0.0
 10
2.941275584457095
 20
1.247412783497895
 30
0.0
 10
2.941275584457095
 20
1.253232058153943
 30
0.0
  0
SPLINE
  5
6A
330
1F
100
AcDbEntity
  8
0
  6
Continuous
 62
     7
370
    15
100
AcDbSpline
210
0.0
220
0.0
230
1.0
 70
    24
 71
     3
 72
     8
 73
     4
 74
     0
 42
0.00000001
 43
0.00000001
 40
0.0
 40
0.0
 40
0.0
 40
0.0
 40
1.0
 40
1.0
 40
1.0
 40
1.0
 10
2.947775584457095
 20
1.253232058153943
 30
0.0
 10
2.947775584457095
 20
1.247412783497895
 30
0.0
 10
2.947775584457095
 20
1.241568449411275
 30
0.0
 10
2.947775584457095
 20
1.235850071354147
 30
0.0
  0
SPLINE
  5
6B
330
1F
100
AcDbEntity
  8
0
  6
Continuous
 62
     7
370
    15
100
AcDbSpline
210
0.0
220
0.0
230
1.0
 70
    24
 71
     3
 72
     8
 73
     4
 74
     0
 42
0.00000001
 43
0.00000001
 40
0.0
 40
0.0
 40
0.0
 40
0.0
 40
1.0
 40
1.0
 40
1.0
 40
1.0
 10
3.166525584457096
 20
1.235850071354147
 30
0.0
 10
3.166525584457096
 20
1.241568449411275
 30
0.0
 10
3.166525584457096
 20
1.247412783497895
 30
0.0
 10
3.166525584457096
 20
1.253232058153943
 30
0.0
  0
SPLINE
  5
6C
330
1F
100
AcDbEntity
  8
0
  6
Continuous
 62
     7
370
    15
100
AcDbSpline
210
0.0
220
0.0
230
1.0
 70
    24
 71
     3
 72
     8
 73
     4
 74
     0
 42
0.00000001
 43
0.00000001
 40
0.0
 40
0.0
 40
0.0
 40
0.0
 40
1.0
 40
1.0
 40
1.0
 40
1.0
 10
3.173025584457096
 20
1.253232058153943
 30
0.0
 10
3.173025584457096
 20
1.247412783497895
 30
0.0
 10
3.173025584457096
 20
1.241568449411275
 30
0.0
 10
3.173025584457096
 20
1.235850071354147
 30
0.0
  0
LINE
  5
6D
330
1F
100
AcDbEntity
  8
0
  6
Continuous
 62
     7
370
    15
100
AcDbLine
 10
3.1665255845
 20
2.0629190618
 30
0.0
 11
3.1665255845
 21
1.2532320582
 31
0.0
  0
LINE
  5
6E
330
1F
100
AcDbEntity
  8
0
  6
Continuous
 62
     7
370
    15
100
AcDbLine
 10
3.1730255845
 20
1.2532320582
 30
0.0
 11
3.1730255845
 21
2.0629190618
 31
0.0
  0
LINE
  5
6F
330
1F
100
AcDbEntity
  8
0
  6
Continuous
 62
     7
370
    15
100
AcDbLine
 10
2.9412755845
 20
1.2532320582
 30
0.0
 11
2.9412755845
 21
2.0629190618
 31
0.0
  0
LINE
  5
70
330
1F
100
AcDbEntity
  8
0
  6
Continuous
 62
     7
370
    15
100
AcDbLine
 10
2.9477755845
 20
1.2532320582
 30
0.0
 11
2.9477755845
 21
2.0629190618
 31
0.0
  0
ARC
  5
71
330
1F
100
AcDbEntity
  8
0
  6
Continuous
 62
     7
370
    15
100
AcDbCircle
 10
2.9550255845
 20
0.6181525621
 30
0.0
 40
0.00725
100
AcDbArc
 50
180.0
 51
225.0
  0
LINE
  5
72
330
1F
100
AcDbEntity
  8
0
  6
Continuous
 62
     7
370
    15
100
AcDbLine
 10
2.9498990603
 20
0.613026038
 30
0.0
 11
2.9477755845
 21
0.6109025621
 31
0.0
  0
LINE
  5
73
330
1F
100
AcDbEntity
  8
0
  6
Continuous
 62
     7
370
    15
100
AcDbLine
 10
3.1644021086
 20
0.613026038
 30
0.0
 11
3.1665255845
 21
0.6109025621
 31
0.0
  0
ARC
  5
74
330
1F
100
AcDbEntity
  8
0
  6
Continuous
 62
     7
370
    15
100
AcDbCircle
 10
3.1592755845
 20
0.6181525621
 30
0.0
 40
0.0072500000003339
100
AcDbArc
 50
315.0
 51
0.0
  0
LINE
  5
75
330
1F
100
AcDbEntity
  8
0
  6
Continuous
 62
     7
370
    15
100
AcDbLine
 10
2.9412755845
 20
2.1047293575
 30
0.0
 11
2.9412755845
 21
2.23280771
 31
0.0
  0
LINE
  5
76
330
1F
100
AcDbEntity
  8
0
  6
Continuous
 62
     7
370
    15
100
AcDbLine
 10
2.9477755845
 20
2.1047293575
 30
0.0
 11
2.9477755845
 21
2.23280771
 31
0.0
  0
LINE
  5
77
330
1F
100
AcDbEntity
  8
0
  6
Continuous
 62
     7
370
    15
100
AcDbLine
 10
3.1665255845
 20
2.23280771
 30
0.0
 11
3.1665255845
 21
2.1047293575
 31
0.0
  0
LINE
  5
78
330
1F
100
AcDbEntity
  8
0
  6
Continuous
 62
     7
370
    15
100
AcDbLine
 10
3.1730255845
 20
2.1047293575
 30
0.0
 11
3.1730255845
 21
2.23280771
 31
0.0
  0
LINE
  5
79
330
1F
100
AcDbEntity
  8
0
  6
Continuous
 62
     7
370
    15
100
AcDbLine
 10
2.9636138421
 20
0.5993112562
 30
0.0
 11
2.959017648
 21
0.5947150621
 31
0.0
  0
LINE
  5
7A
330
1F
100
AcDbEntity
  8
0
  6
Continuous
 62
     7
370
    15
100
AcDbLine
 10
2.959017648
 20
0.5947150621
 30
0.0
 11
2.9477755845
 21
0.6059571257
 31
0.0
  0
LINE
  5
7B
330
1F
100
AcDbEntity
  8
0
  6
Continuous
 62
     7
370
    15
100
AcDbLine
 10
2.9636138421
 20
0.5993112562
 30
0.0
 11
2.9498990603
 21
0.613026038
 31
0.0
  0
LINE
  5
7C
330
1F
100
AcDbEntity
  8
0
  6
Continuous
 62
     7
370
    15
100
AcDbLine
 10
3.1506873269
 20
0.5993112562
 30
0.0
 11
3.1552835209
 21
0.5947150621
 31
0.0
  0
LINE
  5
7D
330
1F
100
AcDbEntity
  8
0
  6
Continuous
 62
     7
370
    15
100
AcDbLine
 10
3.1644021086
 20
0.613026038
 30
0.0
 11
3.1506873269
 21
0.5993112562
 31
0.0
  0
LINE
  5
7E
330
1F
100
AcDbEntity
  8
0
  6
Continuous
 62
     7
370
    15
100
AcDbLine
 10
3.1665255845
 20
0.6059571257
 30
0.0
 11
3.1552835209
 21
0.5947150621
 31
0.0
  0
LINE
  5
7F
330
1F
100
AcDbEntity
  8
0
  6
Continuous
 62
     7
370
    15
100
AcDbLine
 10
2.9412755845
 20
2.2429060314
 30
0.0
 11
2.9477755845
 21
2.2429060314
 31
0.0
  0
SPLINE
  5
80
330
1F
100
AcDbEntity
  8
0
  6
Continuous
 62
     7
370
    15
100
AcDbSpline
210
0.0
220
0.0
230
1.0
 70
    24
 71
     3
 72
    10
 73
     6
 74
     0
 42
0.00000001
 43
0.00000001
 40
0.0
 40
0.0
 40
0.0
 40
0.0
 40
0.5
 40
0.5
 40
1.0
 40
1.0
 40
1.0
 40
1.0
 10
2.941275584457096
 20
2.232807710011077
 30
0.0
 10
2.941275584457096
 20
2.235476910416729
 30
0.0
 10
2.941275584457095
 20
2.237820771196335
 30
0.0
 10
2.941275584457095
 20
2.24130932408066
 30
0.0
 10
2.941275584457095
 20
2.242445546107052
 30
0.0
 10
2.941275584457095
 20
2.242906031388701
 30
0.0
  0
SPLINE
  5
81
330
1F
100
AcDbEntity
  8
0
  6
Continuous
 62
     7
370
    15
100
AcDbSpline
210
0.0
220
0.0
230
1.0
 70
    24
 71
     3
 72
    10
 73
     6
 74
     0
 42
0.00000001
 43
0.00000001
 40
0.0
 40
0.0
 40
0.0
 40
0.0
 40
0.5000000000000001
 40
0.5000000000000001
 40
1.0
 40
1.0
 40
1.0
 40
1.0
 10
2.947775584457095
 20
2.242906031388695
 30
0.0
 10
2.947775584457095
 20
2.242445546107042
 30
0.0
 10
2.947775584457095
 20
2.24130932408065
 30
0.0
 10
2.947775584457095
 20
2.237820771196326
 30
0.0
 10
2.947775584457095
 20
2.235476910416724
 30
0.0
 10
2.947775584457096
 20
2.232807710011078
 30
0.0
  0
LINE
  5
82
330
1F
100
AcDbEntity
  8
0
  6
Continuous
 62
     7
370
    15
100
AcDbLine
 10
3.1730255845
 20
2.2429060314
 30
0.0
 11
3.1665255845
 21
2.2429060314
 31
0.0
  0
SPLINE
  5
83
330
1F
100
AcDbEntity
  8
0
  6
Continuous
 62
     7
370
    15
100
AcDbSpline
210
0.0
220
0.0
230
1.0
 70
    24
 71
     3
 72
    10
 73
     6
 74
     0
 42
0.00000001
 43
0.00000001
 40
0.0
 40
0.0
 40
0.0
 40
0.0
 40
0.5000000000000002
 40
0.5000000000000002
 40
1.0
 40
1.0
 40
1.0
 40
1.0
 10
3.166525584457096
 20
2.232807710011077
 30
0.0
 10
3.166525584457096
 20
2.235476910416729
 30
0.0
 10
3.166525584457096
 20
2.237820771196335
 30
0.0
 10
3.166525584457096
 20
2.241309324080661
 30
0.0
 10
3.166525584457096
 20
2.242445546107052
 30
0.0
 10
3.166525584457096
 20
2.2429060313887
 30
0.0
  0
SPLINE
  5
84
330
1F
100
AcDbEntity
  8
0
  6
Continuous
 62
     7
370
    15
100
AcDbSpline
210
0.0
220
0.0
230
1.0
 70
    24
 71
     3
 72
    10
 73
     6
 74
     0
 42
0.00000001
 43
0.00000001
 40
0.0
 40
0.0
 40
0.0
 40
0.0
 40
0.4999999999999998
 40
0.4999999999999998
 40
1.0
 40
1.0
 40
1.0
 40
1.0
 10
3.173025584457095
 20
2.242906031388701
 30
0.0
 10
3.173025584457095
 20
2.242445546107052
 30
0.0
 10
3.173025584457095
 20
2.241309324080661
 30
0.0
 10
3.173025584457096
 20
2.237820771196335
 30
0.0
 10
3.173025584457096
 20
2.235476910416729
 30
0.0
 10
3.173025584457096
 20
2.232807710011078
 30
0.0
  0
SPLINE
  5
85
330
1F
100
AcDbEntity
  8
0
  6
Continuous
 62
     7
370
    15
100
AcDbSpline
210
0.0
220
0.0
230
1.0
 70
     8
 71
     3
 72
    14
 73
    10
 74
     0
 42
0.00000001
 43
0.00000001
 40
0.0
 40
0.0
 40
0.0
 40
0.0
 40
0.25
 40
0.25
 40
0.5
 40
0.5
 40
0.75
 40
0.75
 40
1.0
 40
1.0
 40
1.0
 40
1.0
 10
2.947775584457095
 20
2.242906031388701
 30
0.0
 10
2.947775584457095
 20
2.242926575618631
 30
0.0
 10
2.947460003161699
 20
2.242947119848563
 30
0.0
 10
2.946245244415891
 20
2.242988208308425
 30
0.0
 10
2.945346544921173
 20
2.243008752538357
 30
0.0
 10
2.943101963436791
 20
2.24304984099822
 30
0.0
 10
2.941756964594093
 20
2.243070385228151
 30
0.0
 10
2.938824277554951
 20
2.243111473688013
 30
0.0
 10
2.937237743245627
 20
2.243132017917944
 30
0.0
 10
2.935650584457095
 20
2.243152562147875
 30
0.0
  0
SPLINE
  5
86
330
1F
100
AcDbEntity
  8
0
  6
Continuous
 62
     7
370
    15
100
AcDbSpline
210
0.0
220
0.0
230
1.0
 70
     8
 71
     3
 72
    14
 73
    10
 74
     0
 42
0.00000001
 43
0.00000001
 40
0.0
 40
0.0
 40
0.0
 40
0.0
 40
0.25
 40
0.25
 40
0.5
 40
0.5
 40
0.75
 40
0.75
 40
1.0
 40
1.0
 40
1.0
 40
1.0
 10
2.941275584457095
 20
2.242906031388701
 30
0.0
 10
2.941275584457095
 20
2.242926575618631
 30
0.0
 10
2.941129180763355
 20
2.242947119848563
 30
0.0
 10
2.940565632891588
 20
2.242988208308425
 30
0.0
 10
2.940148710445585
 20
2.243008752538357
 30
0.0
 10
2.939107409756954
 20
2.24304984099822
 30
0.0
 10
2.938483441221682
 20
2.243070385228151
 30
0.0
 10
2.937122916306616
 20
2.243111473688013
 30
0.0
 10
2.936386895235281
 20
2.243132017917944
 30
0.0
 10
2.935650584457095
 20
2.243152562147875
 30
0.0
  0
SPLINE
  5
87
330
1F
100
AcDbEntity
  8
0
  6
Continuous
 62
     7
370
    15
100
AcDbSpline
210
0.0
220
0.0
230
1.0
 70
     8
 71
     3
 72
    14
 73
    10
 74
     0
 42
0.00000001
 43
0.00000001
 40
0.0
 40
0.0
 40
0.0
 40
0.0
 40
0.25
 40
0.25
 40
0.5
 40
0.5
 40
0.75
 40
0.75
 40
1.0
 40
1.0
 40
1.0
 40
1.0
 10
2.935650584457095
 20
0.8304025621478753
 30
0.0
 10
2.93638689523528
 20
0.8303152604593014
 30
0.0
 10
2.937122916306616
 20
0.8302279587707275
 30
0.0
 10
2.938483441221682
 20
0.8300533553935796
 30
0.0
 10
2.939107409756954
 20
0.8299660537050058
 30
0.0
 10
2.940148710445585
 20
0.829791450327858
 30
0.0
 10
2.940565632891588
 20
0.829704148639284
 30
0.0
 10
2.941129180763355
 20
0.8295295452621362
 30
0.0
 10
2.941275584457095
 20
0.8294422435735622
 30
0.0
 10
2.941275584457095
 20
0.8293549418849884
 30
0.0
  0
SPLINE
  5
88
330
1F
100
AcDbEntity
  8
0
  6
Continuous
 62
     7
370
    15
100
AcDbSpline
210
0.0
220
0.0
230
1.0
 70
     8
 71
     3
 72
    14
 73
    10
 74
     0
 42
0.00000001
 43
0.00000001
 40
0.0
 40
0.0
 40
0.0
 40
0.0
 40
0.25
 40
0.25
 40
0.5
 40
0.5
 40
0.75
 40
0.75
 40
1.0
 40
1.0
 40
1.0
 40
1.0
 10
3.178650584457096
 20
2.243152562147875
 30
0.0
 10
3.177914273678911
 20
2.243132017917945
 30
0.0
 10
3.177178252607575
 20
2.243111473688014
 30
0.0
 10
3.17581772769251
 20
2.243070385228153
 30
0.0
 10
3.175193759157237
 20
2.243049840998224
 30
0.0
 10
3.174152458468606
 20
2.243008752538363
 30
0.0
 10
3.173735536022603
 20
2.242988208308432
 30
0.0
 10
3.173171988150836
 20
2.242947119848572
 30
0.0
 10
3.173025584457096
 20
2.242926575618642
 30
0.0
 10
3.173025584457096
 20
2.242906031388711
 30
0.0
  0
SPLINE
  5
89
330
1F
100
AcDbEntity
  8
0
  6
Continuous
 62
     7
370
    15
100
AcDbSpline
210
0.0
220
0.0
230
1.0
 70
     8
 71
     3
 72
    14
 73
    10
 74
     0
 42
0.00000001
 43
0.00000001
 40
0.0
 40
0.0
 40
0.0
 40
0.0
 40
0.25
 40
0.25
 40
0.5
 40
0.5
 40
0.75
 40
0.75
 40
1.0
 40
1.0
 40
1.0
 40
1.0
 10
3.173025584457096
 20
0.8293549418849886
 30
0.0
 10
3.173025584457096
 20
0.8294422435735624
 30
0.0
 10
3.173171988150836
 20
0.8295295452621363
 30
0.0
 10
3.173735536022603
 20
0.8297041486392841
 30
0.0
 10
3.174152458468606
 20
0.8297914503278581
 30
0.0
 10
3.175193759157237
 20
0.8299660537050056
 30
0.0
 10
3.17581772769251
 20
0.8300533553935798
 30
0.0
 10
3.177178252607575
 20
0.8302279587707276
 30
0.0
 10
3.177914273678911
 20
0.8303152604593014
 30
0.0
 10
3.178650584457096
 20
0.8304025621478753
 30
0.0
  0
SPLINE
  5
8A
330
1F
100
AcDbEntity
  8
0
  6
Continuous
 62
     7
370
    15
100
AcDbSpline
210
0.0
220
0.0
230
1.0
 70
     8
 71
     3
 72
    14
 73
    10
 74
     0
 42
0.00000001
 43
0.00000001
 40
0.0
 40
0.0
 40
0.0
 40
0.0
 40
0.25
 40
0.25
 40
0.5
 40
0.5
 40
0.75
 40
0.75
 40
1.0
 40
1.0
 40
1.0
 40
1.0
 10
3.178650584457096
 20
2.243152562147875
 30
0.0
 10
3.177063425668563
 20
2.243132017917945
 30
0.0
 10
3.175476891359239
 20
2.243111473688014
 30
0.0
 10
3.172544204320098
 20
2.243070385228153
 30
0.0
 10
3.1711992054774
 20
2.243049840998224
 30
0.0
 10
3.168954623993018
 20
2.243008752538363
 30
0.0
 10
3.1680559244983
 20
2.242988208308432
 30
0.0
 10
3.166841165752492
 20
2.242947119848572
 30
0.0
 10
3.166525584457096
 20
2.242926575618642
 30
0.0
 10
3.166525584457096
 20
2.242906031388711
 30
0.0
  0
ARC
  5
8B
330
1F
100
AcDbEntity
  8
0
  6
Continuous
 62
     7
370
    15
100
AcDbCircle
 10
3.175642871
 20
0.8457353468
 30
0.0
 40
0.015625
100
AcDbArc
 50
281.0983473441
 51
349.3150876
  0
ARC
  5
8C
330
1F
100
AcDbEntity
  8
0
  6
Continuous
 62
     7
370
    15
100
AcDbCircle
 10
2.9386582979
 20
0.8457353468
 30
0.0
 40
0.0156250000000003
100
AcDbArc
 50
190.6849124
 51
258.9016526559
  0
LINE
  5
8D
330
1F
100
AcDbEntity
  8
0
  6
Continuous
 62
     7
370
    15
100
AcDbLine
 10
2.9334630845
 20
2.2431525621
 30
0.0
 11
2.9334630845
 21
2.2844025621
 31
0.0
  0
LINE
  5
8E
330
1F
100
AcDbEntity
  8
0
  6
Continuous
 62
     7
370
    15
100
AcDbLine
 10
2.9356505845
 20
2.2431525621
 30
0.0
 11
2.9334630845
 21
2.2431525621
 31
0.0
  0
LINE
  5
8F
330
1F
100
AcDbEntity
  8
0
  6
Continuous
 62
     7
370
    15
100
AcDbLine
 10
2.9233042096
 20
0.842838349
 30
0.0
 11
2.8491510544
 21
1.2358500714
 31
0.0
  0
ARC
  5
90
330
1F
100
AcDbEntity
  8
0
  6
Continuous
 62
     7
370
    15
100
AcDbCircle
 10
2.9412755845
 20
1.2532320582
 30
0.0
 40
0.0937500000000003
100
AcDbArc
 50
180.0
 51
190.6849124
  0
LINE
  5
91
330
1F
100
AcDbEntity
  8
0
  6
Continuous
 62
     7
370
    15
100
AcDbLine
 10
2.8475255845
 20
1.2532320582
 30
0.0
 11
2.8475255845
 21
2.0629190618
 31
0.0
  0
ARC
  5
92
330
1F
100
AcDbEntity
  8
0
  6
Continuous
 62
     7
370
    15
100
AcDbCircle
 10
2.7850255845
 20
2.0629190618
 30
0.0
 40
0.0625
100
AcDbArc
 50
0.0
 51
41.9872124958
  0
LINE
  5
93
330
1F
100
AcDbEntity
  8
0
  6
Continuous
 62
     7
370
    15
100
AcDbLine
 10
2.8314814686
 20
2.1047293575
 30
0.0
 11
2.7162109514
 21
2.23280771
 31
0.0
  0
ARC
  5
94
330
1F
100
AcDbEntity
  8
0
  6
Continuous
 62
     7
370
    15
100
AcDbCircle
 10
2.6929830093
 20
2.2119025621
 30
0.0
 40
0.0312500000000001
100
AcDbArc
 50
41.9872124958
 51
90.0
  0
LINE
  5
95
330
1F
100
AcDbEntity
  8
0
  6
Continuous
 62
     7
370
    15
100
AcDbLine
 10
2.6929830093
 20
2.2431525621
 30
0.0
 11
2.6834630845
 21
2.2431525621
 31
0.0
  0
LINE
  5
96
330
1F
100
AcDbEntity
  8
0
  6
Continuous
 62
     7
370
    15
100
AcDbLine
 10
2.6834630845
 20
2.2844025621
 30
0.0
 11
2.6834630845
 21
2.2431525621
 31
0.0
  0
CIRCLE
  5
97
330
1F
100
AcDbEntity
  8
0
  6
Continuous
 62
     7
370
    15
100
AcDbCircle
 10
2.8865880845
 20
2.1650275621
 30
0.0
 40
0.01125
  0
LINE
  5
98
330
1F
100
AcDbEntity
  8
0
  6
Continuous
 62
     7
370
    15
100
AcDbLine
 10
2.89026092
 20
1.1645036444
 30
0.0
 11
2.9040495022
 21
1.1507150621
 31
0.0
  0
LINE
  5
99
330
1F
100
AcDbEntity
  8
0
  6
Continuous
 62
     7
370
    15
100
AcDbLine
 10
2.9040495022
 20
1.1507150621
 30
0.0
 11
2.9178380845
 21
1.1645036444
 31
0.0
  0
LINE
  5
9A
330
1F
100
AcDbEntity
  8
0
  6
Continuous
 62
     7
370
    15
100
AcDbLine
 10
2.9178380845
 20
1.1645036444
 30
0.0
 11
2.9040495022
 21
1.1782922266
 31
0.0
  0
LINE
  5
9B
330
1F
100
AcDbEntity
  8
0
  6
Continuous
 62
     7
370
    15
100
AcDbLine
 10
2.9040495022
 20
1.1782922266
 30
0.0
 11
2.89026092
 21
1.1645036444
 31
0.0
  0
LINE
  5
9C
330
1F
100
AcDbEntity
  8
0
  6
Continuous
 62
     7
370
    15
100
AcDbLine
 10
2.6834630845
 20
2.2844025621
 30
0.0
 11
2.6834630845
 21
2.2965275621
 31
0.0
  0
LINE
  5
9D
330
1F
100
AcDbEntity
  8
0
  6
Continuous
 62
     7
370
    15
100
AcDbLine
 10
2.9334630845
 20
2.2965275621
 30
0.0
 11
2.6834630845
 21
2.2965275621
 31
0.0
  0
LINE
  5
9E
330
1F
100
AcDbEntity
  8
0
  6
Continuous
 62
     7
370
    15
100
AcDbLine
 10
2.9334630845
 20
2.2965275621
 30
0.0
 11
2.9334630845
 21
2.2844025621
 31
0.0
  0
LINE
  5
9F
330
1F
100
AcDbEntity
  8
0
  6
Continuous
 62
     7
370
    15
100
AcDbLine
 10
3.2102516667
 20
1.1507150621
 30
0.0
 11
3.1964630845
 21
1.1645036444
 31
0.0
  0
LINE
  5
A0
330
1F
100
AcDbEntity
  8
0
  6
Continuous
 62
     7
370
    15
100
AcDbLine
 10
3.4213181596
 20
2.2431525621
 30
0.0
 11
3.4308380845
 21
2.2431525621
 31
0.0
  0
LINE
  5
A1
330
1F
100
AcDbEntity
  8
0
  6
Continuous
 62
     7
370
    15
100
AcDbLine
 10
3.2828197003
 20
2.1047293575
 30
0.0
 11
3.3980902175
 21
2.23280771
 31
0.0
  0
ARC
  5
A2
330
1F
100
AcDbEntity
  8
0
  6
Continuous
 62
     7
370
    15
100
AcDbCircle
 10
3.3292755845
 20
2.0629190618
 30
0.0
 40
0.0624999999999998
100
AcDbArc
 50
138.0127875042
 51
180.0
  0
LINE
  5
A3
330
1F
100
AcDbEntity
  8
0
  6
Continuous
 62
     7
370
    15
100
AcDbLine
 10
3.2667755845
 20
1.2532320582
 30
0.0
 11
3.2667755845
 21
2.0629190618
 31
0.0
  0
ARC
  5
A4
330
1F
100
AcDbEntity
  8
0
  6
Continuous
 62
     7
370
    15
100
AcDbCircle
 10
3.1730255845
 20
1.2532320582
 30
0.0
 40
0.0937500000000008
100
AcDbArc
 50
349.3150876
 51
0.0
  0
LINE
  5
A5
330
1F
100
AcDbEntity
  8
0
  6
Continuous
 62
     7
370
    15
100
AcDbLine
 10
3.1909969593
 20
0.842838349
 30
0.0
 11
3.2651501145
 21
1.2358500714
 31
0.0
  0
LINE
  5
A6
330
1F
100
AcDbEntity
  8
0
  6
Continuous
 62
     7
370
    15
100
AcDbLine
 10
3.1808380845
 20
2.2431525621
 30
0.0
 11
3.1786505845
 21
2.2431525621
 31
0.0
  0
LINE
  5
A7
330
1F
100
AcDbEntity
  8
0
  6
Continuous
 62
     7
370
    15
100
AcDbLine
 10
3.4308380845
 20
2.2431525621
 30
0.0
 11
3.4308380845
 21
2.2844025621
 31
0.0
  0
LINE
  5
A8
330
1F
100
AcDbEntity
  8
0
  6
Continuous
 62
     7
370
    15
100
AcDbLine
 10
3.2240402489
 20
1.1645036444
 30
0.0
 11
3.2102516667
 21
1.1507150621
 31
0.0
  0
LINE
  5
A9
330
1F
100
AcDbEntity
  8
0
  6
Continuous
 62
     7
370
    15
100
AcDbLine
 10
3.1964630845
 20
1.1645036444
 30
0.0
 11
3.2102516667
 21
1.1782922266
 31
0.0
  0
LINE
  5
AA
330
1F
100
AcDbEntity
  8
0
  6
Continuous
 62
     7
370
    15
100
AcDbLine
 10
3.1808380845
 20
2.2844025621
 30
0.0
 11
3.1808380845
 21
2.2431525621
 31
0.0
  0
ARC
  5
AB
330
1F
100
AcDbEntity
  8
0
  6
Continuous
 62
     7
370
    15
100
AcDbCircle
 10
3.4213181596
 20
2.2119025621
 30
0.0
 40
0.03125
100
AcDbArc
 50
90.0
 51
138.0127875042
  0
CIRCLE
  5
AC
330
1F
100
AcDbEntity
  8
0
  6
Continuous
 62
     7
370
    15
100
AcDbCircle
 10
3.2277130845
 20
2.1650275621
 30
0.0
 40
0.01125
  0
LINE
  5
AD
330
1F
100
AcDbEntity
  8
0
  6
Continuous
 62
     7
370
    15
100
AcDbLine
 10
3.2102516667
 20
1.1782922266
 30
0.0
 11
3.2240402489
 21
1.1645036444
 31
0.0
  0
LINE
  5
AE
330
1F
100
AcDbEntity
  8
0
  6
Continuous
 62
     7
370
    15
100
AcDbLine
 10
3.4308380845
 20
2.2965275621
 30
0.0
 11
3.1808380845
 21
2.2965275621
 31
0.0
  0
LINE
  5
AF
330
1F
100
AcDbEntity
  8
0
  6
Continuous
 62
     7
370
    15
100
AcDbLine
 10
3.1808380845
 20
2.2844025621
 30
0.0
 11
3.1808380845
 21
2.2965275621
 31
0.0
  0
LINE
  5
B0
330
1F
100
AcDbEntity
  8
0
  6
Continuous
 62
     7
370
    15
100
AcDbLine
 10
3.4308380845
 20
2.2965275621
 30
0.0
 11
3.4308380845
 21
2.2844025621
 31
0.0
  0
ARC
  5
B1
330
1F
100
AcDbEntity
  8
0
  6
Continuous
 62
     7
370
    15
100
AcDbCircle
 10
3.1749005845
 20
3.4082504537
 30
0.0
 40
0.0018749999999998
100
AcDbArc
 50
180.0
 51
249.5763846362
  0
ARC
  5
B2
330
1F
100
AcDbEntity
  8
0
  6
Continuous
 62
     7
370
    15
100
AcDbCircle
 10
3.1749005845
 20
3.3632678182
 30
0.0
 40
0.0018749999999998
100
AcDbArc
 50
110.4236153638
 51
180.0
  0
ARC
  5
B3
330
1F
100
AcDbEntity
  8
0
  6
Continuous
 62
     7
370
    15
100
AcDbCircle
 10
2.9394005845
 20
3.3398303182
 30
0.0
 40
0.0018750000001893
100
AcDbArc
 50
0.0
 51
69.5763846362
  0
ARC
  5
B4
330
1F
100
AcDbEntity
  8
0
  6
Continuous
 62
     7
370
    15
100
AcDbCircle
 10
2.9394005845
 20
3.3848129537
 30
0.0
 40
0.0018750000001893
100
AcDbArc
 50
290.4236153638
 51
0.0
  0
ARC
  5
B5
330
1F
100
AcDbEntity
  8
0
  6
Continuous
 62
     7
370
    15
100
AcDbCircle
 10
3.1665255845
 20
3.385759136
 30
0.0
 40
0.0221250000000002
100
AcDbArc
 50
290.4236153638
 51
69.5763846362
  0
ARC
  5
B6
330
1F
100
AcDbEntity
  8
0
  6
Continuous
 62
     7
370
    15
100
AcDbCircle
 10
2.9477755845
 20
3.362321636
 30
0.0
 40
0.0221250000000004
100
AcDbArc
 50
110.4236153638
 51
249.5763846362
  0
CIRCLE
  5
B7
330
1F
100
AcDbEntity
  8
0
  6
Continuous
 62
     7
370
    15
100
AcDbCircle
 10
3.2199005845
 20
3.743821636
 30
0.0
 40
0.01125
  0
LINE
  5
B8
330
1F
100
AcDbEntity
  8
0
  6
Continuous
 62
     7
370
    15
100
AcDbLine
 10
3.4308380845
 20
3.601009136
 30
0.0
 11
3.4308380845
 21
3.782884136
 31
0.0
  0
CIRCLE
  5
B9
330
1F
100
AcDbEntity
  8
0
  6
Continuous
 62
     7
370
    15
100
AcDbCircle
 10
3.3917755845
 20
3.720384136
 30
0.0
 40
0.01125
  0
LINE
  5
BA
330
1F
100
AcDbEntity
  8
0
  6
Continuous
 62
     7
370
    15
100
AcDbLine
 10
3.4308380845
 20
3.782884136
 30
0.0
 11
3.1808380845
 21
3.782884136
 31
0.0
  0
LINE
  5
BB
330
1F
100
AcDbEntity
  8
0
  6
Continuous
 62
     7
370
    15
100
AcDbLine
 10
3.1808380845
 20
3.782884136
 30
0.0
 11
3.1808380845
 21
3.601009136
 31
0.0
  0
LINE
  5
BC
330
1F
100
AcDbEntity
  8
0
  6
Continuous
 62
     7
370
    15
100
AcDbLine
 10
2.9334630845
 20
3.782884136
 30
0.0
 11
2.6834630845
 21
3.782884136
 31
0.0
  0
LINE
  5
BD
330
1F
100
AcDbEntity
  8
0
  6
Continuous
 62
     7
370
    15
100
AcDbLine
 10
2.9334630845
 20
3.601009136
 30
0.0
 11
2.9334630845
 21
3.782884136
 31
0.0
  0
CIRCLE
  5
BE
330
1F
100
AcDbEntity
  8
0
  6
Continuous
 62
     7
370
    15
100
AcDbCircle
 10
2.7225255845
 20
3.720384136
 30
0.0
 40
0.01125
  0
LINE
  5
BF
330
1F
100
AcDbEntity
  8
0
  6
Continuous
 62
     7
370
    15
100
AcDbLine
 10
2.6834630845
 20
3.782884136
 30
0.0
 11
2.6834630845
 21
3.601009136
 31
0.0
  0
CIRCLE
  5
C0
330
1F
100
AcDbEntity
  8
0
  6
Continuous
 62
     7
370
    15
100
AcDbCircle
 10
2.8944005845
 20
3.743821636
 30
0.0
 40
0.01125
  0
LINE
  5
C1
330
1F
100
AcDbEntity
  8
0
  6
Continuous
 62
     7
370
    15
100
AcDbLine
 10
3.1808380845
 20
3.588884136
 30
0.0
 11
3.1808380845
 21
3.601009136
 31
0.0
  0
LINE
  5
C2
330
1F
100
AcDbEntity
  8
0
  6
Continuous
 62
     7
370
    15
100
AcDbLine
 10
3.4308380845
 20
3.588884136
 30
0.0
 11
3.1808380845
 21
3.588884136
 31
0.0
  0
LINE
  5
C3
330
1F
100
AcDbEntity
  8
0
  6
Continuous
 62
     7
370
    15
100
AcDbLine
 10
3.4308380845
 20
3.601009136
 30
0.0
 11
3.4308380845
 21
3.588884136
 31
0.0
  0
LINE
  5
C4
330
1F
100
AcDbEntity
  8
0
  6
Continuous
 62
     7
370
    15
100
AcDbLine
 10
2.6834630845
 20
3.588884136
 30
0.0
 11
2.6834630845
 21
3.601009136
 31
0.0
  0
LINE
  5
C5
330
1F
100
AcDbEntity
  8
0
  6
Continuous
 62
     7
370
    15
100
AcDbLine
 10
2.9334630845
 20
3.588884136
 30
0.0
 11
2.6834630845
 21
3.588884136
 31
0.0
  0
LINE
  5
C6
330
1F
100
AcDbEntity
  8
0
  6
Continuous
 62
     7
370
    15
100
AcDbLine
 10
2.9334630845
 20
3.601009136
 30
0.0
 11
2.9334630845
 21
3.588884136
 31
0.0
  0
SPLINE
  5
C7
330
1F
100
AcDbEntity
  8
0
  6
Continuous
 62
     7
370
    15
100
AcDbSpline
210
0.0
220
0.0
230
1.0
 70
    24
 71
     3
 72
    10
 73
     6
 74
     0
 42
0.00000001
 43
0.00000001
 40
0.0
 40
0.0
 40
0.0
 40
0.0
 40
0.5
 40
0.5
 40
1.0
 40
1.0
 40
1.0
 40
1.0
 10
2.941275584457096
 20
3.563948769047543
 30
0.0
 10
2.941275584457096
 20
3.56635104941263
 30
0.0
 10
2.941275584457095
 20
3.569319859829732
 30
0.0
 10
2.941275584457095
 20
3.575957840816745
 30
0.0
 10
2.941275584457095
 20
3.579614881366893
 30
0.0
 10
2.941275584457095
 20
3.583259135970662
 30
0.0
  0
LINE
  5
C8
330
1F
100
AcDbEntity
  8
0
  6
Continuous
 62
     7
370
    15
100
AcDbLine
 10
2.9412755845
 20
3.583259136
 30
0.0
 11
2.9477755845
 21
3.583259136
 31
0.0
  0
SPLINE
  5
C9
330
1F
100
AcDbEntity
  8
0
  6
Continuous
 62
     7
370
    15
100
AcDbSpline
210
0.0
220
0.0
230
1.0
 70
    24
 71
     3
 72
    10
 73
     6
 74
     0
 42
0.00000001
 43
0.00000001
 40
0.0
 40
0.0
 40
0.0
 40
0.0
 40
0.5000000000000001
 40
0.5000000000000001
 40
1.0
 40
1.0
 40
1.0
 40
1.0
 10
2.947775584457095
 20
3.58325913597062
 30
0.0
 10
2.947775584457095
 20
3.579614881366858
 30
0.0
 10
2.947775584457095
 20
3.575957840816718
 30
0.0
 10
2.947775584457095
 20
3.569319859829721
 30
0.0
 10
2.947775584457095
 20
3.566351049412625
 30
0.0
 10
2.947775584457096
 20
3.563948769047543
 30
0.0
  0
LINE
  5
CA
330
1F
100
AcDbEntity
  8
0
  6
Continuous
 62
     7
370
    15
100
AcDbLine
 10
3.1730255845
 20
3.583259136
 30
0.0
 11
3.1665255845
 21
3.583259136
 31
0.0
  0
SPLINE
  5
CB
330
1F
100
AcDbEntity
  8
0
  6
Continuous
 62
     7
370
    15
100
AcDbSpline
210
0.0
220
0.0
230
1.0
 70
    24
 71
     3
 72
    10
 73
     6
 74
     0
 42
0.00000001
 43
0.00000001
 40
0.0
 40
0.0
 40
0.0
 40
0.0
 40
0.4999999999999998
 40
0.4999999999999998
 40
1.0
 40
1.0
 40
1.0
 40
1.0
 10
3.173025584457095
 20
3.583259135970663
 30
0.0
 10
3.173025584457095
 20
3.579614881366894
 30
0.0
 10
3.173025584457095
 20
3.575957840816746
 30
0.0
 10
3.173025584457096
 20
3.569319859829732
 30
0.0
 10
3.173025584457096
 20
3.56635104941263
 30
0.0
 10
3.173025584457096
 20
3.563948769047543
 30
0.0
  0
SPLINE
  5
CC
330
1F
100
AcDbEntity
  8
0
  6
Continuous
 62
     7
370
    15
100
AcDbSpline
210
0.0
220
0.0
230
1.0
 70
    24
 71
     3
 72
    10
 73
     6
 74
     0
 42
0.00000001
 43
0.00000001
 40
0.0
 40
0.0
 40
0.0
 40
0.0
 40
0.5000000000000002
 40
0.5000000000000002
 40
1.0
 40
1.0
 40
1.0
 40
1.0
 10
3.166525584457096
 20
3.563948769047543
 30
0.0
 10
3.166525584457096
 20
3.56635104941263
 30
0.0
 10
3.166525584457096
 20
3.569319859829732
 30
0.0
 10
3.166525584457096
 20
3.575957840816746
 30
0.0
 10
3.166525584457096
 20
3.579614881366894
 30
0.0
 10
3.166525584457096
 20
3.583259135970663
 30
0.0
  0
LINE
  5
CD
330
1F
100
AcDbEntity
  8
0
  6
Continuous
 62
     7
370
    15
100
AcDbLine
 10
3.1786505845
 20
3.588884136
 30
0.0
 11
3.1786505845
 21
3.595384136
 31
0.0
  0
LINE
  5
CE
330
1F
100
AcDbEntity
  8
0
  6
Continuous
 62
     7
370
    15
100
AcDbLine
 10
3.1808380845
 20
3.588884136
 30
0.0
 11
3.1786505845
 21
3.588884136
 31
0.0
  0
LINE
  5
CF
330
1F
100
AcDbEntity
  8
0
  6
Continuous
 62
     7
370
    15
100
AcDbLine
 10
3.1808380845
 20
3.595384136
 30
0.0
 11
3.1786505845
 21
3.595384136
 31
0.0
  0
SPLINE
  5
D0
330
1F
100
AcDbEntity
  8
0
  6
Continuous
 62
     7
370
    15
100
AcDbSpline
210
0.0
220
0.0
230
1.0
 70
     8
 71
     3
 72
    14
 73
    10
 74
     0
 42
0.00000001
 43
0.00000001
 40
0.0
 40
0.0
 40
0.0
 40
0.0
 40
0.25
 40
0.25
 40
0.5
 40
0.5
 40
0.75
 40
0.75
 40
1.0
 40
1.0
 40
1.0
 40
1.0
 10
2.941275584457095
 20
3.583259135970662
 30
0.0
 10
2.941275584457095
 20
3.583995446748847
 30
0.0
 10
2.941129180763355
 20
3.584731467820183
 30
0.0
 10
2.940565632891588
 20
3.586091992735248
 30
0.0
 10
2.940148710445585
 20
3.586715961270521
 30
0.0
 10
2.939107409756954
 20
3.587757261959152
 30
0.0
 10
2.938483441221682
 20
3.588174184405155
 30
0.0
 10
2.937122916306616
 20
3.588737732276921
 30
0.0
 10
2.936386895235281
 20
3.588884135970662
 30
0.0
 10
2.935650584457095
 20
3.588884135970662
 30
0.0
  0
LINE
  5
D1
330
1F
100
AcDbEntity
  8
0
  6
Continuous
 62
     7
370
    15
100
AcDbLine
 10
2.9356505845
 20
3.588884136
 30
0.0
 11
2.9356505845
 21
3.595384136
 31
0.0
  0
SPLINE
  5
D2
330
1F
100
AcDbEntity
  8
0
  6
Continuous
 62
     7
370
    15
100
AcDbSpline
210
0.0
220
0.0
230
1.0
 70
     8
 71
     3
 72
    14
 73
    10
 74
     0
 42
0.00000001
 43
0.00000001
 40
0.0
 40
0.0
 40
0.0
 40
0.0
 40
0.25
 40
0.25
 40
0.5
 40
0.5
 40
0.75
 40
0.75
 40
1.0
 40
1.0
 40
1.0
 40
1.0
 10
2.947775584457095
 20
3.583259135970662
 30
0.0
 10
2.947775584457095
 20
3.584846294759194
 30
0.0
 10
2.947460003161699
 20
3.586432829068518
 30
0.0
 10
2.946245244415891
 20
3.589365516107659
 30
0.0
 10
2.945346544921173
 20
3.590710514950358
 30
0.0
 10
2.943101963436791
 20
3.59295509643474
 30
0.0
 10
2.941756964594093
 20
3.593853795929457
 30
0.0
 10
2.938824277554951
 20
3.595068554675265
 30
0.0
 10
2.937237743245627
 20
3.595384135970662
 30
0.0
 10
2.935650584457095
 20
3.595384135970662
 30
0.0
  0
LINE
  5
D3
330
1F
100
AcDbEntity
  8
0
  6
Continuous
 62
     7
370
    15
100
AcDbLine
 10
2.9356505845
 20
3.595384136
 30
0.0
 11
2.9334630845
 21
3.595384136
 31
0.0
  0
LINE
  5
D4
330
1F
100
AcDbEntity
  8
0
  6
Continuous
 62
     7
370
    15
100
AcDbLine
 10
2.9356505845
 20
3.588884136
 30
0.0
 11
2.9334630845
 21
3.588884136
 31
0.0
  0
SPLINE
  5
D5
330
1F
100
AcDbEntity
  8
0
  6
Continuous
 62
     7
370
    15
100
AcDbSpline
210
0.0
220
0.0
230
1.0
 70
     8
 71
     3
 72
    14
 73
    10
 74
     0
 42
0.00000001
 43
0.00000001
 40
0.0
 40
0.0
 40
0.0
 40
0.0
 40
0.25
 40
0.25
 40
0.5
 40
0.5
 40
0.75
 40
0.75
 40
1.0
 40
1.0
 40
1.0
 40
1.0
 10
3.178650584457096
 20
3.588884135970662
 30
0.0
 10
3.177914273678911
 20
3.588884135970662
 30
0.0
 10
3.177178252607575
 20
3.588737732276921
 30
0.0
 10
3.17581772769251
 20
3.588174184405155
 30
0.0
 10
3.175193759157237
 20
3.587757261959152
 30
0.0
 10
3.174152458468606
 20
3.586715961270521
 30
0.0
 10
3.173735536022603
 20
3.586091992735248
 30
0.0
 10
3.173171988150836
 20
3.584731467820183
 30
0.0
 10
3.173025584457096
 20
3.583995446748847
 30
0.0
 10
3.173025584457096
 20
3.583259135970662
 30
0.0
  0
SPLINE
  5
D6
330
1F
100
AcDbEntity
  8
0
  6
Continuous
 62
     7
370
    15
100
AcDbSpline
210
0.0
220
0.0
230
1.0
 70
     8
 71
     3
 72
    14
 73
    10
 74
     0
 42
0.00000001
 43
0.00000001
 40
0.0
 40
0.0
 40
0.0
 40
0.0
 40
0.25
 40
0.25
 40
0.5
 40
0.5
 40
0.75
 40
0.75
 40
1.0
 40
1.0
 40
1.0
 40
1.0
 10
3.178650584457096
 20
3.595384135970662
 30
0.0
 10
3.177063425668563
 20
3.595384135970662
 30
0.0
 10
3.175476891359239
 20
3.595068554675265
 30
0.0
 10
3.172544204320098
 20
3.593853795929457
 30
0.0
 10
3.1711992054774
 20
3.59295509643474
 30
0.0
 10
3.168954623993018
 20
3.590710514950358
 30
0.0
 10
3.1680559244983
 20
3.589365516107659
 30
0.0
 10
3.166841165752492
 20
3.586432829068518
 30
0.0
 10
3.166525584457096
 20
3.584846294759194
 30
0.0
 10
3.166525584457096
 20
3.583259135970662
 30
0.0
  0
LINE
  5
D7
330
1F
100
AcDbEntity
  8
0
  6
Continuous
 62
     7
370
    15
100
AcDbLine
 10
3.1730255845
 20
3.4486782518
 30
0.0
 11
3.1730255845
 21
3.563948769
 31
0.0
  0
LINE
  5
D8
330
1F
100
AcDbEntity
  8
0
  6
Continuous
 62
     7
370
    15
100
AcDbLine
 10
3.1665255845
 20
3.563948769
 30
0.0
 11
3.1665255845
 21
3.4486782518
 31
0.0
  0
LINE
  5
D9
330
1F
100
AcDbEntity
  8
0
  6
Continuous
 62
     7
370
    15
100
AcDbLine
 10
2.9477755845
 20
3.4486782518
 30
0.0
 11
2.9477755845
 21
3.563948769
 31
0.0
  0
LINE
  5
DA
330
1F
100
AcDbEntity
  8
0
  6
Continuous
 62
     7
370
    15
100
AcDbLine
 10
2.9412755845
 20
3.4486782518
 30
0.0
 11
2.9412755845
 21
3.563948769
 31
0.0
  0
SPLINE
  5
DB
330
1F
100
AcDbEntity
  8
0
  6
Continuous
 62
     7
370
    15
100
AcDbSpline
210
0.0
220
0.0
230
1.0
 70
    24
 71
     3
 72
     8
 73
     4
 74
     0
 42
0.00000001
 43
0.00000001
 40
0.0
 40
0.0
 40
0.0
 40
0.0
 40
1.0
 40
1.0
 40
1.0
 40
1.0
 10
2.941275584457095
 20
3.432634135970662
 30
0.0
 10
2.943442251123762
 20
3.432634135970662
 30
0.0
 10
2.945608917790429
 20
3.432634135970662
 30
0.0
 10
2.947775584457095
 20
3.432634135970662
 30
0.0
  0
SPLINE
  5
DC
330
1F
100
AcDbEntity
  8
0
  6
Continuous
 62
     7
370
    15
100
AcDbSpline
210
0.0
220
0.0
230
1.0
 70
    24
 71
     3
 72
    14
 73
    10
 74
     0
 42
0.00000001
 43
0.00000001
 40
0.0
 40
0.0
 40
0.0
 40
0.0
 40
0.2499999999999998
 40
0.2499999999999998
 40
0.4999999999999996
 40
0.4999999999999996
 40
0.7499999999999998
 40
0.7499999999999998
 40
1.0
 40
1.0
 40
1.0
 40
1.0
 10
2.947775584457095
 20
3.448678251830215
 30
0.0
 10
2.947775584457095
 20
3.446181732821215
 30
0.0
 10
2.947775584457095
 20
3.443893542300861
 30
0.0
 10
2.947775584457095
 20
3.439885127195906
 30
0.0
 10
2.947775584457095
 20
3.438165768329857
 30
0.0
 10
2.947775584457095
 20
3.435399952150259
 30
0.0
 10
2.947775584457095
 20
3.434353895368798
 30
0.0
 10
2.947775584457095
 20
3.432971087412021
 30
0.0
 10
2.947775584457095
 20
3.432634135970662
 30
0.0
 10
2.947775584457095
 20
3.432634135970662
 30
0.0
  0
SPLINE
  5
DD
330
1F
100
AcDbEntity
  8
0
  6
Continuous
 62
     7
370
    15
100
AcDbSpline
210
0.0
220
0.0
230
1.0
 70
    24
 71
     3
 72
    14
 73
    10
 74
     0
 42
0.00000001
 43
0.00000001
 40
0.0
 40
0.0
 40
0.0
 40
0.0
 40
0.25
 40
0.25
 40
0.5
 40
0.5
 40
0.75
 40
0.75
 40
1.0
 40
1.0
 40
1.0
 40
1.0
 10
2.941275584457095
 20
3.432634135970662
 30
0.0
 10
2.941275584457095
 20
3.432634135970662
 30
0.0
 10
2.941275584457095
 20
3.432971087412021
 30
0.0
 10
2.941275584457095
 20
3.434353895368798
 30
0.0
 10
2.941275584457095
 20
3.43539995215026
 30
0.0
 10
2.941275584457095
 20
3.438165768329857
 30
0.0
 10
2.941275584457095
 20
3.439885127195906
 30
0.0
 10
2.941275584457095
 20
3.443893542300861
 30
0.0
 10
2.941275584457095
 20
3.446181732821216
 30
0.0
 10
2.941275584457095
 20
3.448678251830215
 30
0.0
  0
SPLINE
  5
DE
330
1F
100
AcDbEntity
  8
0
  6
Continuous
 62
     7
370
    15
100
AcDbSpline
210
0.0
220
0.0
230
1.0
 70
    24
 71
     3
 72
     8
 73
     4
 74
     0
 42
0.00000001
 43
0.00000001
 40
0.0
 40
0.0
 40
0.0
 40
0.0
 40
1.0
 40
1.0
 40
1.0
 40
1.0
 10
3.166525584457096
 20
3.432634135970662
 30
0.0
 10
3.168692251123762
 20
3.432634135970662
 30
0.0
 10
3.170858917790429
 20
3.432634135970662
 30
0.0
 10
3.173025584457096
 20
3.432634135970662
 30
0.0
  0
SPLINE
  5
DF
330
1F
100
AcDbEntity
  8
0
  6
Continuous
 62
     7
370
    15
100
AcDbSpline
210
0.0
220
0.0
230
1.0
 70
    24
 71
     3
 72
    14
 73
    10
 74
     0
 42
0.00000001
 43
0.00000001
 40
0.0
 40
0.0
 40
0.0
 40
0.0
 40
0.2499999999999998
 40
0.2499999999999998
 40
0.4999999999999996
 40
0.4999999999999996
 40
0.7499999999999998
 40
0.7499999999999998
 40
1.0
 40
1.0
 40
1.0
 40
1.0
 10
3.173025584457096
 20
3.448678251830215
 30
0.0
 10
3.173025584457096
 20
3.446181732821215
 30
0.0
 10
3.173025584457096
 20
3.443893542300861
 30
0.0
 10
3.173025584457096
 20
3.439885127195906
 30
0.0
 10
3.173025584457096
 20
3.438165768329857
 30
0.0
 10
3.173025584457096
 20
3.435399952150259
 30
0.0
 10
3.173025584457096
 20
3.434353895368798
 30
0.0
 10
3.173025584457096
 20
3.432971087412021
 30
0.0
 10
3.173025584457096
 20
3.432634135970662
 30
0.0
 10
3.173025584457096
 20
3.432634135970662
 30
0.0
  0
SPLINE
  5
E0
330
1F
100
AcDbEntity
  8
0
  6
Continuous
 62
     7
370
    15
100
AcDbSpline
210
0.0
220
0.0
230
1.0
 70
    24
 71
     3
 72
    14
 73
    10
 74
     0
 42
0.00000001
 43
0.00000001
 40
0.0
 40
0.0
 40
0.0
 40
0.0
 40
0.25
 40
0.25
 40
0.5
 40
0.5
 40
0.75
 40
0.75
 40
1.0
 40
1.0
 40
1.0
 40
1.0
 10
3.166525584457096
 20
3.432634135970662
 30
0.0
 10
3.166525584457096
 20
3.432634135970662
 30
0.0
 10
3.166525584457096
 20
3.432971087412021
 30
0.0
 10
3.166525584457096
 20
3.434353895368798
 30
0.0
 10
3.166525584457096
 20
3.43539995215026
 30
0.0
 10
3.166525584457096
 20
3.438165768329857
 30
0.0
 10
3.166525584457096
 20
3.439885127195906
 30
0.0
 10
3.166525584457096
 20
3.443893542300861
 30
0.0
 10
3.166525584457096
 20
3.446181732821216
 30
0.0
 10
3.166525584457096
 20
3.448678251830215
 30
0.0
  0
SPLINE
  5
E1
330
1F
100
AcDbEntity
  8
0
  6
Continuous
 62
     7
370
    15
100
AcDbSpline
210
0.0
220
0.0
230
1.0
 70
    24
 71
     3
 72
     8
 73
     4
 74
     0
 42
0.00000001
 43
0.00000001
 40
0.0
 40
0.0
 40
0.0
 40
0.0
 40
1.0
 40
1.0
 40
1.0
 40
1.0
 10
3.173025584457096
 20
3.432634135970665
 30
0.0
 10
3.173025584457096
 20
3.432634135970665
 30
0.0
 10
3.173025584457096
 20
3.432087605265646
 30
0.0
 10
3.173025584457096
 20
3.431008666009584
 30
0.0
  0
SPLINE
  5
E2
330
1F
100
AcDbEntity
  8
0
  6
Continuous
 62
     7
370
    15
100
AcDbSpline
210
0.0
220
0.0
230
1.0
 70
    24
 71
     3
 72
     8
 73
     4
 74
     0
 42
0.00000001
 43
0.00000001
 40
0.0
 40
0.0
 40
0.0
 40
0.0
 40
1.0
 40
1.0
 40
1.0
 40
1.0
 10
3.166525584457096
 20
3.431008666009584
 30
0.0
 10
3.166525584457096
 20
3.432087605265646
 30
0.0
 10
3.166525584457096
 20
3.432634135970665
 30
0.0
 10
3.166525584457096
 20
3.432634135970665
 30
0.0
  0
SPLINE
  5
E3
330
1F
100
AcDbEntity
  8
0
  6
Continuous
 62
     7
370
    15
100
AcDbSpline
210
0.0
220
0.0
230
1.0
 70
    24
 71
     3
 72
     8
 73
     4
 74
     0
 42
0.00000001
 43
0.00000001
 40
0.0
 40
0.0
 40
0.0
 40
0.0
 40
1.0
 40
1.0
 40
1.0
 40
1.0
 10
2.947775584457095
 20
3.432634135970665
 30
0.0
 10
2.947775584457095
 20
3.432634135970665
 30
0.0
 10
2.947775584457095
 20
3.432087605265646
 30
0.0
 10
2.947775584457095
 20
3.431008666009584
 30
0.0
  0
SPLINE
  5
E4
330
1F
100
AcDbEntity
  8
0
  6
Continuous
 62
     7
370
    15
100
AcDbSpline
210
0.0
220
0.0
230
1.0
 70
    24
 71
     3
 72
     8
 73
     4
 74
     0
 42
0.00000001
 43
0.00000001
 40
0.0
 40
0.0
 40
0.0
 40
0.0
 40
1.0
 40
1.0
 40
1.0
 40
1.0
 10
2.941275584457095
 20
3.431008666009584
 30
0.0
 10
2.941275584457095
 20
3.432087605265646
 30
0.0
 10
2.941275584457095
 20
3.432634135970665
 30
0.0
 10
2.941275584457095
 20
3.432634135970665
 30
0.0
  0
LINE
  5
E5
330
1F
100
AcDbEntity
  8
0
  6
Continuous
 62
     7
370
    15
100
AcDbLine
 10
3.1730255845
 20
3.3569106458
 30
0.0
 11
3.1730255845
 21
3.431008666
 31
0.0
  0
LINE
  5
E6
330
1F
100
AcDbEntity
  8
0
  6
Continuous
 62
     7
370
    15
100
AcDbLine
 10
3.1665255845
 20
3.431008666
 30
0.0
 11
3.1665255845
 21
3.3569106458
 31
0.0
  0
LINE
  5
E7
330
1F
100
AcDbEntity
  8
0
  6
Continuous
 62
     7
370
    15
100
AcDbLine
 10
2.9477755845
 20
3.3569106458
 30
0.0
 11
2.9477755845
 21
3.431008666
 31
0.0
  0
LINE
  5
E8
330
1F
100
AcDbEntity
  8
0
  6
Continuous
 62
     7
370
    15
100
AcDbLine
 10
2.9412755845
 20
3.3569106458
 30
0.0
 11
2.9412755845
 21
3.431008666
 31
0.0
  0
SPLINE
  5
E9
330
1F
100
AcDbEntity
  8
0
  6
Continuous
 62
     7
370
    15
100
AcDbSpline
210
0.0
220
0.0
230
1.0
 70
    24
 71
     3
 72
    14
 73
    10
 74
     0
 42
0.00000001
 43
0.00000001
 40
0.0
 40
0.0
 40
0.0
 40
0.0
 40
0.25
 40
0.25
 40
0.5
 40
0.5
 40
0.75
 40
0.75
 40
1.0
 40
1.0
 40
1.0
 40
1.0
 10
3.173025584457095
 20
3.35691064581973
 30
0.0
 10
3.173025584457095
 20
3.356602503019396
 30
0.0
 10
3.173025584457095
 20
3.356008345653573
 30
0.0
 10
3.173025584457095
 20
3.354194804914153
 30
0.0
 10
3.173025584457095
 20
3.352974268721735
 30
0.0
 10
3.173025584457095
 20
3.350082518636895
 30
0.0
 10
3.173025584457095
 20
3.348417037161561
 30
0.0
 10
3.173025584457095
 20
3.344981855441031
 30
0.0
 10
3.173025584457095
 20
3.343218530179811
 30
0.0
 10
3.173025584457095
 20
3.34155655747991
 30
0.0
  0
SPLINE
  5
EA
330
1F
100
AcDbEntity
  8
0
  6
Continuous
 62
     7
370
    15
100
AcDbSpline
210
0.0
220
0.0
230
1.0
 70
    24
 71
     3
 72
    14
 73
    10
 74
     0
 42
0.00000001
 43
0.00000001
 40
0.0
 40
0.0
 40
0.0
 40
0.0
 40
0.25
 40
0.25
 40
0.5
 40
0.5
 40
0.75
 40
0.75
 40
1.0
 40
1.0
 40
1.0
 40
1.0
 10
3.166525584457095
 20
3.34155655747991
 30
0.0
 10
3.166525584457096
 20
3.343218530179811
 30
0.0
 10
3.166525584457095
 20
3.344981855441031
 30
0.0
 10
3.166525584457096
 20
3.348417037161561
 30
0.0
 10
3.166525584457095
 20
3.350082518636895
 30
0.0
 10
3.166525584457096
 20
3.352974268721735
 30
0.0
 10
3.166525584457095
 20
3.354194804914153
 30
0.0
 10
3.166525584457096
 20
3.356008345653573
 30
0.0
 10
3.166525584457095
 20
3.356602503019396
 30
0.0
 10
3.166525584457096
 20
3.35691064581973
 30
0.0
  0
SPLINE
  5
EB
330
1F
100
AcDbEntity
  8
0
  6
Continuous
 62
     7
370
    15
100
AcDbSpline
210
0.0
220
0.0
230
1.0
 70
    24
 71
     3
 72
    14
 73
    10
 74
     0
 42
0.00000001
 43
0.00000001
 40
0.0
 40
0.0
 40
0.0
 40
0.0
 40
0.25
 40
0.25
 40
0.5
 40
0.5
 40
0.75
 40
0.75
 40
1.0
 40
1.0
 40
1.0
 40
1.0
 10
2.947775584457095
 20
3.35691064581973
 30
0.0
 10
2.947775584457096
 20
3.356602503019396
 30
0.0
 10
2.947775584457095
 20
3.356008345653573
 30
0.0
 10
2.947775584457096
 20
3.354194804914153
 30
0.0
 10
2.947775584457096
 20
3.352974268721735
 30
0.0
 10
2.947775584457095
 20
3.350082518636895
 30
0.0
 10
2.947775584457095
 20
3.348417037161561
 30
0.0
 10
2.947775584457095
 20
3.344981855441031
 30
0.0
 10
2.947775584457095
 20
3.343218530179811
 30
0.0
 10
2.947775584457095
 20
3.34155655747991
 30
0.0
  0
SPLINE
  5
EC
330
1F
100
AcDbEntity
  8
0
  6
Continuous
 62
     7
370
    15
100
AcDbSpline
210
0.0
220
0.0
230
1.0
 70
    24
 71
     3
 72
    14
 73
    10
 74
     0
 42
0.00000001
 43
0.00000001
 40
0.0
 40
0.0
 40
0.0
 40
0.0
 40
0.25
 40
0.25
 40
0.5
 40
0.5
 40
0.75
 40
0.75
 40
1.0
 40
1.0
 40
1.0
 40
1.0
 10
2.941275584457095
 20
3.34155655747991
 30
0.0
 10
2.941275584457095
 20
3.343218530179811
 30
0.0
 10
2.941275584457095
 20
3.344981855441031
 30
0.0
 10
2.941275584457095
 20
3.348417037161561
 30
0.0
 10
2.941275584457095
 20
3.350082518636895
 30
0.0
 10
2.941275584457095
 20
3.352974268721735
 30
0.0
 10
2.941275584457095
 20
3.354194804914154
 30
0.0
 10
2.941275584457095
 20
3.356008345653573
 30
0.0
 10
2.941275584457095
 20
3.356602503019396
 30
0.0
 10
2.941275584457095
 20
3.35691064581973
 30
0.0
  0
SPLINE
  5
ED
330
1F
100
AcDbEntity
  8
0
  6
Continuous
 62
     7
370
    15
100
AcDbSpline
210
0.0
220
0.0
230
1.0
 70
    24
 71
     3
 72
     8
 73
     4
 74
     0
 42
0.00000001
 43
0.00000001
 40
0.0
 40
0.0
 40
0.0
 40
0.0
 40
1.0
 40
1.0
 40
1.0
 40
1.0
 10
3.166525584457096
 20
3.323259135970666
 30
0.0
 10
3.168692251123762
 20
3.323259135970666
 30
0.0
 10
3.170858917790429
 20
3.323259135970666
 30
0.0
 10
3.173025584457096
 20
3.323259135970666
 30
0.0
  0
SPLINE
  5
EE
330
1F
100
AcDbEntity
  8
0
  6
Continuous
 62
     7
370
    15
100
AcDbSpline
210
0.0
220
0.0
230
1.0
 70
    24
 71
     3
 72
    14
 73
    10
 74
     0
 42
0.00000001
 43
0.00000001
 40
0.0
 40
0.0
 40
0.0
 40
0.0
 40
0.25
 40
0.25
 40
0.5
 40
0.5
 40
0.75
 40
0.75
 40
1.0
 40
1.0
 40
1.0
 40
1.0
 10
3.173025584457096
 20
3.338884135970667
 30
0.0
 10
3.173025584457096
 20
3.337042712061327
 30
0.0
 10
3.173025584457096
 20
3.335056045983511
 30
0.0
 10
3.173025584457096
 20
3.331209266284014
 30
0.0
 10
3.173025584457096
 20
3.32936107802928
 30
0.0
 10
3.173025584457096
 20
3.326310106999973
 30
0.0
 10
3.173025584457096
 20
3.325117646268505
 30
0.0
 10
3.173025584457096
 20
3.323594741264627
 30
0.0
 10
3.173025584457096
 20
3.323259135970666
 30
0.0
 10
3.173025584457096
 20
3.323259135970666
 30
0.0
  0
SPLINE
  5
EF
330
1F
100
AcDbEntity
  8
0
  6
Continuous
 62
     7
370
    15
100
AcDbSpline
210
0.0
220
0.0
230
1.0
 70
    24
 71
     3
 72
    14
 73
    10
 74
     0
 42
0.00000001
 43
0.00000001
 40
0.0
 40
0.0
 40
0.0
 40
0.0
 40
0.25
 40
0.25
 40
0.5
 40
0.5
 40
0.75
 40
0.75
 40
1.0
 40
1.0
 40
1.0
 40
1.0
 10
3.166525584457096
 20
3.323259135970666
 30
0.0
 10
3.166525584457096
 20
3.323259135970666
 30
0.0
 10
3.166525584457096
 20
3.323594741264627
 30
0.0
 10
3.166525584457096
 20
3.325117646268505
 30
0.0
 10
3.166525584457096
 20
3.326310106999973
 30
0.0
 10
3.166525584457096
 20
3.32936107802928
 30
0.0
 10
3.166525584457096
 20
3.331209266284014
 30
0.0
 10
3.166525584457096
 20
3.335056045983511
 30
0.0
 10
3.166525584457096
 20
3.337042712061327
 30
0.0
 10
3.166525584457096
 20
3.338884135970667
 30
0.0
  0
SPLINE
  5
F0
330
1F
100
AcDbEntity
  8
0
  6
Continuous
 62
     7
370
    15
100
AcDbSpline
210
0.0
220
0.0
230
1.0
 70
    24
 71
     3
 72
     8
 73
     4
 74
     0
 42
0.00000001
 43
0.00000001
 40
0.0
 40
0.0
 40
0.0
 40
0.0
 40
1.0
 40
1.0
 40
1.0
 40
1.0
 10
2.941275584457096
 20
3.323259135970666
 30
0.0
 10
2.943442251123762
 20
3.323259135970666
 30
0.0
 10
2.945608917790429
 20
3.323259135970666
 30
0.0
 10
2.947775584457096
 20
3.323259135970666
 30
0.0
  0
SPLINE
  5
F1
330
1F
100
AcDbEntity
  8
0
  6
Continuous
 62
     7
370
    15
100
AcDbSpline
210
0.0
220
0.0
230
1.0
 70
    24
 71
     3
 72
    14
 73
    10
 74
     0
 42
0.00000001
 43
0.00000001
 40
0.0
 40
0.0
 40
0.0
 40
0.0
 40
0.25
 40
0.25
 40
0.5
 40
0.5
 40
0.75
 40
0.75
 40
1.0
 40
1.0
 40
1.0
 40
1.0
 10
2.947775584457095
 20
3.338884135970667
 30
0.0
 10
2.947775584457095
 20
3.337042712061327
 30
0.0
 10
2.947775584457095
 20
3.335056045983511
 30
0.0
 10
2.947775584457095
 20
3.331209266284014
 30
0.0
 10
2.947775584457095
 20
3.32936107802928
 30
0.0
 10
2.947775584457095
 20
3.326310106999973
 30
0.0
 10
2.947775584457095
 20
3.325117646268505
 30
0.0
 10
2.947775584457095
 20
3.323594741264627
 30
0.0
 10
2.947775584457095
 20
3.323259135970666
 30
0.0
 10
2.947775584457095
 20
3.323259135970666
 30
0.0
  0
SPLINE
  5
F2
330
1F
100
AcDbEntity
  8
0
  6
Continuous
 62
     7
370
    15
100
AcDbSpline
210
0.0
220
0.0
230
1.0
 70
    24
 71
     3
 72
    14
 73
    10
 74
     0
 42
0.00000001
 43
0.00000001
 40
0.0
 40
0.0
 40
0.0
 40
0.0
 40
0.25
 40
0.25
 40
0.5
 40
0.5
 40
0.75
 40
0.75
 40
1.0
 40
1.0
 40
1.0
 40
1.0
 10
2.941275584457096
 20
3.323259135970666
 30
0.0
 10
2.941275584457096
 20
3.323259135970666
 30
0.0
 10
2.941275584457096
 20
3.323594741264627
 30
0.0
 10
2.941275584457095
 20
3.325117646268505
 30
0.0
 10
2.941275584457095
 20
3.326310106999973
 30
0.0
 10
2.941275584457095
 20
3.32936107802928
 30
0.0
 10
2.941275584457095
 20
3.331209266284014
 30
0.0
 10
2.941275584457095
 20
3.335056045983511
 30
0.0
 10
2.941275584457095
 20
3.337042712061327
 30
0.0
 10
2.941275584457095
 20
3.338884135970667
 30
0.0
  0
LINE
  5
F3
330
1F
100
AcDbEntity
  8
0
  6
Continuous
 62
     7
370
    15
100
AcDbLine
 10
2.9477755845
 20
3.338884136
 30
0.0
 11
2.9477755845
 21
3.3415565575
 31
0.0
  0
LINE
  5
F4
330
1F
100
AcDbEntity
  8
0
  6
Continuous
 62
     7
370
    15
100
AcDbLine
 10
2.9412755845
 20
3.338884136
 30
0.0
 11
2.9412755845
 21
3.3415565575
 31
0.0
  0
LINE
  5
F5
330
1F
100
AcDbEntity
  8
0
  6
Continuous
 62
     7
370
    15
100
AcDbLine
 10
3.1730255845
 20
3.338884136
 30
0.0
 11
3.1730255845
 21
3.3415565575
 31
0.0
  0
LINE
  5
F6
330
1F
100
AcDbEntity
  8
0
  6
Continuous
 62
     7
370
    15
100
AcDbLine
 10
3.1665255845
 20
3.3415565575
 30
0.0
 11
3.1665255845
 21
3.338884136
 31
0.0
  0
LWPOLYLINE
  5
F7
330
1F
100
AcDbEntity
  8
0
  6
Continuous
 62
     7
370
    15
100
AcDbPolyline
 90
       64
 70
   128
 43
0.0
 10
3.1879657371
 20
3.385759136
 10
3.1879345207
 20
3.3867257854
 10
3.1878411819
 20
3.3876828279
 10
3.1876866482
 20
3.3886207518
 10
3.1874724555
 20
3.3895302358
 10
3.1872007325
 20
3.3904022408
 10
3.1868741798
 20
3.3912281006
 10
3.1864960427
 20
3.3919996073
 10
3.1860700794
 20
3.3927090935
 10
3.1856005233
 20
3.3933495078
 10
3.1850920409
 20
3.3939144856
 10
3.184549686
 20
3.3943984119
 10
3.1839788486
 20
3.3947964772
 10
3.1833852019
 20
3.3951047253
 10
3.182774646
 20
3.3953200928
 10
3.1821532487
 20
3.3954404392
 10
3.1815271858
 20
3.3954645684
 10
3.1809026794
 20
3.3953922407
 10
3.1802859361
 20
3.3952241749
 10
3.1796830854
 20
3.3949620412
 10
3.1791001186
 20
3.394608445
 10
3.1785428297
 20
3.3941669003
 10
3.1780167571
 20
3.3936417955
 10
3.1775271293
 20
3.3930383493
 10
3.1770788122
 20
3.392362559
 10
3.1766762617
 20
3.3916211409
 10
3.1763234782
 20
3.3908214636
 10
3.176023968
 20
3.3899714746
 10
3.1757807078
 20
3.3890796214
 10
3.1755961152
 20
3.3881547678
 10
3.1754720247
 20
3.3872061054
 10
3.1754096695
 20
3.3862430623
 10
3.1754096695
 20
3.3852752097
 10
3.1754720247
 20
3.3843121666
 10
3.1755961152
 20
3.3833635041
 10
3.1757807078
 20
3.3824386505
 10
3.176023968
 20
3.3815467974
 10
3.1763234782
 20
3.3806968084
 10
3.1766762617
 20
3.379897131
 10
3.1770788122
 20
3.379155713
 10
3.1775271293
 20
3.3784799227
 10
3.1780167571
 20
3.3778764764
 10
3.1785428297
 20
3.3773513716
 10
3.1791001186
 20
3.376909827
 10
3.1796830854
 20
3.3765562307
 10
3.1802859361
 20
3.3762940971
 10
3.1809026794
 20
3.3761260312
 10
3.1815271858
 20
3.3760537035
 10
3.1821532487
 20
3.3760778328
 10
3.182774646
 20
3.3761981791
 10
3.1833852019
 20
3.3764135466
 10
3.1839788486
 20
3.3767217947
 10
3.184549686
 20
3.37711986
 10
3.1850920409
 20
3.3776037863
 10
3.1856005233
 20
3.3781687641
 10
3.1860700794
 20
3.3788091785
 10
3.1864960427
 20
3.3795186646
 10
3.1868741798
 20
3.3802901714
 10
3.1872007325
 20
3.3811160311
 10
3.1874724555
 20
3.3819880362
 10
3.1876866482
 20
3.3828975201
 10
3.1878411819
 20
3.383835444
 10
3.1879345207
 20
3.3847924865
 10
3.1879657371
 20
3.385759136
  0
LWPOLYLINE
  5
F8
330
1F
100
AcDbEntity
  8
0
  6
Continuous
 62
     7
370
    15
100
AcDbPolyline
 90
       64
 70
   128
 43
0.0
 10
2.9388993083
 20
3.362321636
 10
2.938868092
 20
3.3632882854
 10
2.9387747531
 20
3.3642453279
 10
2.9386202194
 20
3.3651832518
 10
2.9384060267
 20
3.3660927358
 10
2.9381343038
 20
3.3669647408
 10
2.937807751
 20
3.3677906006
 10
2.937429614
 20
3.3685621073
 10
2.9370036507
 20
3.3692715935
 10
2.9365340945
 20
3.3699120078
 10
2.9360256122
 20
3.3704769856
 10
2.9354832573
 20
3.3709609119
 10
2.9349124198
 20
3.3713589772
 10
2.9343187732
 20
3.3716672253
 10
2.9337082172
 20
3.3718825928
 10
2.9330868199
 20
3.3720029392
 10
2.932460757
 20
3.3720270684
 10
2.9318362506
 20
3.3719547407
 10
2.9312195073
 20
3.3717866749
 10
2.9306166566
 20
3.3715245412
 10
2.9300336899
 20
3.371170945
 10
2.929476401
 20
3.3707294003
 10
2.9289503284
 20
3.3702042955
 10
2.9284607005
 20
3.3696008493
 10
2.9280123835
 20
3.368925059
 10
2.9276098329
 20
3.3681836409
 10
2.9272570495
 20
3.3673839636
 10
2.9269575393
 20
3.3665339746
 10
2.9267142791
 20
3.3656421214
 10
2.9265296864
 20
3.3647172678
 10
2.9264055959
 20
3.3637686054
 10
2.9263432408
 20
3.3628055623
 10
2.9263432408
 20
3.3618377097
 10
2.9264055959
 20
3.3608746666
 10
2.9265296864
 20
3.3599260041
 10
2.9267142791
 20
3.3590011505
 10
2.9269575393
 20
3.3581092974
 10
2.9272570495
 20
3.3572593084
 10
2.9276098329
 20
3.356459631
 10
2.9280123835
 20
3.355718213
 10
2.9284607005
 20
3.3550424227
 10
2.9289503284
 20
3.3544389764
 10
2.929476401
 20
3.3539138716
 10
2.9300336899
 20
3.353472327
 10
2.9306166566
 20
3.3531187307
 10
2.9312195073
 20
3.3528565971
 10
2.9318362506
 20
3.3526885312
 10
2.932460757
 20
3.3526162035
 10
2.9330868199
 20
3.3526403328
 10
2.9337082172
 20
3.3527606791
 10
2.9343187732
 20
3.3529760466
 10
2.9349124198
 20
3.3532842947
 10
2.9354832573
 20
3.35368236
 10
2.9360256122
 20
3.3541662863
 10
2.9365340945
 20
3.3547312641
 10
2.9370036507
 20
3.3553716785
 10
2.937429614
 20
3.3560811646
 10
2.937807751
 20
3.3568526714
 10
2.9381343038
 20
3.3576785311
 10
2.9384060267
 20
3.3585505362
 10
2.9386202194
 20
3.3594600201
 10
2.9387747531
 20
3.360397944
 10
2.938868092
 20
3.3613549865
 10
2.9388993083
 20
3.362321636
  0
LWPOLYLINE
  5
F9
330
1F
100
AcDbEntity
  8
0
  6
Continuous
 62
     7
370
    15
100
AcDbPolyline
 90
       29
 70
   128
 43
0.0
 10
3.1772361971
 20
3.3789028915
 10
3.1774293831
 20
3.3789097764
 10
3.1779470487
 20
3.3789928981
 10
3.1784548533
 20
3.3791691411
 10
3.1789458081
 20
3.3794360795
 10
3.1794131563
 20
3.3797900398
 10
3.179850466
 20
3.3802261504
 10
3.1802517186
 20
3.3807384093
 10
3.1806113919
 20
3.3813197666
 10
3.1809245358
 20
3.3819622211
 10
3.1811868406
 20
3.3826569312
 10
3.1813946964
 20
3.3833943357
 10
3.1815452425
 20
3.384164286
 10
3.181636407
 20
3.3849561856
 10
3.1816669352
 20
3.385759136
 10
3.181636407
 20
3.3865620863
 10
3.1815452425
 20
3.3873539859
 10
3.1813946964
 20
3.3881239363
 10
3.1811868406
 20
3.3888613407
 10
3.1809245358
 20
3.3895560508
 10
3.1806113919
 20
3.3901985054
 10
3.1802517186
 20
3.3907798626
 10
3.179850466
 20
3.3912921216
 10
3.1794131563
 20
3.3917282322
 10
3.1789458081
 20
3.3920821924
 10
3.1784548533
 20
3.3923491309
 10
3.1779470487
 20
3.3925253738
 10
3.1774293831
 20
3.3926084956
 10
3.1772361971
 20
3.3926153804
  0
LWPOLYLINE
  5
FA
330
1F
100
AcDbEntity
  8
0
  6
Continuous
 62
     7
370
    15
100
AcDbPolyline
 90
       29
 70
   128
 43
0.0
 10
2.9370649718
 20
3.3691778804
 10
2.9368717859
 20
3.3691709956
 10
2.9363541202
 20
3.3690878738
 10
2.9358463156
 20
3.3689116309
 10
2.9353553608
 20
3.3686446924
 10
2.9348880126
 20
3.3682907322
 10
2.934450703
 20
3.3678546216
 10
2.9340494503
 20
3.3673423626
 10
2.933689777
 20
3.3667610054
 10
2.9333766331
 20
3.3661185508
 10
2.9331143283
 20
3.3654238407
 10
2.9329064725
 20
3.3646864363
 10
2.9327559264
 20
3.3639164859
 10
2.932664762
 20
3.3631245863
 10
2.9326342337
 20
3.362321636
 10
2.932664762
 20
3.3615186856
 10
2.9327559264
 20
3.360726786
 10
2.9329064725
 20
3.3599568357
 10
2.9331143283
 20
3.3592194312
 10
2.9333766331
 20
3.3585247211
 10
2.933689777
 20
3.3578822666
 10
2.9340494503
 20
3.3573009093
 10
2.934450703
 20
3.3567886504
 10
2.9348880126
 20
3.3563525398
 10
2.9353553608
 20
3.3559985795
 10
2.9358463156
 20
3.3557316411
 10
2.9363541202
 20
3.3555553981
 10
2.9368717859
 20
3.3554722764
 10
2.9370649718
 20
3.3554653915
  0
ELLIPSE
  5
FB
330
1F
100
AcDbEntity
  8
0
  6
Continuous
 62
     7
370
    15
100
AcDbEllipse
 10
2.9550255845
 20
3.448259136
 30
0.0
 11
0.0
 21
0.009166666666666767
 31
0.0
210
0.0
220
0.0
230
1.0
 40
0.7909090909
 41
0.7853981633973757
 42
1.570796326794897
  0
ELLIPSE
  5
FC
330
1F
100
AcDbEntity
  8
0
  6
Continuous
 62
     7
370
    15
100
AcDbEllipse
 10
2.9550255845
 20
3.479509136
 30
0.0
 11
0.0
 21
0.009166666666666767
 31
0.0
210
0.0
220
0.0
230
1.0
 40
0.7909090909
 41
1.570796326794897
 42
2.356194490192383
  0
ELLIPSE
  5
FD
330
1F
100
AcDbEntity
  8
0
  6
Continuous
 62
     7
370
    15
100
AcDbEllipse
 10
3.1592755845
 20
3.448259136
 30
0.0
 11
0.0
 21
0.009166666666666767
 31
0.0
210
0.0
220
0.0
230
1.0
 40
0.7909090909
 41
4.7123889803847
 42
5.497787143782187
  0
ELLIPSE
  5
FE
330
1F
100
AcDbEntity
  8
0
  6
Continuous
 62
     7
370
    15
100
AcDbEllipse
 10
3.1592755845
 20
3.479509136
 30
0.0
 11
0.0
 21
0.009166666666666767
 31
0.0
210
0.0
220
0.0
230
1.0
 40
0.7909090909
 41
3.926990816987221
 42
4.7123889803847
  0
LINE
  5
FF
330
1F
100
AcDbEntity
  8
0
  6
Continuous
 62
     7
370
    15
100
AcDbLine
 10
2.9498990603
 20
3.4730273238
 30
0.0
 11
2.9636138421
 21
3.463884136
 31
0.0
  0
LINE
  5
100
330
1F
100
AcDbEntity
  8
0
  6
Continuous
 62
     7
370
    15
100
AcDbLine
 10
2.9636138421
 20
3.463884136
 30
0.0
 11
2.9498990603
 21
3.4547409481
 31
0.0
  0
LINE
  5
101
330
1F
100
AcDbEntity
  8
0
  6
Continuous
 62
     7
370
    15
100
AcDbLine
 10
3.1644021086
 20
3.4547409481
 30
0.0
 11
3.1506873269
 21
3.463884136
 31
0.0
  0
LINE
  5
102
330
1F
100
AcDbEntity
  8
0
  6
Continuous
 62
     7
370
    15
100
AcDbLine
 10
3.1506873269
 20
3.463884136
 30
0.0
 11
3.1644021086
 21
3.4730273238
 31
0.0
  0
LINE
  5
103
330
1F
100
AcDbEntity
  8
0
  6
Continuous
 62
     7
370
    15
100
AcDbLine
 10
2.9477755845
 20
3.323259136
 30
0.0
 11
2.9534005845
 21
3.323259136
 31
0.0
  0
LINE
  5
104
330
1F
100
AcDbEntity
  8
0
  6
Continuous
 62
     7
370
    15
100
AcDbLine
 10
2.9477755845
 20
3.573259136
 30
0.0
 11
2.9534005845
 21
3.573259136
 31
0.0
  0
LINE
  5
105
330
1F
100
AcDbEntity
  8
0
  6
Continuous
 62
     7
370
    15
100
AcDbLine
 10
3.1609005845
 20
3.323259136
 30
0.0
 11
3.1665255845
 21
3.323259136
 31
0.0
  0
LINE
  5
106
330
1F
100
AcDbEntity
  8
0
  6
Continuous
 62
     7
370
    15
100
AcDbLine
 10
3.1609005845
 20
3.573259136
 30
0.0
 11
3.1665255845
 21
3.573259136
 31
0.0
  0
LINE
  5
107
330
1F
100
AcDbEntity
  8
0
  6
Continuous
 62
     7
370
    15
100
AcDbLine
 10
3.1178141667
 20
3.3682977182
 30
0.0
 11
3.1040255845
 21
3.354509136
 31
0.0
  0
LINE
  5
108
330
1F
100
AcDbEntity
  8
0
  6
Continuous
 62
     7
370
    15
100
AcDbLine
 10
3.1040255845
 20
3.3820863004
 30
0.0
 11
3.1178141667
 21
3.3682977182
 31
0.0
  0
LINE
  5
109
330
1F
100
AcDbEntity
  8
0
  6
Continuous
 62
     7
370
    15
100
AcDbLine
 10
3.0902370022
 20
3.3682977182
 30
0.0
 11
3.1040255845
 21
3.3820863004
 31
0.0
  0
LINE
  5
10A
330
1F
100
AcDbEntity
  8
0
  6
Continuous
 62
     7
370
    15
100
AcDbLine
 10
3.1040255845
 20
3.354509136
 30
0.0
 11
3.0902370022
 21
3.3682977182
 31
0.0
  0
LINE
  5
10B
330
1F
100
AcDbEntity
  8
0
  6
Continuous
 62
     7
370
    15
100
AcDbLine
 10
3.0102755845
 20
3.3820863004
 30
0.0
 11
2.9964870022
 21
3.3682977182
 31
0.0
  0
LINE
  5
10C
330
1F
100
AcDbEntity
  8
0
  6
Continuous
 62
     7
370
    15
100
AcDbLine
 10
2.9964870022
 20
3.3682977182
 30
0.0
 11
3.0102755845
 21
3.354509136
 31
0.0
  0
LINE
  5
10D
330
1F
100
AcDbEntity
  8
0
  6
Continuous
 62
     7
370
    15
100
AcDbLine
 10
3.0102755845
 20
3.354509136
 30
0.0
 11
3.0240641667
 21
3.3682977182
 31
0.0
  0
LINE
  5
10E
330
1F
100
AcDbEntity
  8
0
  6
Continuous
 62
     7
370
    15
100
AcDbLine
 10
3.0240641667
 20
3.3682977182
 30
0.0
 11
3.0102755845
 21
3.3820863004
 31
0.0
  0
LINE
  5
10F
330
1F
100
AcDbEntity
  8
0
  6
Continuous
 62
     7
370
    15
100
AcDbLine
 10
2.9534005845
 20
3.323259136
 30
0.0
 11
3.1609005845
 21
3.323259136
 31
0.0
  0
LINE
  5
110
330
1F
100
AcDbEntity
  8
0
  6
Continuous
 62
     7
370
    15
100
AcDbLine
 10
2.9534005845
 20
3.573259136
 30
0.0
 11
3.1609005845
 21
3.573259136
 31
0.0
  0
LINE
  5
111
330
1F
100
AcDbEntity
  8
0
  6
Continuous
 62
     7
370
    15
100
AcDbLine
 10
0.8835165245
 20
2.2900275621
 30
0.0
 11
1.0653915245
 21
2.2900275621
 31
0.0
  0
LINE
  5
112
330
1F
100
AcDbEntity
  8
0
  6
Continuous
 62
     7
370
    15
100
AcDbLine
 10
0.8835165245
 20
2.2965275621
 30
0.0
 11
0.8835165245
 21
2.2900275621
 31
0.0
  0
LINE
  5
113
330
1F
100
AcDbEntity
  8
0
  6
Continuous
 62
     7
370
    15
100
AcDbLine
 10
0.8835165245
 20
2.2965275621
 30
0.0
 11
1.0653915245
 21
2.2965275621
 31
0.0
  0
ARC
  5
114
330
1F
100
AcDbEntity
  8
0
  6
Continuous
 62
     7
370
    15
100
AcDbCircle
 10
1.0653915245
 20
2.2844025621
 30
0.0
 40
0.0121250000000002
100
AcDbArc
 50
0.0
 51
90.0
  0
ARC
  5
115
330
1F
100
AcDbEntity
  8
0
  6
Continuous
 62
     7
370
    15
100
AcDbCircle
 10
1.0653915245
 20
2.2844025621
 30
0.0
 40
0.0056250000000002
100
AcDbArc
 50
0.0
 51
90.0
  0
LINE
  5
116
330
1F
100
AcDbEntity
  8
0
  6
Continuous
 62
     7
370
    15
100
AcDbLine
 10
1.0775165245
 20
2.2844025621
 30
0.0
 11
1.0775165245
 21
2.2431525621
 31
0.0
  0
LINE
  5
117
330
1F
100
AcDbEntity
  8
0
  6
Continuous
 62
     7
370
    15
100
AcDbLine
 10
1.0710165245
 20
2.2431525621
 30
0.0
 11
1.0775165245
 21
2.2431525621
 31
0.0
  0
LINE
  5
118
330
1F
100
AcDbEntity
  8
0
  6
Continuous
 62
     7
370
    15
100
AcDbLine
 10
1.0710165245
 20
2.2844025621
 30
0.0
 11
1.0710165245
 21
2.2431525621
 31
0.0
  0
LINE
  5
119
330
1F
100
AcDbEntity
  8
0
  6
Continuous
 62
     7
370
    15
100
AcDbLine
 10
1.0710165245
 20
2.23280771
 30
0.0
 11
1.0710165245
 21
2.2431525621
 31
0.0
  0
LINE
  5
11A
330
1F
100
AcDbEntity
  8
0
  6
Continuous
 62
     7
370
    15
100
AcDbLine
 10
1.0775165245
 20
2.2431525621
 30
0.0
 11
1.0775165245
 21
2.23280771
 31
0.0
  0
LINE
  5
11B
330
1F
100
AcDbEntity
  8
0
  6
Continuous
 62
     7
370
    15
100
AcDbLine
 10
1.0710165245
 20
2.1047293575
 30
0.0
 11
1.0710165245
 21
2.23280771
 31
0.0
  0
LINE
  5
11C
330
1F
100
AcDbEntity
  8
0
  6
Continuous
 62
     7
370
    15
100
AcDbLine
 10
1.0775165245
 20
2.1047293575
 30
0.0
 11
1.0775165245
 21
2.23280771
 31
0.0
  0
LINE
  5
11D
330
1F
100
AcDbEntity
  8
0
  6
Continuous
 62
     7
370
    15
100
AcDbLine
 10
1.0710165245
 20
2.0629190618
 30
0.0
 11
1.0710165245
 21
2.1047293575
 31
0.0
  0
LINE
  5
11E
330
1F
100
AcDbEntity
  8
0
  6
Continuous
 62
     7
370
    15
100
AcDbLine
 10
1.0775165245
 20
2.1047293575
 30
0.0
 11
1.0775165245
 21
2.0629190618
 31
0.0
  0
LINE
  5
11F
330
1F
100
AcDbEntity
  8
0
  6
Continuous
 62
     7
370
    15
100
AcDbLine
 10
1.0710165245
 20
1.2532320582
 30
0.0
 11
1.0710165245
 21
2.0629190618
 31
0.0
  0
LINE
  5
120
330
1F
100
AcDbEntity
  8
0
  6
Continuous
 62
     7
370
    15
100
AcDbLine
 10
1.0775165245
 20
1.2532320582
 30
0.0
 11
1.0775165245
 21
2.0629190618
 31
0.0
  0
LINE
  5
121
330
1F
100
AcDbEntity
  8
0
  6
Continuous
 62
     7
370
    15
100
AcDbLine
 10
1.0710165245
 20
1.2358500714
 30
0.0
 11
1.0710165245
 21
1.2532320582
 31
0.0
  0
LINE
  5
122
330
1F
100
AcDbEntity
  8
0
  6
Continuous
 62
     7
370
    15
100
AcDbLine
 10
1.0775165245
 20
1.2532320582
 30
0.0
 11
1.0775165245
 21
1.2358500714
 31
0.0
  0
LINE
  5
123
330
1F
100
AcDbEntity
  8
0
  6
Continuous
 62
     7
370
    15
100
AcDbLine
 10
1.0710165245
 20
0.842838349
 30
0.0
 11
1.0710165245
 21
1.2358500714
 31
0.0
  0
LINE
  5
124
330
1F
100
AcDbEntity
  8
0
  6
Continuous
 62
     7
370
    15
100
AcDbLine
 10
1.0775165245
 20
0.842838349
 30
0.0
 11
1.0775165245
 21
1.2358500714
 31
0.0
  0
LINE
  5
125
330
1F
100
AcDbEntity
  8
0
  6
Continuous
 62
     7
370
    15
100
AcDbLine
 10
1.0775165245
 20
0.8304025621
 30
0.0
 11
1.0710165245
 21
0.8304025621
 31
0.0
  0
LINE
  5
126
330
1F
100
AcDbEntity
  8
0
  6
Continuous
 62
     7
370
    15
100
AcDbLine
 10
1.0710165245
 20
0.8304025621
 30
0.0
 11
1.0710165245
 21
0.842838349
 31
0.0
  0
LINE
  5
127
330
1F
100
AcDbEntity
  8
0
  6
Continuous
 62
     7
370
    15
100
AcDbLine
 10
1.0775165245
 20
0.842838349
 30
0.0
 11
1.0775165245
 21
0.8304025621
 31
0.0
  0
LWPOLYLINE
  5
128
330
1F
100
AcDbEntity
  8
0
  6
Continuous
 62
     7
370
    15
100
AcDbPolyline
 90
       64
 70
   128
 43
0.0
 10
1.3040790245
 20
0.7009189715
 10
1.3031123751
 20
0.7008821887
 10
1.3021553326
 20
0.700772206
 10
1.3012174087
 20
0.7005901164
 10
1.3003079247
 20
0.7003377296
 10
1.2994359197
 20
0.700017554
 10
1.2986100599
 20
0.6996327715
 10
1.2978385532
 20
0.6991872064
 10
1.297129067
 20
0.6986852868
 10
1.2964886527
 20
0.698132001
 10
1.2959236749
 20
0.697532848
 10
1.2954397486
 20
0.6968937822
 10
1.2950416833
 20
0.696221155
 10
1.2947334352
 20
0.6955216514
 10
1.2945180677
 20
0.6948022232
 10
1.2943977213
 20
0.6940700205
 10
1.2943735921
 20
0.6933323203
 10
1.2944459198
 20
0.6925964541
 10
1.2946139857
 20
0.6918697353
 10
1.2948761193
 20
0.6911593864
 10
1.2952297155
 20
0.6904724671
 10
1.2956712602
 20
0.6898158044
 10
1.296196365
 20
0.6891959244
 10
1.2967998112
 20
0.6886189878
 10
1.2974756015
 20
0.6880907284
 10
1.2982170196
 20
0.6876163964
 10
1.2990166969
 20
0.6872007059
 10
1.299866686
 20
0.6868477881
 10
1.3007585391
 20
0.6865611506
 10
1.3016833927
 20
0.686343642
 10
1.3026320552
 20
0.6861974241
 10
1.3035950983
 20
0.6861239501
 10
1.3045629508
 20
0.6861239501
 10
1.3055259939
 20
0.6861974241
 10
1.3064746564
 20
0.686343642
 10
1.30739951
 20
0.6865611506
 10
1.3082913631
 20
0.6868477881
 10
1.3091413521
 20
0.6872007059
 10
1.3099410295
 20
0.6876163964
 10
1.3106824476
 20
0.6880907284
 10
1.3113582379
 20
0.6886189878
 10
1.3119616841
 20
0.6891959244
 10
1.3124867889
 20
0.6898158044
 10
1.3129283335
 20
0.6904724671
 10
1.3132819298
 20
0.6911593864
 10
1.3135440634
 20
0.6918697353
 10
1.3137121293
 20
0.6925964541
 10
1.313784457
 20
0.6933323203
 10
1.3137603277
 20
0.6940700205
 10
1.3136399814
 20
0.6948022232
 10
1.3134246139
 20
0.6955216514
 10
1.3131163658
 20
0.696221155
 10
1.3127183005
 20
0.6968937822
 10
1.3122343742
 20
0.697532848
 10
1.3116693964
 20
0.698132001
 10
1.3110289821
 20
0.6986852868
 10
1.3103194959
 20
0.6991872064
 10
1.3095479892
 20
0.6996327715
 10
1.3087221294
 20
0.700017554
 10
1.3078501243
 20
0.7003377296
 10
1.3069406404
 20
0.7005901164
 10
1.3060027165
 20
0.700772206
 10
1.305045674
 20
0.7008821887
 10
1.3040790245
 20
0.7009189715
  0
ELLIPSE
  5
129
330
1F
100
AcDbEntity
  8
0
  6
Continuous
 62
     7
370
    15
100
AcDbEllipse
 10
1.3040790245
 20
0.6889009813
 30
0.0
 11
0.0
 21
0.006592450894073787
 31
0.0
210
0.0
220
0.0
230
1.0
 40
0.6938842233
 41
5.785049941146114
 42
6.78132067321301
  0
ARC
  5
12A
330
1F
100
AcDbEntity
  8
0
  6
Continuous
 62
     7
370
    15
100
AcDbCircle
 10
1.3024087971
 20
0.6896478579
 30
0.0
 40
0.0050706846362194
100
AcDbArc
 50
95.8334126942
 51
199.0399901636
  0
ARC
  5
12B
330
1F
100
AcDbEntity
  8
0
  6
Continuous
 62
     7
370
    15
100
AcDbCircle
 10
1.305749252
 20
0.6896478579
 30
0.0
 40
0.0050706846362254
100
AcDbArc
 50
340.9600098369
 51
84.1665873058
  0
SPLINE
  5
12C
330
1F
100
AcDbEntity
  8
0
  6
Continuous
 62
     7
370
    15
100
AcDbSpline
210
0.0
220
0.0
230
1.0
 70
     8
 71
     3
 72
    14
 73
    10
 74
     0
 42
0.00000001
 43
0.00000001
 40
0.0
 40
0.0
 40
0.0
 40
0.0
 40
0.25
 40
0.25
 40
0.5
 40
0.5
 40
0.75
 40
0.75
 40
1.0
 40
1.0
 40
1.0
 40
1.0
 10
1.071016524539149
 20
0.8304025621478753
 30
0.0
 10
1.071016524539149
 20
0.8303152604593014
 30
0.0
 10
1.071332105834545
 20
0.8302279587707275
 30
0.0
 10
1.072546864580353
 20
0.8300533553935796
 30
0.0
 10
1.07344556407507
 20
0.8299660537050058
 30
0.0
 10
1.075690145559453
 20
0.829791450327858
 30
0.0
 10
1.077035144402151
 20
0.829704148639284
 30
0.0
 10
1.079967831441292
 20
0.8295295452621362
 30
0.0
 10
1.081554365750616
 20
0.8294422435735622
 30
0.0
 10
1.083141524539148
 20
0.8293549418849884
 30
0.0
  0
SPLINE
  5
12D
330
1F
100
AcDbEntity
  8
0
  6
Continuous
 62
     7
370
    15
100
AcDbSpline
210
0.0
220
0.0
230
1.0
 70
     8
 71
     3
 72
    14
 73
    10
 74
     0
 42
0.00000001
 43
0.00000001
 40
0.0
 40
0.0
 40
0.0
 40
0.0
 40
0.25
 40
0.25
 40
0.5
 40
0.5
 40
0.75
 40
0.75
 40
1.0
 40
1.0
 40
1.0
 40
1.0
 10
1.077516524539148
 20
0.8304025621478753
 30
0.0
 10
1.077516524539148
 20
0.8303152604593014
 30
0.0
 10
1.077662928232889
 20
0.8302279587707275
 30
0.0
 10
1.078226476104656
 20
0.8300533553935796
 30
0.0
 10
1.078643398550659
 20
0.8299660537050058
 30
0.0
 10
1.07968469923929
 20
0.829791450327858
 30
0.0
 10
1.080308667774562
 20
0.829704148639284
 30
0.0
 10
1.081669192689628
 20
0.8295295452621362
 30
0.0
 10
1.082405213760963
 20
0.8294422435735622
 30
0.0
 10
1.083141524539149
 20
0.8293549418849884
 30
0.0
  0
SPLINE
  5
12E
330
1F
100
AcDbEntity
  8
0
  6
Continuous
 62
     7
370
    15
100
AcDbSpline
210
0.0
220
0.0
230
1.0
 70
     8
 71
     3
 72
    14
 73
    10
 74
     0
 42
0.00000001
 43
0.00000001
 40
0.0
 40
0.0
 40
0.0
 40
0.0
 40
0.25
 40
0.25
 40
0.5
 40
0.5
 40
0.75
 40
0.75
 40
1.0
 40
1.0
 40
1.0
 40
1.0
 10
1.083141524539149
 20
2.242906031388701
 30
0.0
 10
1.082405213760963
 20
2.242926575618631
 30
0.0
 10
1.081669192689628
 20
2.242947119848563
 30
0.0
 10
1.080308667774562
 20
2.242988208308425
 30
0.0
 10
1.07968469923929
 20
2.243008752538357
 30
0.0
 10
1.078643398550659
 20
2.24304984099822
 30
0.0
 10
1.078226476104656
 20
2.243070385228151
 30
0.0
 10
1.077662928232889
 20
2.243111473688013
 30
0.0
 10
1.077516524539148
 20
2.243132017917944
 30
0.0
 10
1.077516524539148
 20
2.243152562147875
 30
0.0
  0
SPLINE
  5
12F
330
1F
100
AcDbEntity
  8
0
  6
Continuous
 62
     7
370
    15
100
AcDbSpline
210
0.0
220
0.0
230
1.0
 70
     8
 71
     3
 72
    10
 73
     6
 74
     0
 42
0.00000001
 43
0.00000001
 40
0.0
 40
0.0
 40
0.0
 40
0.0
 40
0.5
 40
0.5
 40
1.0
 40
1.0
 40
1.0
 40
1.0
 10
1.102451891462267
 20
2.232807710011077
 30
0.0
 10
1.10004961109718
 20
2.235476910416729
 30
0.0
 10
1.097080800680078
 20
2.237820771196335
 30
0.0
 10
1.090442819693065
 20
2.24130932408066
 30
0.0
 10
1.086785779142917
 20
2.242445546107052
 30
0.0
 10
1.083141524539148
 20
2.242906031388701
 30
0.0
  0
LINE
  5
130
330
1F
100
AcDbEntity
  8
0
  6
Continuous
 62
     7
370
    15
100
AcDbLine
 10
1.2177224087
 20
2.1047293575
 30
0.0
 11
1.1024518915
 21
2.23280771
 31
0.0
  0
SPLINE
  5
131
330
1F
100
AcDbEntity
  8
0
  6
Continuous
 62
     7
370
    15
100
AcDbSpline
210
0.0
220
0.0
230
1.0
 70
     8
 71
     3
 72
    14
 73
    10
 74
     0
 42
0.00000001
 43
0.00000001
 40
0.0
 40
0.0
 40
0.0
 40
0.0
 40
0.25
 40
0.25
 40
0.5
 40
0.5
 40
0.75
 40
0.75
 40
1.0
 40
1.0
 40
1.0
 40
1.0
 10
1.233766524539148
 20
2.062919061820975
 30
0.0
 10
1.233766524539148
 20
2.066650976062468
 30
0.0
 10
1.23342957309779
 20
2.070445861553858
 30
0.0
 10
1.232046765141013
 20
2.077974282599909
 30
0.0
 10
1.231000708359551
 20
2.081706746555513
 30
0.0
 10
1.228234892179954
 20
2.088914347984356
 30
0.0
 10
1.226515533313905
 20
2.092388441687708
 30
0.0
 10
1.22250711820895
 20
2.098909322735413
 30
0.0
 10
1.220218927688595
 20
2.101955447537379
 30
0.0
 10
1.217722408679596
 20
2.104729357547377
 30
0.0
  0
LINE
  5
132
330
1F
100
AcDbEntity
  8
0
  6
Continuous
 62
     7
370
    15
100
AcDbLine
 10
1.2337665245
 20
1.2532320582
 30
0.0
 11
1.2337665245
 21
2.0629190618
 31
0.0
  0
SPLINE
  5
133
330
1F
100
AcDbEntity
  8
0
  6
Continuous
 62
     7
370
    15
100
AcDbSpline
210
0.0
220
0.0
230
1.0
 70
     8
 71
     3
 72
     8
 73
     4
 74
     0
 42
0.00000001
 43
0.00000001
 40
0.0
 40
0.0
 40
0.0
 40
0.0
 40
1.0
 40
1.0
 40
1.0
 40
1.0
 10
1.235391994500229
 20
1.235850071354147
 30
0.0
 10
1.234313055244167
 20
1.241568449411275
 30
0.0
 10
1.233766524539148
 20
1.247412783497895
 30
0.0
 10
1.233766524539149
 20
1.253232058153943
 30
0.0
  0
LINE
  5
134
330
1F
100
AcDbEntity
  8
0
  6
Continuous
 62
     7
370
    15
100
AcDbLine
 10
1.3094900147
 20
0.8431305643
 30
0.0
 11
1.2353919945
 21
1.2358500714
 31
0.0
  0
SPLINE
  5
135
330
1F
100
AcDbEntity
  8
0
  6
Continuous
 62
     7
370
    15
100
AcDbSpline
210
0.0
220
0.0
230
1.0
 70
     8
 71
     3
 72
    14
 73
    10
 74
     0
 42
0.00000001
 43
0.00000001
 40
0.0
 40
0.0
 40
0.0
 40
0.0
 40
0.25
 40
0.25
 40
0.5
 40
0.5
 40
0.75
 40
0.75
 40
1.0
 40
1.0
 40
1.0
 40
1.0
 10
1.324844103029905
 20
0.8304025621478752
 30
0.0
 10
1.323182130330005
 20
0.8304025621478752
 30
0.0
 10
1.321418805068784
 20
0.83067450010643
 30
0.0
 10
1.317983623348254
 20
0.8318718919514991
 30
0.0
 10
1.31631814187292
 20
0.8327997218246456
 30
0.0
 10
1.31342639178808
 20
0.8351968815014164
 30
0.0
 10
1.312205855595661
 20
0.8366614593317752
 30
0.0
 10
1.310392314856242
 20
0.839815074823583
 30
0.0
 10
1.309798157490419
 20
0.8414974075061399
 30
0.0
 10
1.309490014690085
 20
0.8431305643479093
 30
0.0
  0
LINE
  5
136
330
1F
100
AcDbEntity
  8
0
  6
Continuous
 62
     7
370
    15
100
AcDbLine
 10
1.3275165245
 20
0.8304025621
 30
0.0
 11
1.324844103
 21
0.8304025621
 31
0.0
  0
SPLINE
  5
137
330
1F
100
AcDbEntity
  8
0
  6
Continuous
 62
     7
370
    15
100
AcDbSpline
210
0.0
220
0.0
230
1.0
 70
     8
 71
     3
 72
    14
 73
    10
 74
     0
 42
0.00000001
 43
0.00000001
 40
0.0
 40
0.0
 40
0.0
 40
0.0
 40
0.25
 40
0.25
 40
0.5
 40
0.5
 40
0.75
 40
0.75
 40
1.0
 40
1.0
 40
1.0
 40
1.0
 10
1.343141524539148
 20
0.8147775621478754
 30
0.0
 10
1.343141524539148
 20
0.8166189860572154
 30
0.0
 10
1.342805919245188
 20
0.8186056521350314
 30
0.0
 10
1.34128301424131
 20
0.8224524318345279
 30
0.0
 10
1.340090553509842
 20
0.8243006200892616
 30
0.0
 10
1.337039582480535
 20
0.8273515911185686
 30
0.0
 10
1.335191394225801
 20
0.8285440518500372
 30
0.0
 10
1.331344614526305
 20
0.8300669568539145
 30
0.0
 10
1.329357948448488
 20
0.8304025621478753
 30
0.0
 10
1.327516524539148
 20
0.8304025621478752
 30
0.0
  0
LINE
  5
138
330
1F
100
AcDbEntity
  8
0
  6
Continuous
 62
     7
370
    15
100
AcDbLine
 10
1.3431415245
 20
0.8147775621
 30
0.0
 11
1.3431415245
 21
0.5456525621
 31
0.0
  0
LINE
  5
139
330
1F
100
AcDbEntity
  8
0
  6
Continuous
 62
     7
370
    15
100
AcDbLine
 10
1.0931415245
 20
0.8147775621
 30
0.0
 11
1.0931415245
 21
0.5456525621
 31
0.0
  0
ARC
  5
13A
330
1F
100
AcDbEntity
  8
0
  6
Continuous
 62
     7
370
    15
100
AcDbCircle
 10
1.0775165245
 20
0.8147775621
 30
0.0
 40
0.0156250000000002
100
AcDbArc
 50
0.0
 51
68.8998039759
  0
LINE
  5
13B
330
1F
100
AcDbEntity
  8
0
  6
Continuous
 62
     7
370
    15
100
AcDbLine
 10
1.2181415245
 20
0.6181525621
 30
0.0
 11
1.2025165245
 21
0.5947150621
 31
0.0
  0
LINE
  5
13C
330
1F
100
AcDbEntity
  8
0
  6
Continuous
 62
     7
370
    15
100
AcDbLine
 10
1.2025165245
 20
0.5947150621
 30
0.0
 11
1.1868915245
 21
0.6181525621
 31
0.0
  0
LINE
  5
13D
330
1F
100
AcDbEntity
  8
0
  6
Continuous
 62
     7
370
    15
100
AcDbLine
 10
1.3431415245
 20
0.5456525621
 30
0.0
 11
1.3431415245
 21
0.5335275621
 31
0.0
  0
LINE
  5
13E
330
1F
100
AcDbEntity
  8
0
  6
Continuous
 62
     7
370
    15
100
AcDbLine
 10
1.3431415245
 20
0.5335275621
 30
0.0
 11
1.0931415245
 21
0.5335275621
 31
0.0
  0
LINE
  5
13F
330
1F
100
AcDbEntity
  8
0
  6
Continuous
 62
     7
370
    15
100
AcDbLine
 10
1.0931415245
 20
0.5456525621
 30
0.0
 11
1.0931415245
 21
0.5335275621
 31
0.0
  0
ARC
  5
140
330
1F
100
AcDbEntity
  8
0
  6
Continuous
 62
     7
370
    15
100
AcDbCircle
 10
1.3040790245
 20
0.6806525621
 30
0.0
 40
0.0142088220836538
100
AcDbArc
 50
81.1516626924
 51
98.8483373076
  0
ENDSEC
  0
SECTION
  2
OBJECTS
  0
DICTIONARY
  5
C
330
0
100
AcDbDictionary
281
     1
  3
ACAD_GROUP
350
D
  3
ACAD_LAYOUT
350
1A
  3
ACAD_MLINESTYLE
350
17
  3
ACAD_PLOTSETTINGS
350
19
  3
ACAD_PLOTSTYLENAME
350
E
  0
DICTIONARY
  5
D
102
{ACAD_REACTORS
330
C
102
}
330
C
100
AcDbDictionary
281
     1
  0
DICTIONARY
  5
1A
102
{ACAD_REACTORS
330
C
102
}
330
C
100
AcDbDictionary
281
     1
  3
Layout1
350
1E
  3
Layout2
350
26
  3
Model
350
22
  0
DICTIONARY
  5
17
102
{ACAD_REACTORS
330
C
102
}
330
C
100
AcDbDictionary
281
     1
  3
Standard
350
18
  0
DICTIONARY
  5
19
102
{ACAD_REACTORS
330
C
102
}
330
C
100
AcDbDictionary
281
     1
  0
ACDBDICTIONARYWDFLT
  5
E
102
{ACAD_REACTORS
330
C
102
}
330
C
100
AcDbDictionary
281
     1
  3
Normal
350
F
100
AcDbDictionaryWithDefault
340
F
  0
LAYOUT
  5
1E
102
{ACAD_REACTORS
330
1A
102
}
330
1A
100
AcDbPlotSettings
  1

  2
none_device
  4

  6

 40
0.0
 41
0.0
 42
0.0
 43
0.0
 44
0.0
 45
0.0
 46
0.0
 47
0.0
 48
0.0
 49
0.0
140
0.0
141
0.0
142
1.0
143
1.0
 70
   688
 72
     0
 73
     0
 74
     5
  7

 75
    16
147
1.0
148
0.0
149
0.0
100
AcDbLayout
  1
Layout1
 70
     1
 71
     1
 10
0.0
 20
0.0
 11
12.0
 21
9.0
 12
0.0
 22
0.0
 32
0.0
 14
1.0000000000E+20
 24
1.0000000000E+20
 34
1.0000000000E+20
 15
-1.0000000000E+20
 25
-1.0000000000E+20
 35
-1.0000000000E+20
146
0.0
 13
0.0
 23
0.0
 33
0.0
 16
1.0
 26
0.0
 36
0.0
 17
0.0
 27
1.0
 37
0.0
 76
     0
330
1B
  0
LAYOUT
  5
26
102
{ACAD_REACTORS
330
1A
102
}
330
1A
100
AcDbPlotSettings
  1

  2
none_device
  4

  6

 40
0.0
 41
0.0
 42
0.0
 43
0.0
 44
0.0
 45
0.0
 46
0.0
 47
0.0
 48
0.0
 49
0.0
140
0.0
141
0.0
142
1.0
143
1.0
 70
   688
 72
     0
 73
     0
 74
     5
  7

 75
    16
147
1.0
148
0.0
149
0.0
100
AcDbLayout
  1
Layout2
 70
     1
 71
     2
 10
0.0
 20
0.0
 11
0.0
 21
0.0
 12
0.0
 22
0.0
 32
0.0
 14
0.0
 24
0.0
 34
0.0
 15
0.0
 25
0.0
 35
0.0
146
0.0
 13
0.0
 23
0.0
 33
0.0
 16
1.0
 26
0.0
 36
0.0
 17
0.0
 27
1.0
 37
0.0
 76
     0
330
23
  0
LAYOUT
  5
22
102
{ACAD_REACTORS
330
1A
102
}
330
1A
100
AcDbPlotSettings
  1

  2
none_device
  4

  6

 40
0.0
 41
0.0
 42
0.0
 43
0.0
 44
0.0
 45
0.0
 46
0.0
 47
0.0
 48
0.0
 49
0.0
140
0.0
141
0.0
142
1.0
143
1.0
 70
  1712
 72
     0
 73
     0
 74
     0
  7

 75
     0
147
1.0
148
0.0
149
0.0
100
AcDbLayout
  1
Model
 70
     1
 71
     0
 10
0.0
 20
0.0
 11
0.0
 21
0.0
 12
0.0
 22
0.0
 32
0.0
 14
0.0
 24
0.0
 34
0.0
 15
4.0
 25
4.0
 35
0.0
146
0.0
 13
0.0
 23
0.0
 33
0.0
 16
1.0
 26
0.0
 36
0.0
 17
0.0
 27
1.0
 37
0.0
 76
     0
330
1F
  0
MLINESTYLE
  5
18
102
{ACAD_REACTORS
330
17
102
}
330
17
100
AcDbMlineStyle
  2
Standard
 70
     0
  3

 62
   256
 51
90.0
 52
90.0
 71
     2
 49
0.5
 62
   256
  6
BYLAYER
 49
-0.5
 62
   256
  6
BYLAYER
  0
ACDBPLACEHOLDER
  5
F
102
{ACAD_REACTORS
330
E
102
}
330
E
  0
ENDSEC
  0
EOF
