  0
SECTION
  2
HEADER
  9
$ACADVER
  1
AC1014
  9
$ACADMAINTVER
 70
     9
  9
$DWGCODEPAGE
  3
ANSI_1252
  9
$INSBASE
 10
0.0
 20
0.0
 30
0.0
  9
$EXTMIN
 10
0.0003661829982491
 20
0.000302295030302
 30
0.0
  9
$EXTMAX
 10
10.2588774631227
 20
9.91749723139938
 30
0.0
  9
$LIMMIN
 10
0.0
 20
0.0
  9
$LIMMAX
 10
12.0
 20
9.0
  9
$ORTHOMODE
 70
     0
  9
$REGENMODE
 70
     1
  9
$FILLMODE
 70
     1
  9
$QTEXTMODE
 70
     0
  9
$MIRRTEXT
 70
     1
  9
$DRAGMODE
 70
     2
  9
$LTSCALE
 40
1.0
  9
$OSMODE
 70
    37
  9
$ATTMODE
 70
     1
  9
$TEXTSIZE
 40
0.5
  9
$TRACEWID
 40
0.05
  9
$TEXTSTYLE
  7
STANDARD
  9
$CLAYER
  8
0
  9
$CELTYPE
  6
BYLAYER
  9
$CECOLOR
 62
   256
  9
$CELTSCALE
 40
1.0
  9
$DELOBJ
 70
     1
  9
$DISPSILH
 70
     0
  9
$DIMSCALE
 40
1.0
  9
$DIMASZ
 40
0.18
  9
$DIMEXO
 40
0.0625
  9
$DIMDLI
 40
0.38
  9
$DIMRND
 40
0.0
  9
$DIMDLE
 40
0.0
  9
$DIMEXE
 40
0.18
  9
$DIMTP
 40
0.0
  9
$DIMTM
 40
0.0
  9
$DIMTXT
 40
0.18
  9
$DIMCEN
 40
0.09
  9
$DIMTSZ
 40
0.0
  9
$DIMTOL
 70
     0
  9
$DIMLIM
 70
     0
  9
$DIMTIH
 70
     1
  9
$DIMTOH
 70
     1
  9
$DIMSE1
 70
     0
  9
$DIMSE2
 70
     0
  9
$DIMTAD
 70
     0
  9
$DIMZIN
 70
     0
  9
$DIMBLK
  1

  9
$DIMASO
 70
     1
  9
$DIMSHO
 70
     1
  9
$DIMPOST
  1

  9
$DIMAPOST
  1

  9
$DIMALT
 70
     0
  9
$DIMALTD
 70
     2
  9
$DIMALTF
 40
25.4
  9
$DIMLFAC
 40
1.0
  9
$DIMTOFL
 70
     0
  9
$DIMTVP
 40
0.0
  9
$DIMTIX
 70
     0
  9
$DIMSOXD
 70
     0
  9
$DIMSAH
 70
     0
  9
$DIMBLK1
  1

  9
$DIMBLK2
  1

  9
$DIMSTYLE
  2
STANDARD
  9
$DIMCLRD
 70
     0
  9
$DIMCLRE
 70
     0
  9
$DIMCLRT
 70
     0
  9
$DIMTFAC
 40
1.0
  9
$DIMGAP
 40
0.09
  9
$DIMJUST
 70
     0
  9
$DIMSD1
 70
     0
  9
$DIMSD2
 70
     0
  9
$DIMTOLJ
 70
     1
  9
$DIMTZIN
 70
     0
  9
$DIMALTZ
 70
     0
  9
$DIMALTTZ
 70
     0
  9
$DIMFIT
 70
     3
  9
$DIMUPT
 70
     0
  9
$DIMUNIT
 70
     2
  9
$DIMDEC
 70
     4
  9
$DIMTDEC
 70
     4
  9
$DIMALTU
 70
     2
  9
$DIMALTTD
 70
     2
  9
$DIMTXSTY
  7
STANDARD
  9
$DIMAUNIT
 70
     0
  9
$LUNITS
 70
     2
  9
$LUPREC
 70
     4
  9
$SKETCHINC
 40
0.1
  9
$FILLETRAD
 40
0.5
  9
$AUNITS
 70
     0
  9
$AUPREC
 70
     0
  9
$MENU
  1
.
  9
$ELEVATION
 40
0.0
  9
$PELEVATION
 40
0.0
  9
$THICKNESS
 40
0.0
  9
$LIMCHECK
 70
     0
  9
$BLIPMODE
 70
     0
  9
$CHAMFERA
 40
0.5
  9
$CHAMFERB
 40
0.5
  9
$CHAMFERC
 40
1.0
  9
$CHAMFERD
 40
0.0
  9
$SKPOLY
 70
     0
  9
$TDCREATE
 40
2451667.537949421
  9
$TDUPDATE
 40
2452759.747039386
  9
$TDINDWG
 40
0.1256847801
  9
$TDUSRTIMER
 40
0.1256847801
  9
$USRTIMER
 70
     1
  9
$ANGBASE
 50
0.0
  9
$ANGDIR
 70
     0
  9
$PDMODE
 70
     0
  9
$PDSIZE
 40
0.0
  9
$PLINEWID
 40
0.0
  9
$COORDS
 70
     1
  9
$SPLFRAME
 70
     0
  9
$SPLINETYPE
 70
     6
  9
$SPLINESEGS
 70
     8
  9
$ATTDIA
 70
     0
  9
$ATTREQ
 70
     1
  9
$HANDLING
 70
     1
  9
$HANDSEED
  5
EE
  9
$SURFTAB1
 70
     6
  9
$SURFTAB2
 70
     6
  9
$SURFTYPE
 70
     6
  9
$SURFU
 70
     6
  9
$SURFV
 70
     6
  9
$UCSNAME
  2

  9
$UCSORG
 10
0.0
 20
0.0
 30
0.0
  9
$UCSXDIR
 10
1.0
 20
0.0
 30
0.0
  9
$UCSYDIR
 10
0.0
 20
1.0
 30
0.0
  9
$PUCSNAME
  2

  9
$PUCSORG
 10
0.0
 20
0.0
 30
0.0
  9
$PUCSXDIR
 10
1.0
 20
0.0
 30
0.0
  9
$PUCSYDIR
 10
0.0
 20
1.0
 30
0.0
  9
$USERI1
 70
     0
  9
$USERI2
 70
     0
  9
$USERI3
 70
     0
  9
$USERI4
 70
     0
  9
$USERI5
 70
     0
  9
$USERR1
 40
0.0
  9
$USERR2
 40
0.0
  9
$USERR3
 40
0.0
  9
$USERR4
 40
0.0
  9
$USERR5
 40
0.0
  9
$WORLDVIEW
 70
     1
  9
$SHADEDGE
 70
     3
  9
$SHADEDIF
 70
    70
  9
$TILEMODE
 70
     1
  9
$MAXACTVP
 70
    48
  9
$PINSBASE
 10
0.0
 20
0.0
 30
0.0
  9
$PLIMCHECK
 70
     0
  9
$PEXTMIN
 10
1.000000000000000E+20
 20
1.000000000000000E+20
 30
1.000000000000000E+20
  9
$PEXTMAX
 10
-1.000000000000000E+20
 20
-1.000000000000000E+20
 30
-1.000000000000000E+20
  9
$PLIMMIN
 10
0.0
 20
0.0
  9
$PLIMMAX
 10
12.0
 20
9.0
  9
$UNITMODE
 70
     0
  9
$VISRETAIN
 70
     1
  9
$PLINEGEN
 70
     0
  9
$PSLTSCALE
 70
     1
  9
$TREEDEPTH
 70
  3020
  9
$PICKSTYLE
 70
     1
  9
$CMLSTYLE
  2
STANDARD
  9
$CMLJUST
 70
     0
  9
$CMLSCALE
 40
1.0
  9
$PROXYGRAPHICS
 70
     1
  9
$MEASUREMENT
 70
     0
  0
ENDSEC
  0
SECTION
  2
CLASSES
  0
CLASS
  1
ACDBDICTIONARYWDFLT
  2
AcDbDictionaryWithDefault
  3
AutoCAD 2000
 90
        0
280
     1
281
     0
  0
CLASS
  1
ACDBPLACEHOLDER
  2
AcDbPlaceHolder
  3
AutoCAD 2000
 90
        0
280
     1
281
     0
  0
CLASS
  1
LAYOUT
  2
AcDbLayout
  3
AutoCAD 2000
 90
        0
280
     1
281
     0
  0
CLASS
  1
LONG_TRANSACTION
  2
AcDbLongTransaction
  3
AutoCAD 2000
 90
        0
280
     1
281
     0
  0
CLASS
  1
LWPOLYLINE
  2
AcDbPolyline
  3
"AutoCAD"
 90
        0
280
     1
281
     1
  0
CLASS
  1
HATCH
  2
AcDbHatch
  3
"ACAD_SEDONA"
 90
        0
280
     1
281
     1
  0
CLASS
  1
XRECORD
  2
AcDbXrecord
  3
"<Built In>"
 90
        0
280
     0
281
     0
  0
CLASS
  1
LONG_TRANSACTION
  2
AcDbLongTransaction
  3
AutoCAD 2000
 90
        0
280
     1
281
     0
  0
CLASS
  1
LWPOLYLINE
  2
AcDbPolyline
  3
"AutoCAD"
 90
        0
280
     1
281
     1
  0
CLASS
  1
HATCH
  2
AcDbHatch
  3
"ACAD_SEDONA"
 90
        0
280
     1
281
     1
  0
CLASS
  1
XRECORD
  2
AcDbXrecord
  3
"<Built In>"
 90
        0
280
     0
281
     0
  0
CLASS
  1
LONG_TRANSACTION
  2
AcDbLongTransaction
  3
AutoCAD 2000
 90
        0
280
     1
281
     0
  0
CLASS
  1
LWPOLYLINE
  2
AcDbPolyline
  3
"AutoCAD"
 90
        0
280
     1
281
     1
  0
CLASS
  1
HATCH
  2
AcDbHatch
  3
"ACAD_SEDONA"
 90
        0
280
     1
281
     1
  0
CLASS
  1
XRECORD
  2
AcDbXrecord
  3
"<Built In>"
 90
        0
280
     0
281
     0
  0
CLASS
  1
LONG_TRANSACTION
  2
AcDbLongTransaction
  3
AutoCAD 2000
 90
        0
280
     1
281
     0
  0
CLASS
  1
LWPOLYLINE
  2
AcDbPolyline
  3
"AutoCAD"
 90
        0
280
     1
281
     1
  0
CLASS
  1
HATCH
  2
AcDbHatch
  3
"ACAD_SEDONA"
 90
        0
280
     1
281
     1
  0
CLASS
  1
XRECORD
  2
AcDbXrecord
  3
"<Built In>"
 90
        0
280
     0
281
     0
  0
CLASS
  1
LONG_TRANSACTION
  2
AcDbLongTransaction
  3
AutoCAD 2000
 90
        0
280
     1
281
     0
  0
CLASS
  1
LWPOLYLINE
  2
AcDbPolyline
  3
"AutoCAD"
 90
        0
280
     1
281
     1
  0
CLASS
  1
HATCH
  2
AcDbHatch
  3
"ACAD_SEDONA"
 90
        0
280
     1
281
     1
  0
CLASS
  1
XRECORD
  2
AcDbXrecord
  3
"<Built In>"
 90
        0
280
     0
281
     0
  0
CLASS
  1
DICTIONARYVAR
  2
AcDbDictionaryVar
  3
"AutoCAD"
 90
        0
280
     0
281
     0
  0
CLASS
  1
LONG_TRANSACTION
  2
AcDbLongTransaction
  3
AutoCAD 2000
 90
        0
280
     0
281
     0
  0
CLASS
  1
LWPOLYLINE
  2
AcDbPolyline
  3
"AutoCAD"
 90
        0
280
     0
281
     1
  0
CLASS
  1
HATCH
  2
AcDbHatch
  3
"ACAD_SEDONA"
 90
        0
280
     0
281
     1
  0
CLASS
  1
XRECORD
  2
AcDbXrecord
  3
"<Built In>"
 90
        0
280
     0
281
     0
  0
CLASS
  1
LONG_TRANSACTION
  2
AcDbLongTransaction
  3
AutoCAD 2000
 90
        0
280
     0
281
     0
  0
CLASS
  1
LWPOLYLINE
  2
AcDbPolyline
  3
"AutoCAD"
 90
        0
280
     0
281
     1
  0
CLASS
  1
HATCH
  2
AcDbHatch
  3
"ACAD_SEDONA"
 90
        0
280
     0
281
     1
  0
CLASS
  1
XRECORD
  2
AcDbXrecord
  3
"<Built In>"
 90
        0
280
     0
281
     0
  0
ENDSEC
  0
SECTION
  2
TABLES
  0
TABLE
  2
VPORT
  5
CE
100
AcDbSymbolTable
 70
     1
  0
VPORT
  5
EA
100
AcDbSymbolTableRecord
100
AcDbViewportTableRecord
  2
*ACTIVE
 70
     0
 10
0.0
 20
0.0
 11
1.0
 21
1.0
 12
5.124088308862644
 22
5.074679610522586
 13
0.0
 23
0.0
 14
0.5
 24
0.5
 15
0.5
 25
0.5
 16
0.0
 26
0.0
 36
1.0
 17
0.0
 27
0.0
 37
0.0
 40
10.22171105340694
 41
1.457627118644067
 42
50.0
 43
0.0
 44
0.0
 50
0.0
 51
0.0
 71
     0
 72
   100
 73
     1
 74
     3
 75
     0
 76
     0
 77
     0
 78
     0
  0
ENDTAB
  0
TABLE
  2
LTYPE
  5
C7
100
AcDbSymbolTable
 70
     2
  0
LTYPE
  5
C8
102
{ACAD_XDICTIONARY
360
C9
102
}
100
AcDbSymbolTableRecord
100
AcDbLinetypeTableRecord
  2
BYBLOCK
 70
     0
  3

 72
    65
 73
     0
 40
0.0
  0
LTYPE
  5
CA
102
{ACAD_XDICTIONARY
360
CB
102
}
100
AcDbSymbolTableRecord
100
AcDbLinetypeTableRecord
  2
BYLAYER
 70
     0
  3

 72
    65
 73
     0
 40
0.0
  0
LTYPE
  5
5
102
{ACAD_XDICTIONARY
360
6
102
}
100
AcDbSymbolTableRecord
100
AcDbLinetypeTableRecord
  2
CONTINUOUS
 70
     0
  3
Solid line
 72
    65
 73
     0
 40
0.0
  0
LTYPE
  5
91
100
AcDbSymbolTableRecord
100
AcDbLinetypeTableRecord
  2
HIDDEN
 70
     0
  3
Hidden __ __ __ __ __ __ __ __ __ __ __ __ __ _
 72
    65
 73
     2
 40
0.375
 49
0.25
 74
     0
 49
-0.125
 74
     0
  0
ENDTAB
  0
TABLE
  2
LAYER
  5
C5
100
AcDbSymbolTable
 70
     5
  0
LAYER
  5
33
100
AcDbSymbolTableRecord
100
AcDbLayerTableRecord
  2
0
 70
     0
 62
     7
  6
CONTINUOUS
  0
LAYER
  5
4
100
AcDbSymbolTableRecord
100
AcDbLayerTableRecord
  2
USP
 70
     0
 62
     7
  6
CONTINUOUS
  0
LAYER
  5
90
100
AcDbSymbolTableRecord
100
AcDbLayerTableRecord
  2
USP-HID
 70
     0
 62
     7
  6
HIDDEN
  0
LAYER
  5
D
100
AcDbSymbolTableRecord
100
AcDbLayerTableRecord
  2
USP-GEO
 70
     0
 62
     7
  6
CONTINUOUS
  0
LAYER
  5
9
100
AcDbSymbolTableRecord
100
AcDbLayerTableRecord
  2
USP-TXT
 70
     0
 62
     7
  6
CONTINUOUS
  0
ENDTAB
  0
TABLE
  2
STYLE
  5
C6
100
AcDbSymbolTable
 70
     1
  0
STYLE
  5
A
102
{ACAD_XDICTIONARY
360
B
102
}
100
AcDbSymbolTableRecord
100
AcDbTextStyleTableRecord
  2
STANDARD
 70
     0
 40
0.0
 41
1.0
 50
0.0
 71
     0
 42
0.5
  3
txt
  4

  0
ENDTAB
  0
TABLE
  2
VIEW
  5
CC
100
AcDbSymbolTable
 70
     0
  0
ENDTAB
  0
TABLE
  2
UCS
  5
CD
100
AcDbSymbolTable
 70
     0
  0
ENDTAB
  0
TABLE
  2
APPID
  5
D0
100
AcDbSymbolTable
 70
     1
  0
APPID
  5
D1
100
AcDbSymbolTableRecord
100
AcDbRegAppTableRecord
  2
ACAD
 70
     0
  0
ENDTAB
  0
TABLE
  2
DIMSTYLE
  5
D2
100
AcDbSymbolTable
 70
     1
  0
DIMSTYLE
105
DB
102
{ACAD_XDICTIONARY
360
DC
102
}
100
AcDbSymbolTableRecord
100
AcDbDimStyleTableRecord
  2
STANDARD
 70
     0
  3

  4

  5

  6

  7

 40
1.0
 41
0.18
 42
0.0625
 43
0.38
 44
0.18
 45
0.0
 46
0.0
 47
0.0
 48
0.0
140
0.18
141
0.09
142
0.0
143
25.4
144
1.0
145
0.0
146
1.0
147
0.09
 71
     0
 72
     0
 73
     1
 74
     1
 75
     0
 76
     0
 77
     0
 78
     0
170
     0
171
     2
172
     0
173
     0
174
     0
175
     0
176
     0
177
     0
178
     0
270
     2
271
     4
272
     4
273
     2
274
     2
340
A
275
     0
280
     0
281
     0
282
     0
283
     1
284
     0
285
     0
286
     0
287
     3
288
     0
  0
ENDTAB
  0
TABLE
  2
BLOCK_RECORD
  5
1
100
AcDbSymbolTable
 70
     3
  0
BLOCK_RECORD
  5
2
102
{ACAD_XDICTIONARY
360
BC
102
}
100
AcDbSymbolTableRecord
100
AcDbBlockTableRecord
  2
*MODEL_SPACE
  0
BLOCK_RECORD
  5
C0
102
{ACAD_XDICTIONARY
360
C1
102
}
100
AcDbSymbolTableRecord
100
AcDbBlockTableRecord
  2
*PAPER_SPACE
  0
BLOCK_RECORD
  5
7
100
AcDbSymbolTableRecord
100
AcDbBlockTableRecord
  2
SUH46_T
  0
BLOCK_RECORD
  5
36
100
AcDbSymbolTableRecord
100
AcDbBlockTableRecord
  2
SUH46_F
  0
BLOCK_RECORD
  5
87
100
AcDbSymbolTableRecord
100
AcDbBlockTableRecord
  2
SUH46_S
  0
ENDTAB
  0
ENDSEC
  0
SECTION
  2
BLOCKS
  0
BLOCK
  5
BE
100
AcDbEntity
  8
0
100
AcDbBlockBegin
  2
*MODEL_SPACE
 70
     0
 10
0.0
 20
0.0
 30
0.0
  3
*MODEL_SPACE
  1

  0
ENDBLK
  5
BF
100
AcDbEntity
  8
0
100
AcDbBlockEnd
  0
BLOCK
  5
C3
100
AcDbEntity
 67
     1
  8
0
100
AcDbBlockBegin
  2
*PAPER_SPACE
 70
     0
 10
0.0
 20
0.0
 30
0.0
  3
*PAPER_SPACE
  1

  0
ENDBLK
  5
C4
100
AcDbEntity
 67
     1
  8
0
100
AcDbBlockEnd
  0
BLOCK
  5
32
100
AcDbEntity
  8
0
100
AcDbBlockBegin
  2
SUH46_T
 70
     0
 10
0.0
 20
0.0
 30
0.0
  3
SUH46_T
  1

  0
TEXT
  5
8
100
AcDbEntity
  8
USP-TXT
100
AcDbText
 10
1.067999999999984
 20
-0.8190115573183049
 30
0.0
 40
0.23625
  1
SUH46 - TOP VIEW
 72
     1
 11
2.957999999999984
 21
-0.8190115573183049
 31
0.0
100
AcDbText
  0
LINE
  5
C
100
AcDbEntity
  8
USP-GEO
100
AcDbLine
 10
3.832999999999984
 20
1.98950000000002
 30
0.0
 11
4.739888312796566
 21
1.98950000000002
 31
0.0
  0
LINE
  5
E
100
AcDbEntity
  8
USP-GEO
100
AcDbLine
 10
3.832999999999984
 20
0.0625
 30
0.0
 11
4.73899999999999
 21
0.0625
 31
0.0
  0
LINE
  5
F
100
AcDbEntity
  8
USP-GEO
100
AcDbLine
 10
1.125
 20
0.0
 30
0.0
 11
1.125
 21
1.9375
 31
0.0
  0
LINE
  5
10
100
AcDbEntity
  8
USP-GEO
100
AcDbLine
 10
1.176999999999992
 20
0.0
 30
0.0
 11
1.176999999999992
 21
1.98950000000002
 31
0.0
  0
LINE
  5
11
100
AcDbEntity
  8
USP-GEO
100
AcDbLine
 10
1.176999999999992
 20
0.0625
 30
0.0
 11
2.082999999999984
 21
0.0625
 31
0.0
  0
LINE
  5
12
100
AcDbEntity
  8
USP-GEO
100
AcDbLine
 10
1.125
 20
0.7500000000000142
 30
0.0
 11
1.176999999999992
 21
0.7500000000000142
 31
0.0
  0
LINE
  5
13
100
AcDbEntity
  8
USP-GEO
100
AcDbLine
 10
1.176999999999992
 20
0.0
 30
0.0
 11
1.125
 21
0.0
 31
0.0
  0
LINE
  5
14
100
AcDbEntity
  8
USP-GEO
100
AcDbLine
 10
2.145499999999984
 20
0.0
 30
0.0
 11
3.770499999999984
 21
0.0
 31
0.0
  0
ARC
  5
15
100
AcDbEntity
  8
USP-GEO
100
AcDbCircle
 10
2.082999999999984
 20
0.0
 30
0.0
 40
0.0625
100
AcDbArc
 50
0.0
 51
90.0
  0
ARC
  5
16
100
AcDbEntity
  8
USP-GEO
100
AcDbCircle
 10
3.832999999999984
 20
0.0
 30
0.0
 40
0.0625
100
AcDbArc
 50
90.0
 51
180.0
  0
ARC
  5
17
100
AcDbEntity
  8
USP-GEO
100
AcDbCircle
 10
1.114499999999992
 20
1.98950000000002
 30
0.0
 40
0.0625
100
AcDbArc
 50
0.0
 51
90.0
  0
LINE
  5
18
100
AcDbEntity
  8
USP-GEO
100
AcDbLine
 10
1.17611168720299
 20
1.98950000000002
 30
0.0
 11
2.082999999999984
 21
1.98950000000002
 31
0.0
  0
LINE
  5
19
100
AcDbEntity
  8
USP-GEO
100
AcDbLine
 10
0.0
 20
2.0
 30
0.0
 11
1.0625
 21
2.0
 31
0.0
  0
LINE
  5
1A
100
AcDbEntity
  8
USP-GEO
100
AcDbLine
 10
0.0
 20
2.05200000000002
 30
0.0
 11
1.114499999999992
 21
2.05200000000002
 31
0.0
  0
LINE
  5
1B
100
AcDbEntity
  8
USP-GEO
100
AcDbLine
 10
0.0
 20
2.05200000000002
 30
0.0
 11
0.0
 21
2.0
 31
0.0
  0
ARC
  5
1C
100
AcDbEntity
  8
USP-GEO
100
AcDbCircle
 10
1.0625
 20
1.9375
 30
0.0
 40
0.0625
100
AcDbArc
 50
0.0
 51
90.0
  0
LINE
  5
1D
100
AcDbEntity
  8
USP-GEO
100
AcDbLine
 10
0.7812499999997869
 20
2.0
 30
0.0
 11
0.7812499999997869
 21
1.8125
 31
0.0
  0
LINE
  5
1E
100
AcDbEntity
  8
USP-GEO
100
AcDbLine
 10
1.125
 20
1.125
 30
0.0
 11
1.176999999999992
 21
1.125
 31
0.0
  0
LINE
  5
1F
100
AcDbEntity
  8
USP-GEO
100
AcDbLine
 10
0.5937499999997016
 20
2.0
 30
0.0
 11
0.5937499999997016
 21
1.8125
 31
0.0
  0
LINE
  5
20
100
AcDbEntity
  8
USP-GEO
100
AcDbLine
 10
0.5937499999997016
 20
1.8125
 30
0.0
 11
0.7812499999997869
 21
1.8125
 31
0.0
  0
LINE
  5
21
100
AcDbEntity
  8
USP-GEO
100
AcDbLine
 10
2.145499999999984
 20
2.05200000000002
 30
0.0
 11
3.770499999999984
 21
2.05200000000002
 31
0.0
  0
ARC
  5
22
100
AcDbEntity
  8
USP-GEO
100
AcDbCircle
 10
2.082999999999984
 20
2.05200000000002
 30
0.0
 40
0.0625
100
AcDbArc
 50
270.0
 51
0.0
  0
ARC
  5
23
100
AcDbEntity
  8
USP-GEO
100
AcDbCircle
 10
3.832999999999984
 20
2.05200000000002
 30
0.0
 40
0.0625
100
AcDbArc
 50
180.0
 51
270.0
  0
LINE
  5
24
100
AcDbEntity
  8
USP-GEO
100
AcDbLine
 10
4.73899999999999
 20
0.0
 30
0.0
 11
4.73899999999999
 21
1.98950000000002
 31
0.0
  0
LINE
  5
25
100
AcDbEntity
  8
USP-GEO
100
AcDbLine
 10
4.790999999999982
 20
0.0
 30
0.0
 11
4.790999999999982
 21
1.9375
 31
0.0
  0
LINE
  5
26
100
AcDbEntity
  8
USP-GEO
100
AcDbLine
 10
4.73899999999999
 20
0.75
 30
0.0
 11
4.790999999999982
 21
0.75
 31
0.0
  0
LINE
  5
27
100
AcDbEntity
  8
USP-GEO
100
AcDbLine
 10
4.73899999999999
 20
0.0
 30
0.0
 11
4.790999999999982
 21
0.0
 31
0.0
  0
LINE
  5
28
100
AcDbEntity
  8
USP-GEO
100
AcDbLine
 10
5.915999999999982
 20
2.05200000000002
 30
0.0
 11
4.80149999999999
 21
2.05200000000002
 31
0.0
  0
LINE
  5
29
100
AcDbEntity
  8
USP-GEO
100
AcDbLine
 10
5.915999999999982
 20
2.0
 30
0.0
 11
4.853499999999982
 21
2.0
 31
0.0
  0
LINE
  5
2A
100
AcDbEntity
  8
USP-GEO
100
AcDbLine
 10
5.322250000000281
 20
1.8125
 30
0.0
 11
5.134750000000195
 21
1.8125
 31
0.0
  0
LINE
  5
2B
100
AcDbEntity
  8
USP-GEO
100
AcDbLine
 10
5.134750000000209
 20
2.0
 30
0.0
 11
5.134750000000195
 21
1.8125
 31
0.0
  0
LINE
  5
2C
100
AcDbEntity
  8
USP-GEO
100
AcDbLine
 10
5.322250000000281
 20
2.0
 30
0.0
 11
5.322250000000281
 21
1.8125
 31
0.0
  0
ARC
  5
2D
100
AcDbEntity
  8
USP-GEO
100
AcDbCircle
 10
4.853499999999982
 20
1.9375
 30
0.0
 40
0.0625
100
AcDbArc
 50
90.0
 51
180.0
  0
ARC
  5
2E
100
AcDbEntity
  8
USP-GEO
100
AcDbCircle
 10
4.80149999999999
 20
1.98950000000002
 30
0.0
 40
0.0625
100
AcDbArc
 50
90.0
 51
180.0
  0
LINE
  5
2F
100
AcDbEntity
  8
USP-GEO
100
AcDbLine
 10
4.73899999999999
 20
1.125
 30
0.0
 11
4.790999999999982
 21
1.125
 31
0.0
  0
LINE
  5
30
100
AcDbEntity
  8
USP-GEO
100
AcDbLine
 10
5.915999999999939
 20
2.05200000000002
 30
0.0
 11
5.915999999999939
 21
2.0
 31
0.0
  0
LINE
  5
31
100
AcDbEntity
  8
USP-GEO
100
AcDbLine
 10
5.915999999999982
 20
2.05200000000002
 30
0.0
 11
5.915999999999982
 21
2.0
 31
0.0
  0
ENDBLK
  5
34
100
AcDbEntity
  8
0
100
AcDbBlockEnd
  0
BLOCK
  5
84
100
AcDbEntity
  8
0
100
AcDbBlockBegin
  2
SUH46_F
 70
     0
 10
0.0
 20
0.0
 30
0.0
  3
SUH46_F
  1

  0
TEXT
  5
37
100
AcDbEntity
  8
USP-TXT
100
AcDbText
 10
0.8317500000000261
 20
-0.8190115573183049
 30
0.0
 40
0.23625
  1
SUH46 - FRONT VIEW
 72
     1
 11
2.958000000000026
 21
-0.8190115573183049
 31
0.0
100
AcDbText
  0
ARC
  5
38
100
AcDbEntity
  8
USP-GEO
100
AcDbCircle
 10
4.661000000000029
 20
0.1299999999999954
 30
0.0
 40
0.078
100
AcDbArc
 50
270.0
 51
0.0
  0
LINE
  5
39
100
AcDbEntity
  8
USP-GEO
100
AcDbLine
 10
4.713000000000022
 20
0.0
 30
0.0
 11
1.203000000000031
 21
0.0
 31
0.0
  0
LINE
  5
3A
100
AcDbEntity
  8
USP-GEO
100
AcDbLine
 10
0.1250000000000426
 20
2.108263260855764
 30
0.0
 11
0.1250000000000426
 21
1.810327460226332
 31
0.0
  0
LINE
  5
3B
100
AcDbEntity
  8
USP-GEO
100
AcDbLine
 10
0.6874999999999148
 20
2.413273648868099
 30
0.0
 11
0.687499999999929
 21
1.861273648868106
 31
0.0
  0
LINE
  5
3C
100
AcDbEntity
  8
USP-GEO
100
AcDbLine
 10
0.4999999999999148
 20
2.413273648868099
 30
0.0
 11
0.4999999999999148
 21
1.861273648868149
 31
0.0
  0
LINE
  5
3D
100
AcDbEntity
  8
USP-GEO
100
AcDbLine
 10
0.5156249999999148
 20
2.413273648868099
 30
0.0
 11
0.515624999999929
 21
1.850773648868099
 31
0.0
  0
LINE
  5
3E
100
AcDbEntity
  8
USP-GEO
100
AcDbLine
 10
0.6718749999999148
 20
2.413273648868113
 30
0.0
 11
0.671874999999929
 21
1.850773648868099
 31
0.0
  0
LINE
  5
3F
100
AcDbEntity
  8
USP-GEO
100
AcDbLine
 10
1.125000000000042
 20
0.078000000000003
 30
0.0
 11
1.125000000000028
 21
5.235084732442757
 31
0.0
  0
LINE
  5
40
100
AcDbEntity
  8
USP-GEO
100
AcDbLine
 10
1.177000000000035
 20
0.1299999999999954
 30
0.0
 11
1.177000000000049
 21
5.235084732442757
 31
0.0
  0
ARC
  5
41
100
AcDbEntity
  8
USP-GEO
100
AcDbCircle
 10
1.203000000000031
 20
0.078000000000003
 30
0.0
 40
0.078
100
AcDbArc
 50
180.0
 51
270.0
  0
ARC
  5
42
100
AcDbEntity
  8
USP-GEO
100
AcDbCircle
 10
1.255000000000038
 20
0.1299999999999954
 30
0.0
 40
0.078
100
AcDbArc
 50
180.0
 51
270.0
  0
CIRCLE
  5
43
100
AcDbEntity
  8
USP-GEO
100
AcDbCircle
 10
0.3269071636141945
 20
1.935347536983414
 30
0.0
 40
0.086
  0
LINE
  5
44
100
AcDbEntity
  8
USP-GEO
100
AcDbLine
 10
0.1271973462937694
 20
1.79396767386811
 30
0.0
 11
1.125000000000042
 21
0.2801799123360524
 31
0.0
  0
ARC
  5
45
100
AcDbEntity
  8
USP-GEO
100
AcDbCircle
 10
0.1870000000000402
 20
1.810327460226332
 30
0.0
 40
0.062
100
AcDbArc
 50
180.0
 51
195.2996716274559
  0
ARC
  5
46
100
AcDbEntity
  8
USP-GEO
100
AcDbCircle
 10
0.1870000000000402
 20
1.810327460226361
 30
0.0
 40
0.062
100
AcDbArc
 50
179.9999999999991
 51
195.2996716274559
  0
LINE
  5
47
100
AcDbEntity
  8
USP-GEO
100
AcDbLine
 10
0.515624999999929
 20
1.850773648868099
 30
0.0
 11
0.671874999999929
 21
1.850773648868099
 31
0.0
  0
LINE
  5
48
100
AcDbEntity
  8
USP-GEO
100
AcDbLine
 10
0.593749999999929
 20
1.600773648868099
 30
0.0
 11
0.687499999999929
 21
1.861273648868106
 31
0.0
  0
LINE
  5
49
100
AcDbEntity
  8
USP-GEO
100
AcDbLine
 10
0.593749999999929
 20
1.600773648868099
 30
0.0
 11
0.499999999999929
 21
1.861273648868092
 31
0.0
  0
LINE
  5
4A
100
AcDbEntity
  8
USP-GEO
100
AcDbLine
 10
1.125000000000028
 20
0.3749999999994884
 30
0.0
 11
1.177000000000035
 21
0.3749999999994884
 31
0.0
  0
LINE
  5
4B
100
AcDbEntity
  8
USP-GEO
100
AcDbLine
 10
4.661000000000029
 20
0.0520000000000067
 30
0.0
 11
1.255000000000038
 21
0.0520000000000067
 31
0.0
  0
CIRCLE
  5
4C
100
AcDbEntity
  8
USP-GEO
100
AcDbCircle
 10
0.5624999999999148
 20
3.833249999999992
 30
0.0
 40
0.086
  0
ARC
  5
4D
100
AcDbEntity
  8
USP-GEO
100
AcDbCircle
 10
0.062000000000026
 20
3.805992572319283
 30
0.0
 40
0.062
100
AcDbArc
 50
100.4062459480042
 51
180.0000000000016
  0
ARC
  5
4E
100
AcDbEntity
  8
USP-GEO
100
AcDbCircle
 10
0.0000000000000426
 20
2.396102734347721
 30
0.0
 40
0.28125
100
AcDbArc
 50
303.0104798486348
 51
84.13673136345691
  0
ARC
  5
4F
100
AcDbEntity
  8
USP-GEO
100
AcDbCircle
 10
0.0320000000000391
 20
2.707713970506148
 30
0.0
 40
0.032
100
AcDbArc
 50
180.0
 51
264.136731363461
  0
ARC
  5
50
100
AcDbEntity
  8
USP-GEO
100
AcDbCircle
 10
0.1870000000000402
 20
2.108263260855764
 30
0.0
 40
0.062
100
AcDbArc
 50
123.0104798486377
 51
180.0
  0
LINE
  5
51
100
AcDbEntity
  8
USP-GEO
100
AcDbLine
 10
0.0000000000000284
 20
3.805992572319283
 30
0.0
 11
0.0000000000000426
 21
2.707713970506148
 31
0.0
  0
LINE
  5
52
100
AcDbEntity
  8
USP-GEO
100
AcDbLine
 10
0.0000000000000426
 20
2.707713970506148
 30
0.0
 11
0.0000000000000426
 21
3.176999999999992
 31
0.0
  0
LINE
  5
53
100
AcDbEntity
  8
USP-GEO
100
AcDbLine
 10
1.125000000000028
 20
3.805992572319269
 30
0.0
 11
1.177000000000049
 21
3.805992572319269
 31
0.0
  0
LINE
  5
54
100
AcDbEntity
  8
USP-GEO
100
AcDbLine
 10
1.125000000000028
 20
2.707713970506148
 30
0.0
 11
1.177000000000049
 21
2.707713970506148
 31
0.0
  0
LINE
  5
55
100
AcDbEntity
  8
USP-GEO
100
AcDbLine
 10
1.125000000000028
 20
2.058498583751116
 30
0.0
 11
1.177000000000049
 21
2.058498583751116
 31
0.0
  0
LINE
  5
56
100
AcDbEntity
  8
USP-GEO
100
AcDbLine
 10
0.6562499999999148
 20
2.413273648868099
 30
0.0
 11
0.6874999999999148
 21
2.413273648868099
 31
0.0
  0
LINE
  5
57
100
AcDbEntity
  8
USP-GEO
100
AcDbLine
 10
0.4999999999999148
 20
2.413273648868099
 30
0.0
 11
0.5312499999999148
 21
2.413273648868099
 31
0.0
  0
CIRCLE
  5
58
100
AcDbEntity
  8
USP-GEO
100
AcDbCircle
 10
0.5625000000000427
 20
2.673090079250272
 30
0.0
 40
0.0855
  0
LINE
  5
59
100
AcDbEntity
  8
USP-GEO
100
AcDbLine
 10
0.5624999999999148
 20
2.413273648868099
 30
0.0
 11
0.6249999999999148
 21
2.413273648868099
 31
0.0
  0
CIRCLE
  5
5A
100
AcDbEntity
  8
USP-GEO
100
AcDbCircle
 10
0.25
 20
4.954084732442751
 30
0.0
 40
0.0855
  0
LINE
  5
5B
100
AcDbEntity
  8
USP-GEO
100
AcDbLine
 10
1.177000000000049
 20
5.235084732442757
 30
0.0
 11
0.0
 21
5.235084732442757
 31
0.0
  0
ARC
  5
5C
100
AcDbEntity
  8
USP-GEO
100
AcDbCircle
 10
0.0320000000000391
 20
4.4552079590743
 30
0.0
 40
0.032
100
AcDbArc
 50
180.0
 51
264.136731363461
  0
LINE
  5
5D
100
AcDbEntity
  8
USP-GEO
100
AcDbLine
 10
0.0
 20
5.235084732442757
 30
0.0
 11
0.0
 21
4.4552079590743
 31
0.0
  0
ARC
  5
5E
100
AcDbEntity
  8
USP-GEO
100
AcDbCircle
 10
0.0000000000000426
 20
4.143596722915873
 30
0.0
 40
0.28125
100
AcDbArc
 50
280.4062459480066
 51
84.13673136345691
  0
LINE
  5
5F
100
AcDbEntity
  8
USP-GEO
100
AcDbLine
 10
1.125000000000028
 20
4.4552079590743
 30
0.0
 11
1.177000000000049
 21
4.4552079590743
 31
0.0
  0
LINE
  5
60
100
AcDbEntity
  8
USP-GEO
100
AcDbLine
 10
5.244125000000138
 20
2.586309173032617
 30
0.0
 11
5.244125000000124
 21
2.023809173032603
 31
0.0
  0
LINE
  5
61
100
AcDbEntity
  8
USP-GEO
100
AcDbLine
 10
5.400375000000138
 20
2.586309173032603
 30
0.0
 11
5.400375000000124
 21
2.023809173032603
 31
0.0
  0
LINE
  5
62
100
AcDbEntity
  8
USP-GEO
100
AcDbLine
 10
5.416000000000138
 20
2.586309173032603
 30
0.0
 11
5.416000000000138
 21
2.034309173032653
 31
0.0
  0
LINE
  5
63
100
AcDbEntity
  8
USP-GEO
100
AcDbLine
 10
5.228500000000138
 20
2.586309173032603
 30
0.0
 11
5.228500000000124
 21
2.03430917303261
 31
0.0
  0
LINE
  5
64
100
AcDbEntity
  8
USP-GEO
100
AcDbLine
 10
5.791000000000011
 20
2.358263260855764
 30
0.0
 11
5.791000000000011
 21
1.810327460226332
 31
0.0
  0
LINE
  5
65
100
AcDbEntity
  8
USP-GEO
100
AcDbLine
 10
4.791000000000025
 20
0.078000000000003
 30
0.0
 11
4.791000000000025
 21
5.235084732442757
 31
0.0
  0
LINE
  5
66
100
AcDbEntity
  8
USP-GEO
100
AcDbLine
 10
4.739000000000032
 20
0.1299999999999954
 30
0.0
 11
4.739000000000032
 21
5.235084732442757
 31
0.0
  0
ARC
  5
67
100
AcDbEntity
  8
USP-GEO
100
AcDbCircle
 10
4.713000000000022
 20
0.078000000000003
 30
0.0
 40
0.078
100
AcDbArc
 50
270.0
 51
0.0
  0
LINE
  5
68
100
AcDbEntity
  8
USP-GEO
100
AcDbLine
 10
5.788802653706298
 20
1.79396767386811
 30
0.0
 11
4.791000000000025
 21
0.2801799123360524
 31
0.0
  0
LINE
  5
69
100
AcDbEntity
  8
USP-GEO
100
AcDbLine
 10
5.322250000000124
 20
1.773809173032603
 30
0.0
 11
5.228500000000124
 21
2.03430917303261
 31
0.0
  0
LINE
  5
6A
100
AcDbEntity
  8
USP-GEO
100
AcDbLine
 10
5.400375000000124
 20
2.023809173032603
 30
0.0
 11
5.244125000000124
 21
2.023809173032603
 31
0.0
  0
LINE
  5
6B
100
AcDbEntity
  8
USP-GEO
100
AcDbLine
 10
5.322250000000124
 20
1.773809173032603
 30
0.0
 11
5.416000000000124
 21
2.034309173032596
 31
0.0
  0
LINE
  5
6C
100
AcDbEntity
  8
USP-GEO
100
AcDbLine
 10
4.791000000000025
 20
0.3749999999994884
 30
0.0
 11
4.739000000000032
 21
0.3749999999994884
 31
0.0
  0
ARC
  5
6D
100
AcDbEntity
  8
USP-GEO
100
AcDbCircle
 10
5.729000000000013
 20
1.810327460226361
 30
0.0
 40
0.062
100
AcDbArc
 50
344.700328372544
 51
0.0000000000008142
  0
ARC
  5
6E
100
AcDbEntity
  8
USP-GEO
100
AcDbCircle
 10
5.729000000000013
 20
1.810327460226332
 30
0.0
 40
0.062
100
AcDbArc
 50
344.700328372544
 51
0.0
  0
LINE
  5
6F
100
AcDbEntity
  8
USP-GEO
100
AcDbLine
 10
5.916000000000039
 20
4.055992572319283
 30
0.0
 11
5.916000000000011
 21
2.957713970506148
 31
0.0
  0
CIRCLE
  5
70
100
AcDbEntity
  8
USP-GEO
100
AcDbCircle
 10
5.666000000000138
 20
3.833249999999992
 30
0.0
 40
0.086
  0
CIRCLE
  5
71
100
AcDbEntity
  8
USP-GEO
100
AcDbCircle
 10
5.589279676228656
 20
2.261876519710554
 30
0.0
 40
0.086
  0
LINE
  5
72
100
AcDbEntity
  8
USP-GEO
100
AcDbLine
 10
5.353500000000138
 20
2.586309173032603
 30
0.0
 11
5.291000000000138
 21
2.586309173032603
 31
0.0
  0
LINE
  5
73
100
AcDbEntity
  8
USP-GEO
100
AcDbLine
 10
5.259750000000138
 20
2.586309173032603
 30
0.0
 11
5.228500000000138
 21
2.586309173032603
 31
0.0
  0
LINE
  5
74
100
AcDbEntity
  8
USP-GEO
100
AcDbLine
 10
5.416000000000138
 20
2.586309173032603
 30
0.0
 11
5.384750000000138
 21
2.586309173032603
 31
0.0
  0
CIRCLE
  5
75
100
AcDbEntity
  8
USP-GEO
100
AcDbCircle
 10
5.353500000000011
 20
2.878629562782236
 30
0.0
 40
0.0855
  0
LINE
  5
76
100
AcDbEntity
  8
USP-GEO
100
AcDbLine
 10
4.791000000000025
 20
2.957713970506148
 30
0.0
 11
4.739000000000018
 21
2.957713970506148
 31
0.0
  0
LINE
  5
77
100
AcDbEntity
  8
USP-GEO
100
AcDbLine
 10
4.791000000000025
 20
2.308498583751116
 30
0.0
 11
4.739000000000018
 21
2.308498583751116
 31
0.0
  0
LINE
  5
78
100
AcDbEntity
  8
USP-GEO
100
AcDbLine
 10
5.916000000000025
 20
2.957713970506148
 30
0.0
 11
5.916000000000025
 21
3.426999999999992
 31
0.0
  0
ARC
  5
79
100
AcDbEntity
  8
USP-GEO
100
AcDbCircle
 10
5.884000000000014
 20
2.957713970506148
 30
0.0
 40
0.032
100
AcDbArc
 50
275.8632686365389
 51
0.0
  0
ARC
  5
7A
100
AcDbEntity
  8
USP-GEO
100
AcDbCircle
 10
5.729000000000013
 20
2.358263260855764
 30
0.0
 40
0.062
100
AcDbArc
 50
0.0
 51
56.98952015136222
  0
ARC
  5
7B
100
AcDbEntity
  8
USP-GEO
100
AcDbCircle
 10
5.916000000000025
 20
2.646102734347721
 30
0.0
 40
0.28125
100
AcDbArc
 50
95.86326863654308
 51
236.9895201513644
  0
LINE
  5
7C
100
AcDbEntity
  8
USP-GEO
100
AcDbLine
 10
5.916000000000067
 20
5.235084732442757
 30
0.0
 11
4.739000000000032
 21
5.235084732442757
 31
0.0
  0
CIRCLE
  5
7D
100
AcDbEntity
  8
USP-GEO
100
AcDbCircle
 10
5.455000000000069
 20
4.860084732442757
 30
0.0
 40
0.0855
  0
LINE
  5
7E
100
AcDbEntity
  8
USP-GEO
100
AcDbLine
 10
4.791000000000025
 20
4.7052079590743
 30
0.0
 11
4.739000000000018
 21
4.7052079590743
 31
0.0
  0
LINE
  5
7F
100
AcDbEntity
  8
USP-GEO
100
AcDbLine
 10
4.791000000000025
 20
4.055992572319269
 30
0.0
 11
4.739000000000018
 21
4.055992572319269
 31
0.0
  0
LINE
  5
80
100
AcDbEntity
  8
USP-GEO
100
AcDbLine
 10
5.916000000000067
 20
5.235084732442757
 30
0.0
 11
5.916000000000053
 21
4.7052079590743
 31
0.0
  0
ARC
  5
81
100
AcDbEntity
  8
USP-GEO
100
AcDbCircle
 10
5.884000000000014
 20
4.7052079590743
 30
0.0
 40
0.032
100
AcDbArc
 50
275.8632686365389
 51
0.0
  0
ARC
  5
82
100
AcDbEntity
  8
USP-GEO
100
AcDbCircle
 10
5.854000000000041
 20
4.055992572319283
 30
0.0
 40
0.062
100
AcDbArc
 50
359.9999999999983
 51
79.59375405199573
  0
ARC
  5
83
100
AcDbEntity
  8
USP-GEO
100
AcDbCircle
 10
5.916000000000025
 20
4.393596722915873
 30
0.0
 40
0.28125
100
AcDbArc
 50
95.86326863654308
 51
259.5937540519933
  0
ENDBLK
  5
85
100
AcDbEntity
  8
0
100
AcDbBlockEnd
  0
BLOCK
  5
BA
100
AcDbEntity
  8
0
100
AcDbBlockBegin
  2
SUH46_S
 70
     0
 10
0.0
 20
0.0
 30
0.0
  3
SUH46_S
  1

  0
LINE
  5
88
100
AcDbEntity
  8
USP-GEO
100
AcDbLine
 10
1.0625
 20
2.108263260855963
 30
0.0
 11
1.0625
 21
1.810327460226332
 31
0.0
  0
ARC
  5
89
100
AcDbEntity
  8
USP-GEO
100
AcDbCircle
 10
0.2113323483271756
 20
2.06256577719067
 30
0.0
 40
0.04175
100
AcDbArc
 50
307.8367249063999
 51
31.32616213537673
  0
ARC
  5
8A
100
AcDbEntity
  8
USP-GEO
100
AcDbCircle
 10
0.2113323483271756
 20
2.06256577719067
 30
0.0
 40
0.09375
100
AcDbArc
 50
305.2984937640701
 51
33.69006752597956
  0
LINE
  5
8B
100
AcDbEntity
  8
USP-GEO
100
AcDbLine
 10
-0.0000000000000142
 20
5.235084732442757
 30
0.0
 11
0.0
 21
0.3750000000004121
 31
0.0
  0
LINE
  5
8C
100
AcDbEntity
  8
USP-GEO
100
AcDbLine
 10
0.0519999999999925
 20
5.235084732442757
 30
0.0
 11
0.0519999999999925
 21
0.4070691260455704
 31
0.0
  0
TEXT
  5
8D
100
AcDbEntity
  8
USP-TXT
100
AcDbText
 10
-0.9427500000000033
 20
-0.8190115573183049
 30
0.0
 40
0.23625
  1
SUH46 - SIDE VIEW
 72
     1
 11
1.025999999999996
 21
-0.8190115573183049
 31
0.0
100
AcDbText
  0
LINE
  5
8E
100
AcDbEntity
  8
USP-GEO
100
AcDbLine
 10
1.96875
 20
0.0
 30
0.0
 11
0.0832499999999925
 21
0.0
 31
0.0
  0
LINE
  5
8F
100
AcDbEntity
  8
USP-HID
100
AcDbLine
 10
1.96875
 20
0.0519999999999925
 30
0.0
 11
0.0832499999999925
 21
0.0519999999999925
 31
0.0
  0
LINE
  5
92
100
AcDbEntity
  8
USP-GEO
100
AcDbLine
 10
0.0625000000000284
 20
0.3130000000004145
 30
0.0
 11
0.0625
 21
0.0
 31
0.0
  0
LINE
  5
93
100
AcDbEntity
  8
USP-GEO
100
AcDbLine
 10
0.0832499999999925
 20
0.0
 30
0.0
 11
0.0
 21
0.0
 31
0.0
  0
LINE
  5
94
100
AcDbEntity
  8
USP-GEO
100
AcDbLine
 10
0.0832499999999925
 20
0.0519999999999925
 30
0.0
 11
0.0
 21
0.0519999999999925
 31
0.0
  0
LINE
  5
95
100
AcDbEntity
  8
USP-GEO
100
AcDbLine
 10
0.0
 20
0.0520000000000067
 30
0.0
 11
0.0
 21
0.0
 31
0.0
  0
LINE
  5
96
100
AcDbEntity
  8
USP-GEO
100
AcDbLine
 10
0.2655044891639307
 20
1.986051453974923
 30
0.0
 11
0.0519999999999925
 21
1.861723809148202
 31
0.0
  0
LINE
  5
97
100
AcDbEntity
  8
USP-GEO
100
AcDbLine
 10
0.2369423575180889
 20
2.029593213910857
 30
0.0
 11
0.0519999999999925
 21
1.921897830881817
 31
0.0
  0
LINE
  5
98
100
AcDbEntity
  8
USP-GEO
100
AcDbLine
 10
0.0519999999999925
 20
1.810327460226332
 30
0.0
 11
0.0
 21
1.810327460226332
 31
0.0
  0
ARC
  5
99
100
AcDbEntity
  8
USP-GEO
100
AcDbCircle
 10
0.0005000000000166
 20
0.3130000000004145
 30
0.0
 40
0.062
100
AcDbArc
 50
359.9999999999959
 51
90.0
  0
LINE
  5
9A
100
AcDbEntity
  8
USP-GEO
100
AcDbLine
 10
0.0
 20
0.3750000000004121
 30
0.0
 11
0.0005000000000166
 21
0.3750000000004121
 31
0.0
  0
LINE
  5
9B
100
AcDbEntity
  8
USP-GEO
100
AcDbLine
 10
0.0
 20
0.4070691260455704
 30
0.0
 11
0.0519999999999925
 21
0.4070691260455704
 31
0.0
  0
CIRCLE
  5
9C
100
AcDbEntity
  8
USP-GEO
100
AcDbCircle
 10
0.5
 20
1.235084732442757
 30
0.0
 40
0.15625
  0
LINE
  5
9D
100
AcDbEntity
  8
USP-GEO
100
AcDbLine
 10
1.9375
 20
0.3130000000000024
 30
0.0
 11
1.9375
 21
0.0
 31
0.0
  0
LINE
  5
9E
100
AcDbEntity
  8
USP-GEO
100
AcDbLine
 10
2.0
 20
0.0519999999999925
 30
0.0
 11
2.0
 21
0.0
 31
0.0
  0
LINE
  5
9F
100
AcDbEntity
  8
USP-GEO
100
AcDbLine
 10
1.96875
 20
0.0
 30
0.0
 11
2.0
 21
0.0
 31
0.0
  0
LINE
  5
A0
100
AcDbEntity
  8
USP-GEO
100
AcDbLine
 10
1.96875
 20
0.0519999999999925
 30
0.0
 11
2.0
 21
0.0519999999999925
 31
0.0
  0
LINE
  5
A1
100
AcDbEntity
  8
USP-GEO
100
AcDbLine
 10
1.064697346293712
 20
1.793967673868138
 30
0.0
 11
2.0
 21
0.375
 31
0.0
  0
ARC
  5
A2
100
AcDbEntity
  8
USP-GEO
100
AcDbCircle
 10
1.124499999999997
 20
1.810327460226346
 30
0.0
 40
0.062
100
AcDbArc
 50
179.9999999999991
 51
195.2996716274559
  0
ARC
  5
A3
100
AcDbEntity
  8
USP-GEO
100
AcDbCircle
 10
1.124499999999997
 20
1.810327460226332
 30
0.0
 40
0.062
100
AcDbArc
 50
180.0
 51
195.2996716274559
  0
LINE
  5
A4
100
AcDbEntity
  8
USP-GEO
100
AcDbLine
 10
2.0
 20
0.375
 30
0.0
 11
1.999499999999997
 21
0.375
 31
0.0
  0
ARC
  5
A5
100
AcDbEntity
  8
USP-GEO
100
AcDbCircle
 10
1.999499999999997
 20
0.3130000000000024
 30
0.0
 40
0.062
100
AcDbArc
 50
90.0
 51
180.0
  0
LINE
  5
A6
100
AcDbEntity
  8
USP-GEO
100
AcDbLine
 10
0.9374999999999431
 20
5.235084732442757
 30
0.0
 11
-0.0000000000000142
 21
5.235084732442757
 31
0.0
  0
LINE
  5
A7
100
AcDbEntity
  8
USP-GEO
100
AcDbLine
 10
0.0519999999999925
 20
3.805992572319283
 30
0.0
 11
0.0
 21
3.805992572319283
 31
0.0
  0
LINE
  5
A8
100
AcDbEntity
  8
USP-GEO
100
AcDbLine
 10
0.2893370634213568
 20
2.114568920586776
 30
0.0
 11
0.0519999999999925
 21
2.413723809148194
 31
0.0
  0
LINE
  5
A9
100
AcDbEntity
  8
USP-GEO
100
AcDbLine
 10
0.0519999999999925
 20
2.707713970506148
 30
0.0
 11
0.0
 21
2.707713970506148
 31
0.0
  0
LINE
  5
AA
100
AcDbEntity
  8
USP-GEO
100
AcDbLine
 10
0.0519999999999925
 20
2.108263260855764
 30
0.0
 11
0.0
 21
2.108263260855764
 31
0.0
  0
LINE
  5
AB
100
AcDbEntity
  8
USP-GEO
100
AcDbLine
 10
0.2469960968137599
 20
2.084271986990756
 30
0.0
 11
0.0519999999999783
 21
2.330057599955352
 31
0.0
  0
LINE
  5
AC
100
AcDbEntity
  8
USP-GEO
100
AcDbLine
 10
0.0519999999999925
 20
4.4552079590743
 30
0.0
 11
-0.0000000000000142
 21
4.4552079590743
 31
0.0
  0
CIRCLE
  5
AD
100
AcDbEntity
  8
USP-GEO
100
AcDbCircle
 10
0.5
 20
4.860084732442757
 30
0.0
 40
0.15625
  0
ARC
  5
AE
100
AcDbEntity
  8
USP-GEO
100
AcDbCircle
 10
0.9994999999999834
 20
3.805992572319283
 30
0.0
 40
0.062
100
AcDbArc
 50
100.4062459480042
 51
180.0000000000016
  0
ARC
  5
AF
100
AcDbEntity
  8
USP-GEO
100
AcDbCircle
 10
0.9995000000000118
 20
2.733706884944098
 30
0.0
 40
0.062
100
AcDbArc
 50
180.0
 51
259.5937540519825
  0
CIRCLE
  5
B0
100
AcDbEntity
  8
USP-GEO
100
AcDbCircle
 10
0.9297499999999843
 20
2.396102734347721
 30
0.0
 40
0.0860000000000003
  0
ARC
  5
B1
100
AcDbEntity
  8
USP-GEO
100
AcDbCircle
 10
1.124499999999997
 20
2.108263260855963
 30
0.0
 40
0.062
100
AcDbArc
 50
123.0104798486567
 51
180.0
  0
LINE
  5
B2
100
AcDbEntity
  8
USP-GEO
100
AcDbLine
 10
0.9374999999999857
 20
3.805992572319269
 30
0.0
 11
0.9375
 21
2.733706884944098
 31
0.0
  0
LINE
  5
B3
100
AcDbEntity
  8
USP-GEO
100
AcDbLine
 10
0.9374999999999715
 20
3.805992572319269
 30
0.0
 11
0.9375
 21
2.733706884944098
 31
0.0
  0
ARC
  5
B4
100
AcDbEntity
  8
USP-GEO
100
AcDbCircle
 10
0.9375
 20
2.396102734347721
 30
0.0
 40
0.28125
100
AcDbArc
 50
303.0104798486549
 51
79.59375405198247
  0
ARC
  5
B5
100
AcDbEntity
  8
USP-GEO
100
AcDbCircle
 10
0.9694999999999964
 20
4.4552079590743
 30
0.0
 40
0.032
100
AcDbArc
 50
180.0
 51
264.136731363461
  0
LINE
  5
B6
100
AcDbEntity
  8
USP-GEO
100
AcDbLine
 10
0.9374999999999431
 20
5.235084732442757
 30
0.0
 11
0.9374999999999715
 21
4.4552079590743
 31
0.0
  0
LINE
  5
B7
100
AcDbEntity
  8
USP-GEO
100
AcDbLine
 10
0.9374999999999431
 20
5.235084732442757
 30
0.0
 11
0.9374999999999573
 21
4.4552079590743
 31
0.0
  0
CIRCLE
  5
B8
100
AcDbEntity
  8
USP-GEO
100
AcDbCircle
 10
0.9297499999999843
 20
4.143596722915873
 30
0.0
 40
0.0860000000000003
  0
ARC
  5
B9
100
AcDbEntity
  8
USP-GEO
100
AcDbCircle
 10
0.9375
 20
4.143596722915873
 30
0.0
 40
0.28125
100
AcDbArc
 50
280.4062459480066
 51
84.13673136345691
  0
ENDBLK
  5
BB
100
AcDbEntity
  8
0
100
AcDbBlockEnd
  0
ENDSEC
  0
SECTION
  2
ENTITIES
  0
INSERT
  5
3
100
AcDbEntity
  8
USP
100
AcDbBlockReference
  2
SUH46_T
 10
4.331841138889075
 20
7.8525530575752
 30
0.0
  0
INSERT
  5
35
100
AcDbEntity
  8
USP
100
AcDbBlockReference
  2
SUH46_F
 10
4.331841138889032
 20
0.8193138523486069
 30
0.0
  0
INSERT
  5
86
100
AcDbEntity
  8
USP
100
AcDbBlockReference
  2
SUH46_S
 10
0.9431161829982524
 20
0.8193138523486069
 30
0.0
  0
ENDSEC
  0
SECTION
  2
OBJECTS
  0
DICTIONARY
  5
D7
102
{ACAD_XDICTIONARY
360
D8
102
}
100
AcDbDictionary
  3
ACAD_GROUP
350
D4
  3
ACAD_MLINESTYLE
350
D5
  0
DICTIONARY
  5
C9
100
AcDbDictionary
280
     1
  0
DICTIONARY
  5
CB
100
AcDbDictionary
280
     1
  0
DICTIONARY
  5
6
100
AcDbDictionary
280
     1
  0
DICTIONARY
  5
B
100
AcDbDictionary
280
     1
  0
DICTIONARY
  5
DC
100
AcDbDictionary
280
     1
  0
DICTIONARY
  5
BC
100
AcDbDictionary
280
     1
  3
ACAD_LAYOUTSELFREF
360
BD
  0
DICTIONARY
  5
C1
100
AcDbDictionary
280
     1
  3
ACAD_LAYOUTSELFREF
360
C2
  0
DICTIONARY
  5
D8
100
AcDbDictionary
280
     1
  3
ACAD_XREC_ROUNDTRIP
360
D9
  0
DICTIONARY
  5
D4
102
{ACAD_REACTORS
330
D7
102
}
100
AcDbDictionary
  0
DICTIONARY
  5
D5
102
{ACAD_XDICTIONARY
360
D6
102
}
102
{ACAD_REACTORS
330
D7
102
}
100
AcDbDictionary
  3
STANDARD
350
DA
  0
XRECORD
  5
BD
102
{ACAD_REACTORS
330
BC
102
}
100
AcDbXrecord
340
2
  0
XRECORD
  5
C2
102
{ACAD_REACTORS
330
C1
102
}
100
AcDbXrecord
340
C2
  0
XRECORD
  5
D9
102
{ACAD_REACTORS
330
D8
102
}
100
AcDbXrecord
102
EXTNAMES
  1
ACDBVARIABLEDICTIONARY
  2
AcDbVariableDictionary
  0
DICTIONARY
  5
D6
100
AcDbDictionary
280
     1
  0
MLINESTYLE
  5
DA
102
{ACAD_REACTORS
330
D5
102
}
100
AcDbMlineStyle
  2
STANDARD
 70
     0
  3

 62
   256
 51
90.0
 52
90.0
 71
     2
 49
0.5
 62
   256
  6
BYLAYER
 49
-0.5
 62
   256
  6
BYLAYER
  0
ENDSEC
  0
EOF
