  0
SECTION
  2
HEADER
  9
$ACADVER
  1
AC1014
  9
$ACADMAINTVER
 70
     9
  9
$DWGCODEPAGE
  3
ANSI_1252
  9
$INSBASE
 10
0.0
 20
0.0
 30
0.0
  9
$EXTMIN
 10
0.0003661829982491
 20
0.0004111132268924
 30
0.0
  9
$EXTMAX
 10
10.22120642240541
 20
13.4786503258269
 30
0.0
  9
$LIMMIN
 10
0.0
 20
0.0
  9
$LIMMAX
 10
12.0
 20
9.0
  9
$ORTHOMODE
 70
     0
  9
$REGENMODE
 70
     1
  9
$FILLMODE
 70
     1
  9
$QTEXTMODE
 70
     0
  9
$MIRRTEXT
 70
     1
  9
$DRAGMODE
 70
     2
  9
$LTSCALE
 40
1.0
  9
$OSMODE
 70
    37
  9
$ATTMODE
 70
     1
  9
$TEXTSIZE
 40
0.5
  9
$TRACEWID
 40
0.05
  9
$TEXTSTYLE
  7
STANDARD
  9
$CLAYER
  8
0
  9
$CELTYPE
  6
BYLAYER
  9
$CECOLOR
 62
   256
  9
$CELTSCALE
 40
1.0
  9
$DELOBJ
 70
     1
  9
$DISPSILH
 70
     0
  9
$DIMSCALE
 40
1.0
  9
$DIMASZ
 40
0.18
  9
$DIMEXO
 40
0.0625
  9
$DIMDLI
 40
0.38
  9
$DIMRND
 40
0.0
  9
$DIMDLE
 40
0.0
  9
$DIMEXE
 40
0.18
  9
$DIMTP
 40
0.0
  9
$DIMTM
 40
0.0
  9
$DIMTXT
 40
0.18
  9
$DIMCEN
 40
0.09
  9
$DIMTSZ
 40
0.0
  9
$DIMTOL
 70
     0
  9
$DIMLIM
 70
     0
  9
$DIMTIH
 70
     1
  9
$DIMTOH
 70
     1
  9
$DIMSE1
 70
     0
  9
$DIMSE2
 70
     0
  9
$DIMTAD
 70
     0
  9
$DIMZIN
 70
     0
  9
$DIMBLK
  1

  9
$DIMASO
 70
     1
  9
$DIMSHO
 70
     1
  9
$DIMPOST
  1

  9
$DIMAPOST
  1

  9
$DIMALT
 70
     0
  9
$DIMALTD
 70
     2
  9
$DIMALTF
 40
25.4
  9
$DIMLFAC
 40
1.0
  9
$DIMTOFL
 70
     0
  9
$DIMTVP
 40
0.0
  9
$DIMTIX
 70
     0
  9
$DIMSOXD
 70
     0
  9
$DIMSAH
 70
     0
  9
$DIMBLK1
  1

  9
$DIMBLK2
  1

  9
$DIMSTYLE
  2
STANDARD
  9
$DIMCLRD
 70
     0
  9
$DIMCLRE
 70
     0
  9
$DIMCLRT
 70
     0
  9
$DIMTFAC
 40
1.0
  9
$DIMGAP
 40
0.09
  9
$DIMJUST
 70
     0
  9
$DIMSD1
 70
     0
  9
$DIMSD2
 70
     0
  9
$DIMTOLJ
 70
     1
  9
$DIMTZIN
 70
     0
  9
$DIMALTZ
 70
     0
  9
$DIMALTTZ
 70
     0
  9
$DIMFIT
 70
     3
  9
$DIMUPT
 70
     0
  9
$DIMUNIT
 70
     2
  9
$DIMDEC
 70
     4
  9
$DIMTDEC
 70
     4
  9
$DIMALTU
 70
     2
  9
$DIMALTTD
 70
     2
  9
$DIMTXSTY
  7
STANDARD
  9
$DIMAUNIT
 70
     0
  9
$LUNITS
 70
     2
  9
$LUPREC
 70
     4
  9
$SKETCHINC
 40
0.1
  9
$FILLETRAD
 40
0.5
  9
$AUNITS
 70
     0
  9
$AUPREC
 70
     0
  9
$MENU
  1
.
  9
$ELEVATION
 40
0.0
  9
$PELEVATION
 40
0.0
  9
$THICKNESS
 40
0.0
  9
$LIMCHECK
 70
     0
  9
$BLIPMODE
 70
     0
  9
$CHAMFERA
 40
0.5
  9
$CHAMFERB
 40
0.5
  9
$CHAMFERC
 40
1.0
  9
$CHAMFERD
 40
0.0
  9
$SKPOLY
 70
     0
  9
$TDCREATE
 40
2451667.537949421
  9
$TDUPDATE
 40
2452759.747028530
  9
$TDINDWG
 40
0.1317934144
  9
$TDUSRTIMER
 40
0.1317934144
  9
$USRTIMER
 70
     1
  9
$ANGBASE
 50
0.0
  9
$ANGDIR
 70
     0
  9
$PDMODE
 70
     0
  9
$PDSIZE
 40
0.0
  9
$PLINEWID
 40
0.0
  9
$COORDS
 70
     1
  9
$SPLFRAME
 70
     0
  9
$SPLINETYPE
 70
     6
  9
$SPLINESEGS
 70
     8
  9
$ATTDIA
 70
     0
  9
$ATTREQ
 70
     1
  9
$HANDLING
 70
     1
  9
$HANDSEED
  5
10B
  9
$SURFTAB1
 70
     6
  9
$SURFTAB2
 70
     6
  9
$SURFTYPE
 70
     6
  9
$SURFU
 70
     6
  9
$SURFV
 70
     6
  9
$UCSNAME
  2

  9
$UCSORG
 10
0.0
 20
0.0
 30
0.0
  9
$UCSXDIR
 10
1.0
 20
0.0
 30
0.0
  9
$UCSYDIR
 10
0.0
 20
1.0
 30
0.0
  9
$PUCSNAME
  2

  9
$PUCSORG
 10
0.0
 20
0.0
 30
0.0
  9
$PUCSXDIR
 10
1.0
 20
0.0
 30
0.0
  9
$PUCSYDIR
 10
0.0
 20
1.0
 30
0.0
  9
$USERI1
 70
     0
  9
$USERI2
 70
     0
  9
$USERI3
 70
     0
  9
$USERI4
 70
     0
  9
$USERI5
 70
     0
  9
$USERR1
 40
0.0
  9
$USERR2
 40
0.0
  9
$USERR3
 40
0.0
  9
$USERR4
 40
0.0
  9
$USERR5
 40
0.0
  9
$WORLDVIEW
 70
     1
  9
$SHADEDGE
 70
     3
  9
$SHADEDIF
 70
    70
  9
$TILEMODE
 70
     1
  9
$MAXACTVP
 70
    48
  9
$PINSBASE
 10
0.0
 20
0.0
 30
0.0
  9
$PLIMCHECK
 70
     0
  9
$PEXTMIN
 10
1.000000000000000E+20
 20
1.000000000000000E+20
 30
1.000000000000000E+20
  9
$PEXTMAX
 10
-1.000000000000000E+20
 20
-1.000000000000000E+20
 30
-1.000000000000000E+20
  9
$PLIMMIN
 10
0.0
 20
0.0
  9
$PLIMMAX
 10
12.0
 20
9.0
  9
$UNITMODE
 70
     0
  9
$VISRETAIN
 70
     1
  9
$PLINEGEN
 70
     0
  9
$PSLTSCALE
 70
     1
  9
$TREEDEPTH
 70
  3020
  9
$PICKSTYLE
 70
     1
  9
$CMLSTYLE
  2
STANDARD
  9
$CMLJUST
 70
     0
  9
$CMLSCALE
 40
1.0
  9
$PROXYGRAPHICS
 70
     1
  9
$MEASUREMENT
 70
     0
  0
ENDSEC
  0
SECTION
  2
CLASSES
  0
CLASS
  1
ACDBDICTIONARYWDFLT
  2
AcDbDictionaryWithDefault
  3
AutoCAD 2000
 90
        0
280
     1
281
     0
  0
CLASS
  1
ACDBPLACEHOLDER
  2
AcDbPlaceHolder
  3
AutoCAD 2000
 90
        0
280
     1
281
     0
  0
CLASS
  1
LAYOUT
  2
AcDbLayout
  3
AutoCAD 2000
 90
        0
280
     1
281
     0
  0
CLASS
  1
LONG_TRANSACTION
  2
AcDbLongTransaction
  3
AutoCAD 2000
 90
        0
280
     1
281
     0
  0
CLASS
  1
LWPOLYLINE
  2
AcDbPolyline
  3
"AutoCAD"
 90
        0
280
     1
281
     1
  0
CLASS
  1
HATCH
  2
AcDbHatch
  3
"ACAD_SEDONA"
 90
        0
280
     1
281
     1
  0
CLASS
  1
XRECORD
  2
AcDbXrecord
  3
"<Built In>"
 90
        0
280
     0
281
     0
  0
CLASS
  1
LONG_TRANSACTION
  2
AcDbLongTransaction
  3
AutoCAD 2000
 90
        0
280
     1
281
     0
  0
CLASS
  1
LWPOLYLINE
  2
AcDbPolyline
  3
"AutoCAD"
 90
        0
280
     1
281
     1
  0
CLASS
  1
HATCH
  2
AcDbHatch
  3
"ACAD_SEDONA"
 90
        0
280
     1
281
     1
  0
CLASS
  1
XRECORD
  2
AcDbXrecord
  3
"<Built In>"
 90
        0
280
     0
281
     0
  0
CLASS
  1
LONG_TRANSACTION
  2
AcDbLongTransaction
  3
AutoCAD 2000
 90
        0
280
     1
281
     0
  0
CLASS
  1
LWPOLYLINE
  2
AcDbPolyline
  3
"AutoCAD"
 90
        0
280
     1
281
     1
  0
CLASS
  1
HATCH
  2
AcDbHatch
  3
"ACAD_SEDONA"
 90
        0
280
     1
281
     1
  0
CLASS
  1
XRECORD
  2
AcDbXrecord
  3
"<Built In>"
 90
        0
280
     0
281
     0
  0
CLASS
  1
LONG_TRANSACTION
  2
AcDbLongTransaction
  3
AutoCAD 2000
 90
        0
280
     1
281
     0
  0
CLASS
  1
LWPOLYLINE
  2
AcDbPolyline
  3
"AutoCAD"
 90
        0
280
     1
281
     1
  0
CLASS
  1
HATCH
  2
AcDbHatch
  3
"ACAD_SEDONA"
 90
        0
280
     1
281
     1
  0
CLASS
  1
XRECORD
  2
AcDbXrecord
  3
"<Built In>"
 90
        0
280
     0
281
     0
  0
CLASS
  1
LONG_TRANSACTION
  2
AcDbLongTransaction
  3
AutoCAD 2000
 90
        0
280
     1
281
     0
  0
CLASS
  1
LWPOLYLINE
  2
AcDbPolyline
  3
"AutoCAD"
 90
        0
280
     1
281
     1
  0
CLASS
  1
HATCH
  2
AcDbHatch
  3
"ACAD_SEDONA"
 90
        0
280
     1
281
     1
  0
CLASS
  1
XRECORD
  2
AcDbXrecord
  3
"<Built In>"
 90
        0
280
     0
281
     0
  0
CLASS
  1
DICTIONARYVAR
  2
AcDbDictionaryVar
  3
"AutoCAD"
 90
        0
280
     0
281
     0
  0
CLASS
  1
LONG_TRANSACTION
  2
AcDbLongTransaction
  3
AutoCAD 2000
 90
        0
280
     0
281
     0
  0
CLASS
  1
LWPOLYLINE
  2
AcDbPolyline
  3
"AutoCAD"
 90
        0
280
     0
281
     1
  0
CLASS
  1
HATCH
  2
AcDbHatch
  3
"ACAD_SEDONA"
 90
        0
280
     0
281
     1
  0
CLASS
  1
XRECORD
  2
AcDbXrecord
  3
"<Built In>"
 90
        0
280
     0
281
     0
  0
CLASS
  1
LONG_TRANSACTION
  2
AcDbLongTransaction
  3
AutoCAD 2000
 90
        0
280
     0
281
     0
  0
CLASS
  1
LWPOLYLINE
  2
AcDbPolyline
  3
"AutoCAD"
 90
        0
280
     0
281
     1
  0
CLASS
  1
HATCH
  2
AcDbHatch
  3
"ACAD_SEDONA"
 90
        0
280
     0
281
     1
  0
CLASS
  1
XRECORD
  2
AcDbXrecord
  3
"<Built In>"
 90
        0
280
     0
281
     0
  0
ENDSEC
  0
SECTION
  2
TABLES
  0
TABLE
  2
VPORT
  5
EB
100
AcDbSymbolTable
 70
     1
  0
VPORT
  5
107
100
AcDbSymbolTableRecord
100
AcDbViewportTableRecord
  2
*ACTIVE
 70
     0
 10
0.0
 20
0.0
 11
1.0
 21
1.0
 12
5.105319425574231
 22
6.898992385993808
 13
0.0
 23
0.0
 14
0.5
 24
0.5
 15
0.5
 25
0.5
 16
0.0
 26
0.0
 36
1.0
 17
0.0
 27
0.0
 37
0.0
 40
13.89634624762834
 41
1.457627118644067
 42
50.0
 43
0.0
 44
0.0
 50
0.0
 51
0.0
 71
     0
 72
   100
 73
     1
 74
     3
 75
     0
 76
     0
 77
     0
 78
     0
  0
ENDTAB
  0
TABLE
  2
LTYPE
  5
E4
100
AcDbSymbolTable
 70
     2
  0
LTYPE
  5
E5
102
{ACAD_XDICTIONARY
360
E6
102
}
100
AcDbSymbolTableRecord
100
AcDbLinetypeTableRecord
  2
BYBLOCK
 70
     0
  3

 72
    65
 73
     0
 40
0.0
  0
LTYPE
  5
E7
102
{ACAD_XDICTIONARY
360
E8
102
}
100
AcDbSymbolTableRecord
100
AcDbLinetypeTableRecord
  2
BYLAYER
 70
     0
  3

 72
    65
 73
     0
 40
0.0
  0
LTYPE
  5
5
102
{ACAD_XDICTIONARY
360
6
102
}
100
AcDbSymbolTableRecord
100
AcDbLinetypeTableRecord
  2
CONTINUOUS
 70
     0
  3
Solid line
 72
    65
 73
     0
 40
0.0
  0
LTYPE
  5
A5
100
AcDbSymbolTableRecord
100
AcDbLinetypeTableRecord
  2
HIDDEN
 70
     0
  3
Hidden __ __ __ __ __ __ __ __ __ __ __ __ __ _
 72
    65
 73
     2
 40
0.375
 49
0.25
 74
     0
 49
-0.125
 74
     0
  0
ENDTAB
  0
TABLE
  2
LAYER
  5
E2
100
AcDbSymbolTable
 70
     5
  0
LAYER
  5
33
100
AcDbSymbolTableRecord
100
AcDbLayerTableRecord
  2
0
 70
     0
 62
     7
  6
CONTINUOUS
  0
LAYER
  5
4
100
AcDbSymbolTableRecord
100
AcDbLayerTableRecord
  2
USP
 70
     0
 62
     7
  6
CONTINUOUS
  0
LAYER
  5
A4
100
AcDbSymbolTableRecord
100
AcDbLayerTableRecord
  2
USP-HID
 70
     0
 62
     7
  6
HIDDEN
  0
LAYER
  5
D
100
AcDbSymbolTableRecord
100
AcDbLayerTableRecord
  2
USP-GEO
 70
     0
 62
     7
  6
CONTINUOUS
  0
LAYER
  5
9
100
AcDbSymbolTableRecord
100
AcDbLayerTableRecord
  2
USP-TXT
 70
     0
 62
     7
  6
CONTINUOUS
  0
ENDTAB
  0
TABLE
  2
STYLE
  5
E3
100
AcDbSymbolTable
 70
     1
  0
STYLE
  5
A
102
{ACAD_XDICTIONARY
360
B
102
}
100
AcDbSymbolTableRecord
100
AcDbTextStyleTableRecord
  2
STANDARD
 70
     0
 40
0.0
 41
1.0
 50
0.0
 71
     0
 42
0.5
  3
txt
  4

  0
ENDTAB
  0
TABLE
  2
VIEW
  5
E9
100
AcDbSymbolTable
 70
     0
  0
ENDTAB
  0
TABLE
  2
UCS
  5
EA
100
AcDbSymbolTable
 70
     0
  0
ENDTAB
  0
TABLE
  2
APPID
  5
ED
100
AcDbSymbolTable
 70
     1
  0
APPID
  5
EE
100
AcDbSymbolTableRecord
100
AcDbRegAppTableRecord
  2
ACAD
 70
     0
  0
ENDTAB
  0
TABLE
  2
DIMSTYLE
  5
EF
100
AcDbSymbolTable
 70
     1
  0
DIMSTYLE
105
F8
102
{ACAD_XDICTIONARY
360
F9
102
}
100
AcDbSymbolTableRecord
100
AcDbDimStyleTableRecord
  2
STANDARD
 70
     0
  3

  4

  5

  6

  7

 40
1.0
 41
0.18
 42
0.0625
 43
0.38
 44
0.18
 45
0.0
 46
0.0
 47
0.0
 48
0.0
140
0.18
141
0.09
142
0.0
143
25.4
144
1.0
145
0.0
146
1.0
147
0.09
 71
     0
 72
     0
 73
     1
 74
     1
 75
     0
 76
     0
 77
     0
 78
     0
170
     0
171
     2
172
     0
173
     0
174
     0
175
     0
176
     0
177
     0
178
     0
270
     2
271
     4
272
     4
273
     2
274
     2
340
A
275
     0
280
     0
281
     0
282
     0
283
     1
284
     0
285
     0
286
     0
287
     3
288
     0
  0
ENDTAB
  0
TABLE
  2
BLOCK_RECORD
  5
1
100
AcDbSymbolTable
 70
     3
  0
BLOCK_RECORD
  5
2
102
{ACAD_XDICTIONARY
360
D9
102
}
100
AcDbSymbolTableRecord
100
AcDbBlockTableRecord
  2
*MODEL_SPACE
  0
BLOCK_RECORD
  5
DD
102
{ACAD_XDICTIONARY
360
DE
102
}
100
AcDbSymbolTableRecord
100
AcDbBlockTableRecord
  2
*PAPER_SPACE
  0
BLOCK_RECORD
  5
7
100
AcDbSymbolTableRecord
100
AcDbBlockTableRecord
  2
SUH410_T
  0
BLOCK_RECORD
  5
36
100
AcDbSymbolTableRecord
100
AcDbBlockTableRecord
  2
SUH410_F
  0
BLOCK_RECORD
  5
9C
100
AcDbSymbolTableRecord
100
AcDbBlockTableRecord
  2
SUH410_S
  0
ENDTAB
  0
ENDSEC
  0
SECTION
  2
BLOCKS
  0
BLOCK
  5
DB
100
AcDbEntity
  8
0
100
AcDbBlockBegin
  2
*MODEL_SPACE
 70
     0
 10
0.0
 20
0.0
 30
0.0
  3
*MODEL_SPACE
  1

  0
ENDBLK
  5
DC
100
AcDbEntity
  8
0
100
AcDbBlockEnd
  0
BLOCK
  5
E0
100
AcDbEntity
 67
     1
  8
0
100
AcDbBlockBegin
  2
*PAPER_SPACE
 70
     0
 10
0.0
 20
0.0
 30
0.0
  3
*PAPER_SPACE
  1

  0
ENDBLK
  5
E1
100
AcDbEntity
 67
     1
  8
0
100
AcDbBlockEnd
  0
BLOCK
  5
32
100
AcDbEntity
  8
0
100
AcDbBlockBegin
  2
SUH410_T
 70
     0
 10
0.0
 20
0.0
 30
0.0
  3
SUH410_T
  1

  0
TEXT
  5
8
100
AcDbEntity
  8
USP-TXT
100
AcDbText
 10
1.0094375
 20
-0.9058770671879443
 30
0.0
 40
0.23625
  1
SUH410 - TOP VIEW
 72
     1
 11
2.9585
 21
-0.9058770671879443
 31
0.0
100
AcDbText
  0
LINE
  5
C
100
AcDbEntity
  8
USP-GEO
100
AcDbLine
 10
1.625
 20
2.051999999999992
 30
0.0
 11
4.291999999999987
 21
2.051999999999992
 31
0.0
  0
LINE
  5
E
100
AcDbEntity
  8
USP-GEO
100
AcDbLine
 10
1.625
 20
0.0
 30
0.0
 11
4.291999999999987
 21
0.0
 31
0.0
  0
LINE
  5
F
100
AcDbEntity
  8
USP-GEO
100
AcDbLine
 10
1.17611168720299
 20
1.989499999999992
 30
0.0
 11
1.5625
 21
1.989499999999992
 31
0.0
  0
LINE
  5
10
100
AcDbEntity
  8
USP-GEO
100
AcDbLine
 10
1.176999999999992
 20
0.0625
 30
0.0
 11
1.5625
 21
0.0625
 31
0.0
  0
LINE
  5
11
100
AcDbEntity
  8
USP-GEO
100
AcDbLine
 10
1.125
 20
0.0
 30
0.0
 11
1.125
 21
1.9375
 31
0.0
  0
LINE
  5
12
100
AcDbEntity
  8
USP-GEO
100
AcDbLine
 10
1.176999999999992
 20
0.0
 30
0.0
 11
1.176999999999992
 21
1.989499999999992
 31
0.0
  0
LINE
  5
13
100
AcDbEntity
  8
USP-GEO
100
AcDbLine
 10
1.125
 20
1.125
 30
0.0
 11
1.176999999999992
 21
1.125
 31
0.0
  0
LINE
  5
14
100
AcDbEntity
  8
USP-GEO
100
AcDbLine
 10
1.125
 20
0.75
 30
0.0
 11
1.176999999999992
 21
0.75
 31
0.0
  0
LINE
  5
15
100
AcDbEntity
  8
USP-GEO
100
AcDbLine
 10
1.176999999999992
 20
0.0
 30
0.0
 11
1.125
 21
0.0
 31
0.0
  0
LINE
  5
16
100
AcDbEntity
  8
USP-GEO
100
AcDbLine
 10
0.0
 20
2.0
 30
0.0
 11
1.0625
 21
2.0
 31
0.0
  0
LINE
  5
17
100
AcDbEntity
  8
USP-GEO
100
AcDbLine
 10
0.0
 20
2.051999999999992
 30
0.0
 11
1.114499999999992
 21
2.051999999999992
 31
0.0
  0
LINE
  5
18
100
AcDbEntity
  8
USP-GEO
100
AcDbLine
 10
0.0
 20
2.051999999999992
 30
0.0
 11
0.0
 21
2.0
 31
0.0
  0
ARC
  5
19
100
AcDbEntity
  8
USP-GEO
100
AcDbCircle
 10
1.114499999999992
 20
1.989499999999992
 30
0.0
 40
0.0625
100
AcDbArc
 50
0.0
 51
90.0
  0
LINE
  5
1A
100
AcDbEntity
  8
USP-GEO
100
AcDbLine
 10
0.5937499999997016
 20
1.8125
 30
0.0
 11
0.7812499999997869
 21
1.8125
 31
0.0
  0
LINE
  5
1B
100
AcDbEntity
  8
USP-GEO
100
AcDbLine
 10
0.5937499999997016
 20
2.0
 30
0.0
 11
0.5937499999997016
 21
1.8125
 31
0.0
  0
LINE
  5
1C
100
AcDbEntity
  8
USP-GEO
100
AcDbLine
 10
0.7812499999997869
 20
2.0
 30
0.0
 11
0.7812499999997869
 21
1.8125
 31
0.0
  0
ARC
  5
1D
100
AcDbEntity
  8
USP-GEO
100
AcDbCircle
 10
1.0625
 20
1.9375
 30
0.0
 40
0.0625
100
AcDbArc
 50
0.0
 51
90.0
  0
ARC
  5
1E
100
AcDbEntity
  8
USP-GEO
100
AcDbCircle
 10
1.5625
 20
0.0
 30
0.0
 40
0.0625
100
AcDbArc
 50
0.0
 51
90.0
  0
ARC
  5
1F
100
AcDbEntity
  8
USP-GEO
100
AcDbCircle
 10
1.5625
 20
2.051999999999992
 30
0.0
 40
0.0625
100
AcDbArc
 50
270.0
 51
0.0
  0
ARC
  5
20
100
AcDbEntity
  8
USP-GEO
100
AcDbCircle
 10
4.854499999999987
 20
1.9375
 30
0.0
 40
0.0625
100
AcDbArc
 50
90.0
 51
180.0
  0
LINE
  5
21
100
AcDbEntity
  8
USP-GEO
100
AcDbLine
 10
5.916999999999987
 20
2.051999999999992
 30
0.0
 11
4.802499999999994
 21
2.051999999999992
 31
0.0
  0
LINE
  5
22
100
AcDbEntity
  8
USP-GEO
100
AcDbLine
 10
4.791999999999987
 20
0.0
 30
0.0
 11
4.791999999999987
 21
1.9375
 31
0.0
  0
LINE
  5
23
100
AcDbEntity
  8
USP-GEO
100
AcDbLine
 10
4.739999999999994
 20
0.0
 30
0.0
 11
4.739999999999994
 21
1.989499999999992
 31
0.0
  0
LINE
  5
24
100
AcDbEntity
  8
USP-GEO
100
AcDbLine
 10
4.739999999999994
 20
1.125
 30
0.0
 11
4.791999999999987
 21
1.125
 31
0.0
  0
LINE
  5
25
100
AcDbEntity
  8
USP-GEO
100
AcDbLine
 10
4.739999999999994
 20
0.75
 30
0.0
 11
4.791999999999987
 21
0.75
 31
0.0
  0
LINE
  5
26
100
AcDbEntity
  8
USP-GEO
100
AcDbLine
 10
4.739999999999994
 20
0.0
 30
0.0
 11
4.791999999999987
 21
0.0
 31
0.0
  0
ARC
  5
27
100
AcDbEntity
  8
USP-GEO
100
AcDbCircle
 10
4.354499999999987
 20
0.0
 30
0.0
 40
0.0625
100
AcDbArc
 50
90.0
 51
180.0
  0
LINE
  5
28
100
AcDbEntity
  8
USP-GEO
100
AcDbLine
 10
4.354499999999987
 20
0.0625
 30
0.0
 11
4.739999999999994
 21
0.0625
 31
0.0
  0
ARC
  5
29
100
AcDbEntity
  8
USP-GEO
100
AcDbCircle
 10
4.802499999999994
 20
1.989499999999992
 30
0.0
 40
0.0625
100
AcDbArc
 50
90.0
 51
180.0
  0
ARC
  5
2A
100
AcDbEntity
  8
USP-GEO
100
AcDbCircle
 10
4.354499999999987
 20
2.051999999999992
 30
0.0
 40
0.0625
100
AcDbArc
 50
180.0
 51
270.0
  0
LINE
  5
2B
100
AcDbEntity
  8
USP-GEO
100
AcDbLine
 10
4.354499999999987
 20
1.989499999999992
 30
0.0
 11
4.74088831279657
 21
1.989499999999992
 31
0.0
  0
LINE
  5
2C
100
AcDbEntity
  8
USP-GEO
100
AcDbLine
 10
5.916999999999987
 20
2.0
 30
0.0
 11
4.854499999999987
 21
2.0
 31
0.0
  0
LINE
  5
2D
100
AcDbEntity
  8
USP-GEO
100
AcDbLine
 10
5.323250000000285
 20
1.8125
 30
0.0
 11
5.1357500000002
 21
1.8125
 31
0.0
  0
LINE
  5
2E
100
AcDbEntity
  8
USP-GEO
100
AcDbLine
 10
5.135750000000214
 20
2.0
 30
0.0
 11
5.1357500000002
 21
1.8125
 31
0.0
  0
LINE
  5
2F
100
AcDbEntity
  8
USP-GEO
100
AcDbLine
 10
5.323250000000285
 20
2.0
 30
0.0
 11
5.323250000000285
 21
1.8125
 31
0.0
  0
LINE
  5
30
100
AcDbEntity
  8
USP-GEO
100
AcDbLine
 10
5.916999999999944
 20
2.051999999999992
 30
0.0
 11
5.916999999999944
 21
2.0
 31
0.0
  0
LINE
  5
31
100
AcDbEntity
  8
USP-GEO
100
AcDbLine
 10
5.916999999999987
 20
2.051999999999992
 30
0.0
 11
5.916999999999987
 21
2.0
 31
0.0
  0
ENDBLK
  5
34
100
AcDbEntity
  8
0
100
AcDbBlockEnd
  0
BLOCK
  5
99
100
AcDbEntity
  8
0
100
AcDbBlockBegin
  2
SUH410_F
 70
     0
 10
0.0
 20
0.0
 30
0.0
  3
SUH410_F
  1

  0
TEXT
  5
37
100
AcDbEntity
  8
USP-TXT
100
AcDbText
 10
0.7731625000001206
 20
-0.9058770671879443
 30
0.0
 40
0.23625
  1
SUH410 - FRONT VIEW
 72
     1
 11
2.95847500000012
 21
-0.9058770671879443
 31
0.0
100
AcDbText
  0
LINE
  5
38
100
AcDbEntity
  8
USP-GEO
100
AcDbLine
 10
4.71395000000011
 20
0.0
 30
0.0
 11
1.20300000000013
 21
0.0
 31
0.0
  0
LINE
  5
39
100
AcDbEntity
  8
USP-GEO
100
AcDbLine
 10
4.661950000000118
 20
0.0520000000000067
 30
0.0
 11
1.255000000000123
 21
0.0520000000000067
 31
0.0
  0
LINE
  5
3A
100
AcDbEntity
  8
USP-GEO
100
AcDbLine
 10
1.125000000000127
 20
0.078000000000003
 30
0.0
 11
1.125000000000113
 21
8.364500000000006
 31
0.0
  0
LINE
  5
3B
100
AcDbEntity
  8
USP-GEO
100
AcDbLine
 10
1.17700000000012
 20
0.1300000000000097
 30
0.0
 11
1.177000000000134
 21
8.364500000000006
 31
0.0
  0
LINE
  5
3C
100
AcDbEntity
  8
USP-GEO
100
AcDbLine
 10
0.0000000000000284
 20
6.904554027203417
 30
0.0
 11
0.0000000000000995
 21
4.2052079590743
 31
0.0
  0
LINE
  5
3D
100
AcDbEntity
  8
USP-GEO
100
AcDbLine
 10
0.1271973462938547
 20
1.54396767386811
 30
0.0
 11
1.125000000000127
 21
0.0301799123360525
 31
0.0
  0
LINE
  5
3E
100
AcDbEntity
  8
USP-GEO
100
AcDbLine
 10
1.125000000000127
 20
0.1249999999994884
 30
0.0
 11
1.17700000000012
 21
0.1249999999994884
 31
0.0
  0
ARC
  5
3F
100
AcDbEntity
  8
USP-GEO
100
AcDbCircle
 10
1.20300000000013
 20
0.078000000000003
 30
0.0
 40
0.078
100
AcDbArc
 50
180.0
 51
270.0
  0
ARC
  5
40
100
AcDbEntity
  8
USP-GEO
100
AcDbCircle
 10
1.255000000000123
 20
0.1300000000000097
 30
0.0
 40
0.078
100
AcDbArc
 50
180.0
 51
270.0
  0
LINE
  5
41
100
AcDbEntity
  8
USP-GEO
100
AcDbLine
 10
1.625000000000127
 20
0.0
 30
0.0
 11
1.625000000000127
 21
0.0520000000000067
 31
0.0
  0
LINE
  5
42
100
AcDbEntity
  8
USP-GEO
100
AcDbLine
 10
0.0000000000001279
 20
2.457713970506148
 30
0.0
 11
0.0000000000001279
 21
2.927000000000006
 31
0.0
  0
LINE
  5
43
100
AcDbEntity
  8
USP-GEO
100
AcDbLine
 10
0.0000000000000995
 20
3.555992572319283
 30
0.0
 11
0.0000000000001279
 21
2.457713970506148
 31
0.0
  0
ARC
  5
44
100
AcDbEntity
  8
USP-GEO
100
AcDbCircle
 10
0.0000000000001279
 20
2.146102734347735
 30
0.0
 40
0.28125
100
AcDbArc
 50
303.0104798486348
 51
84.13673136345691
  0
CIRCLE
  5
45
100
AcDbEntity
  8
USP-GEO
100
AcDbCircle
 10
0.3750000000001279
 20
1.770750000000006
 30
0.0
 40
0.086
  0
ARC
  5
46
100
AcDbEntity
  8
USP-GEO
100
AcDbCircle
 10
0.0320000000001244
 20
2.457713970506148
 30
0.0
 40
0.032
100
AcDbArc
 50
180.0
 51
264.136731363461
  0
LINE
  5
47
100
AcDbEntity
  8
USP-GEO
100
AcDbLine
 10
0.1250000000001279
 20
1.858263260855764
 30
0.0
 11
0.1250000000001279
 21
1.560327460226332
 31
0.0
  0
ARC
  5
48
100
AcDbEntity
  8
USP-GEO
100
AcDbCircle
 10
0.1870000000001255
 20
1.858263260855764
 30
0.0
 40
0.062
100
AcDbArc
 50
123.0104798486377
 51
180.0
  0
ARC
  5
49
100
AcDbEntity
  8
USP-GEO
100
AcDbCircle
 10
0.1870000000001255
 20
1.560327460226332
 30
0.0
 40
0.062
100
AcDbArc
 50
180.0
 51
195.2996716274559
  0
ARC
  5
4A
100
AcDbEntity
  8
USP-GEO
100
AcDbCircle
 10
0.1870000000001255
 20
1.560327460226361
 30
0.0
 40
0.062
100
AcDbArc
 50
179.9999999999991
 51
195.2996716274559
  0
LINE
  5
4B
100
AcDbEntity
  8
USP-GEO
100
AcDbLine
 10
1.125000000000113
 20
2.457713970506148
 30
0.0
 11
1.177000000000134
 21
2.457713970506148
 31
0.0
  0
LINE
  5
4C
100
AcDbEntity
  8
USP-GEO
100
AcDbLine
 10
1.125000000000113
 20
1.808498583751116
 30
0.0
 11
1.17700000000012
 21
1.808498583751116
 31
0.0
  0
CIRCLE
  5
4D
100
AcDbEntity
  8
USP-GEO
100
AcDbCircle
 10
0.4802466279240747
 20
2.561026643820639
 30
0.0
 40
0.0855
  0
ARC
  5
4E
100
AcDbEntity
  8
USP-GEO
100
AcDbCircle
 10
0.0320000000001244
 20
4.2052079590743
 30
0.0
 40
0.032
100
AcDbArc
 50
180.0
 51
264.136731363461
  0
ARC
  5
4F
100
AcDbEntity
  8
USP-GEO
100
AcDbCircle
 10
0.0620000000001113
 20
3.555992572319283
 30
0.0
 40
0.062
100
AcDbArc
 50
100.4062459480042
 51
180.0000000000016
  0
ARC
  5
50
100
AcDbEntity
  8
USP-GEO
100
AcDbCircle
 10
0.0000000000001279
 20
3.893596722915887
 30
0.0
 40
0.28125
100
AcDbArc
 50
280.4062459480066
 51
84.13673136345691
  0
LINE
  5
51
100
AcDbEntity
  8
USP-GEO
100
AcDbLine
 10
1.125000000000113
 20
4.2052079590743
 30
0.0
 11
1.177000000000134
 21
4.2052079590743
 31
0.0
  0
LINE
  5
52
100
AcDbEntity
  8
USP-GEO
100
AcDbLine
 10
1.125000000000113
 20
3.555992572319269
 30
0.0
 11
1.17700000000012
 21
3.555992572319269
 31
0.0
  0
CIRCLE
  5
53
100
AcDbEntity
  8
USP-GEO
100
AcDbCircle
 10
0.5453638808174901
 20
3.563488107498926
 30
0.0
 40
0.086
  0
LINE
  5
54
100
AcDbEntity
  8
USP-GEO
100
AcDbLine
 10
0.0
 20
8.364500000000006
 30
0.0
 11
0.0000000000000142
 21
7.553769413958434
 31
0.0
  0
LINE
  5
55
100
AcDbEntity
  8
USP-GEO
100
AcDbLine
 10
0.6875000000000142
 20
8.270750000000006
 30
0.0
 11
0.6875000000000142
 21
7.718750000000014
 31
0.0
  0
LINE
  5
56
100
AcDbEntity
  8
USP-GEO
100
AcDbLine
 10
0.5
 20
8.270750000000006
 30
0.0
 11
0.5
 21
7.718750000000042
 31
0.0
  0
LINE
  5
57
100
AcDbEntity
  8
USP-GEO
100
AcDbLine
 10
0.515625
 20
8.270750000000006
 30
0.0
 11
0.5156250000000142
 21
7.708250000000006
 31
0.0
  0
LINE
  5
58
100
AcDbEntity
  8
USP-GEO
100
AcDbLine
 10
0.6718750000000142
 20
8.270750000000006
 30
0.0
 11
0.6718750000000142
 21
7.708250000000006
 31
0.0
  0
CIRCLE
  5
59
100
AcDbEntity
  8
USP-GEO
100
AcDbCircle
 10
0.25
 20
5.739500000000006
 30
0.0
 40
0.086
  0
CIRCLE
  5
5A
100
AcDbEntity
  8
USP-GEO
100
AcDbCircle
 10
0.25
 20
4.583250000000006
 30
0.0
 40
0.086
  0
ARC
  5
5B
100
AcDbEntity
  8
USP-GEO
100
AcDbCircle
 10
0.0320000000001244
 20
7.553769413958434
 30
0.0
 40
0.032
100
AcDbArc
 50
180.0
 51
264.136731363461
  0
ARC
  5
5C
100
AcDbEntity
  8
USP-GEO
100
AcDbCircle
 10
0.062000000000026
 20
6.904554027203417
 30
0.0
 40
0.062
100
AcDbArc
 50
100.4062459479918
 51
180.0
  0
ARC
  5
5D
100
AcDbEntity
  8
USP-GEO
100
AcDbCircle
 10
0.0000000000001279
 20
7.242158177800021
 30
0.0
 40
0.28125
100
AcDbArc
 50
280.4062459479926
 51
84.13673136345691
  0
CIRCLE
  5
5E
100
AcDbEntity
  8
USP-GEO
100
AcDbCircle
 10
0.25
 20
6.645750000000006
 30
0.0
 40
0.086
  0
LINE
  5
5F
100
AcDbEntity
  8
USP-GEO
100
AcDbLine
 10
1.125000000000113
 20
7.553769413958434
 30
0.0
 11
1.177000000000134
 21
7.553769413958434
 31
0.0
  0
LINE
  5
60
100
AcDbEntity
  8
USP-GEO
100
AcDbLine
 10
0.5156250000000142
 20
7.708250000000006
 30
0.0
 11
0.6718750000000142
 21
7.708250000000006
 31
0.0
  0
LINE
  5
61
100
AcDbEntity
  8
USP-GEO
100
AcDbLine
 10
1.125000000000113
 20
6.904554027203417
 30
0.0
 11
1.17700000000012
 21
6.904554027203417
 31
0.0
  0
LINE
  5
62
100
AcDbEntity
  8
USP-GEO
100
AcDbLine
 10
0.5937500000000142
 20
7.458250000000006
 30
0.0
 11
0.6875000000000142
 21
7.718750000000014
 31
0.0
  0
LINE
  5
63
100
AcDbEntity
  8
USP-GEO
100
AcDbLine
 10
0.5937500000000142
 20
7.458250000000006
 30
0.0
 11
0.5000000000000142
 21
7.718750000000014
 31
0.0
  0
LINE
  5
64
100
AcDbEntity
  8
USP-GEO
100
AcDbLine
 10
1.177000000000134
 20
8.364500000000006
 30
0.0
 11
0.0
 21
8.364500000000006
 31
0.0
  0
CIRCLE
  5
65
100
AcDbEntity
  8
USP-GEO
100
AcDbCircle
 10
0.25
 20
8.083250000000006
 30
0.0
 40
0.086
  0
LINE
  5
66
100
AcDbEntity
  8
USP-GEO
100
AcDbLine
 10
0.65625
 20
8.270750000000006
 30
0.0
 11
0.6875000000000142
 21
8.270750000000006
 31
0.0
  0
LINE
  5
67
100
AcDbEntity
  8
USP-GEO
100
AcDbLine
 10
0.5625
 20
8.270750000000006
 30
0.0
 11
0.625
 21
8.270750000000006
 31
0.0
  0
LINE
  5
68
100
AcDbEntity
  8
USP-GEO
100
AcDbLine
 10
0.5
 20
8.270750000000006
 30
0.0
 11
0.53125
 21
8.270750000000006
 31
0.0
  0
ARC
  5
69
100
AcDbEntity
  8
USP-GEO
100
AcDbCircle
 10
5.916950000000113
 20
4.143596722915887
 30
0.0
 40
0.28125
100
AcDbArc
 50
95.86326863654308
 51
259.5937540519933
  0
LINE
  5
6A
100
AcDbEntity
  8
USP-GEO
100
AcDbLine
 10
4.791950000000113
 20
0.078000000000003
 30
0.0
 11
4.791950000000113
 21
8.364500000000006
 31
0.0
  0
LINE
  5
6B
100
AcDbEntity
  8
USP-GEO
100
AcDbLine
 10
4.739950000000121
 20
0.1300000000000097
 30
0.0
 11
4.739950000000121
 21
8.364500000000006
 31
0.0
  0
LINE
  5
6C
100
AcDbEntity
  8
USP-GEO
100
AcDbLine
 10
5.789752653706386
 20
1.54396767386811
 30
0.0
 11
4.791950000000113
 21
0.0301799123360525
 31
0.0
  0
LINE
  5
6D
100
AcDbEntity
  8
USP-GEO
100
AcDbLine
 10
4.791950000000113
 20
0.1249999999994884
 30
0.0
 11
4.739950000000121
 21
0.1249999999994884
 31
0.0
  0
ARC
  5
6E
100
AcDbEntity
  8
USP-GEO
100
AcDbCircle
 10
4.71395000000011
 20
0.078000000000003
 30
0.0
 40
0.078
100
AcDbArc
 50
270.0
 51
0.0
  0
ARC
  5
6F
100
AcDbEntity
  8
USP-GEO
100
AcDbCircle
 10
4.661950000000118
 20
0.1300000000000097
 30
0.0
 40
0.078
100
AcDbArc
 50
270.0
 51
0.0
  0
LINE
  5
70
100
AcDbEntity
  8
USP-GEO
100
AcDbLine
 10
4.291950000000113
 20
0.0
 30
0.0
 11
4.291950000000113
 21
0.0520000000000067
 31
0.0
  0
LINE
  5
71
100
AcDbEntity
  8
USP-GEO
100
AcDbLine
 10
4.791950000000113
 20
2.058498583751116
 30
0.0
 11
4.739950000000106
 21
2.058498583751116
 31
0.0
  0
LINE
  5
72
100
AcDbEntity
  8
USP-GEO
100
AcDbLine
 10
4.791950000000113
 20
3.805992572319269
 30
0.0
 11
4.739950000000106
 21
3.805992572319269
 31
0.0
  0
LINE
  5
73
100
AcDbEntity
  8
USP-GEO
100
AcDbLine
 10
4.791950000000113
 20
2.707713970506148
 30
0.0
 11
4.739950000000106
 21
2.707713970506148
 31
0.0
  0
ARC
  5
74
100
AcDbEntity
  8
USP-GEO
100
AcDbCircle
 10
5.916950000000113
 20
2.396102734347735
 30
0.0
 40
0.28125
100
AcDbArc
 50
95.86326863654308
 51
236.9895201513644
  0
CIRCLE
  5
75
100
AcDbEntity
  8
USP-GEO
100
AcDbCircle
 10
5.541950000000099
 20
1.770750000000006
 30
0.0
 40
0.086
  0
LINE
  5
76
100
AcDbEntity
  8
USP-GEO
100
AcDbLine
 10
5.791950000000099
 20
2.108263260855764
 30
0.0
 11
5.791950000000099
 21
1.560327460226332
 31
0.0
  0
ARC
  5
77
100
AcDbEntity
  8
USP-GEO
100
AcDbCircle
 10
5.729950000000101
 20
2.108263260855764
 30
0.0
 40
0.062
100
AcDbArc
 50
0.0
 51
56.98952015136222
  0
ARC
  5
78
100
AcDbEntity
  8
USP-GEO
100
AcDbCircle
 10
5.729950000000101
 20
1.560327460226361
 30
0.0
 40
0.062
100
AcDbArc
 50
344.700328372544
 51
0.0000000000008142
  0
ARC
  5
79
100
AcDbEntity
  8
USP-GEO
100
AcDbCircle
 10
5.729950000000101
 20
1.560327460226332
 30
0.0
 40
0.062
100
AcDbArc
 50
344.700328372544
 51
0.0
  0
CIRCLE
  5
7A
100
AcDbEntity
  8
USP-GEO
100
AcDbCircle
 10
5.666950000000227
 20
3.583250000000006
 30
0.0
 40
0.086
  0
CIRCLE
  5
7B
100
AcDbEntity
  8
USP-GEO
100
AcDbCircle
 10
5.354450000000099
 20
2.614500000000006
 30
0.0
 40
0.0855
  0
ARC
  5
7C
100
AcDbEntity
  8
USP-GEO
100
AcDbCircle
 10
5.85495000000013
 20
3.805992572319283
 30
0.0
 40
0.062
100
AcDbArc
 50
359.9999999999983
 51
79.59375405199573
  0
ARC
  5
7D
100
AcDbEntity
  8
USP-GEO
100
AcDbCircle
 10
5.884950000000102
 20
2.707713970506148
 30
0.0
 40
0.032
100
AcDbArc
 50
275.8632686365389
 51
0.0
  0
LINE
  5
7E
100
AcDbEntity
  8
USP-GEO
100
AcDbLine
 10
5.916950000000113
 20
2.707713970506148
 30
0.0
 11
5.916950000000113
 21
3.177000000000006
 31
0.0
  0
LINE
  5
7F
100
AcDbEntity
  8
USP-GEO
100
AcDbLine
 10
5.916950000000127
 20
3.805992572319283
 30
0.0
 11
5.916950000000099
 21
2.707713970506148
 31
0.0
  0
LINE
  5
80
100
AcDbEntity
  8
USP-GEO
100
AcDbLine
 10
5.916950000000227
 20
8.364500000000006
 30
0.0
 11
5.916950000000213
 21
7.803769413958434
 31
0.0
  0
LINE
  5
81
100
AcDbEntity
  8
USP-GEO
100
AcDbLine
 10
5.245075000000227
 20
8.270750000000006
 30
0.0
 11
5.245075000000213
 21
7.708250000000006
 31
0.0
  0
LINE
  5
82
100
AcDbEntity
  8
USP-GEO
100
AcDbLine
 10
5.401325000000227
 20
8.270750000000006
 30
0.0
 11
5.401325000000213
 21
7.708250000000006
 31
0.0
  0
LINE
  5
83
100
AcDbEntity
  8
USP-GEO
100
AcDbLine
 10
5.416950000000227
 20
8.270750000000006
 30
0.0
 11
5.416950000000227
 21
7.718750000000042
 31
0.0
  0
LINE
  5
84
100
AcDbEntity
  8
USP-GEO
100
AcDbLine
 10
5.229450000000227
 20
8.270750000000006
 30
0.0
 11
5.229450000000213
 21
7.718750000000014
 31
0.0
  0
LINE
  5
85
100
AcDbEntity
  8
USP-GEO
100
AcDbLine
 10
4.791950000000113
 20
4.4552079590743
 30
0.0
 11
4.739950000000106
 21
4.4552079590743
 31
0.0
  0
LINE
  5
86
100
AcDbEntity
  8
USP-GEO
100
AcDbLine
 10
4.791950000000113
 20
7.803769413958434
 30
0.0
 11
4.739950000000106
 21
7.803769413958434
 31
0.0
  0
LINE
  5
87
100
AcDbEntity
  8
USP-GEO
100
AcDbLine
 10
4.791950000000113
 20
7.154554027203417
 30
0.0
 11
4.739950000000106
 21
7.154554027203417
 31
0.0
  0
LINE
  5
88
100
AcDbEntity
  8
USP-GEO
100
AcDbLine
 10
5.916950000000198
 20
7.154554027203417
 30
0.0
 11
5.916950000000142
 21
4.4552079590743
 31
0.0
  0
CIRCLE
  5
89
100
AcDbEntity
  8
USP-GEO
100
AcDbCircle
 10
5.666950000000227
 20
5.739500000000006
 30
0.0
 40
0.086
  0
CIRCLE
  5
8A
100
AcDbEntity
  8
USP-GEO
100
AcDbCircle
 10
5.546374534844375
 20
4.583250000000006
 30
0.0
 40
0.086
  0
ARC
  5
8B
100
AcDbEntity
  8
USP-GEO
100
AcDbCircle
 10
5.884950000000102
 20
4.4552079590743
 30
0.0
 40
0.032
100
AcDbArc
 50
275.8632686365389
 51
0.0
  0
ARC
  5
8C
100
AcDbEntity
  8
USP-GEO
100
AcDbCircle
 10
5.916950000000113
 20
7.492158177800021
 30
0.0
 40
0.28125
100
AcDbArc
 50
95.86326863654308
 51
259.5937540520073
  0
CIRCLE
  5
8D
100
AcDbEntity
  8
USP-GEO
100
AcDbCircle
 10
5.666950000000227
 20
6.645750000000006
 30
0.0
 40
0.086
  0
LINE
  5
8E
100
AcDbEntity
  8
USP-GEO
100
AcDbLine
 10
5.401325000000213
 20
7.708250000000006
 30
0.0
 11
5.245075000000213
 21
7.708250000000006
 31
0.0
  0
LINE
  5
8F
100
AcDbEntity
  8
USP-GEO
100
AcDbLine
 10
5.323200000000213
 20
7.458250000000006
 30
0.0
 11
5.416950000000213
 21
7.718750000000014
 31
0.0
  0
LINE
  5
90
100
AcDbEntity
  8
USP-GEO
100
AcDbLine
 10
5.323200000000213
 20
7.458250000000006
 30
0.0
 11
5.229450000000213
 21
7.718750000000014
 31
0.0
  0
ARC
  5
91
100
AcDbEntity
  8
USP-GEO
100
AcDbCircle
 10
5.884950000000102
 20
7.803769413958434
 30
0.0
 40
0.032
100
AcDbArc
 50
275.8632686365389
 51
0.0
  0
ARC
  5
92
100
AcDbEntity
  8
USP-GEO
100
AcDbCircle
 10
5.854950000000201
 20
7.154554027203417
 30
0.0
 40
0.062
100
AcDbArc
 50
0.0
 51
79.59375405200816
  0
LINE
  5
93
100
AcDbEntity
  8
USP-GEO
100
AcDbLine
 10
4.739950000000106
 20
8.364500000000006
 30
0.0
 11
5.916950000000227
 21
8.364500000000006
 31
0.0
  0
LINE
  5
94
100
AcDbEntity
  8
USP-GEO
100
AcDbLine
 10
5.916950000000312
 20
8.364500000000006
 30
0.0
 11
4.739950000000121
 21
8.364500000000006
 31
0.0
  0
CIRCLE
  5
95
100
AcDbEntity
  8
USP-GEO
100
AcDbCircle
 10
5.666950000000227
 20
8.052499999999994
 30
0.0
 40
0.0855
  0
LINE
  5
96
100
AcDbEntity
  8
USP-GEO
100
AcDbLine
 10
5.416950000000227
 20
8.270750000000006
 30
0.0
 11
5.385700000000227
 21
8.270750000000006
 31
0.0
  0
LINE
  5
97
100
AcDbEntity
  8
USP-GEO
100
AcDbLine
 10
5.354450000000227
 20
8.270750000000006
 30
0.0
 11
5.291950000000227
 21
8.270750000000006
 31
0.0
  0
LINE
  5
98
100
AcDbEntity
  8
USP-GEO
100
AcDbLine
 10
5.260700000000227
 20
8.270750000000006
 30
0.0
 11
5.229450000000227
 21
8.270750000000006
 31
0.0
  0
ENDBLK
  5
9A
100
AcDbEntity
  8
0
100
AcDbBlockEnd
  0
BLOCK
  5
D7
100
AcDbEntity
  8
0
100
AcDbBlockBegin
  2
SUH410_S
 70
     0
 10
0.0
 20
0.0
 30
0.0
  3
SUH410_S
  1

  0
TEXT
  5
9D
100
AcDbEntity
  8
USP-TXT
100
AcDbText
 10
-1.001812500000003
 20
-0.9058770671879443
 30
0.0
 40
0.23625
  1
SUH410 - SIDE VIEW
 72
     1
 11
1.025999999999996
 21
-0.9058770671879443
 31
0.0
100
AcDbText
  0
CIRCLE
  5
9E
100
AcDbEntity
  8
USP-GEO
100
AcDbCircle
 10
0.9297499999999843
 20
7.242158177800021
 30
0.0
 40
0.0860000000000003
  0
LINE
  5
9F
100
AcDbEntity
  8
USP-GEO
100
AcDbLine
 10
0.9374999999998721
 20
8.364500000000006
 30
0.0
 11
-0.0000000000000284
 21
8.364500000000006
 31
0.0
  0
CIRCLE
  5
A0
100
AcDbEntity
  8
USP-GEO
100
AcDbCircle
 10
0.9297499999999843
 20
3.893596722915873
 30
0.0
 40
0.0860000000000003
  0
CIRCLE
  5
A1
100
AcDbEntity
  8
USP-GEO
100
AcDbCircle
 10
0.9297499999999843
 20
2.146102734347721
 30
0.0
 40
0.0860000000000003
  0
LINE
  5
A2
100
AcDbEntity
  8
USP-GEO
100
AcDbLine
 10
1.96875
 20
0.0
 30
0.0
 11
0.0832499999999925
 21
0.0
 31
0.0
  0
LINE
  5
A3
100
AcDbEntity
  8
USP-HID
100
AcDbLine
 10
1.96875
 20
0.0520000000000067
 30
0.0
 11
0.0832499999999925
 21
0.0520000000000067
 31
0.0
  0
LINE
  5
A6
100
AcDbEntity
  8
USP-GEO
100
AcDbLine
 10
-0.0000000000000284
 20
8.364500000000006
 30
0.0
 11
0.0
 21
0.1250000000004121
 31
0.0
  0
LINE
  5
A7
100
AcDbEntity
  8
USP-GEO
100
AcDbLine
 10
0.0519999999999783
 20
8.364500000000006
 30
0.0
 11
0.0519999999999925
 21
0.1570691260455703
 31
0.0
  0
LINE
  5
A8
100
AcDbEntity
  8
USP-GEO
100
AcDbLine
 10
0.0
 20
0.1570691260455703
 30
0.0
 11
0.0519999999999925
 21
0.1570691260455703
 31
0.0
  0
LINE
  5
A9
100
AcDbEntity
  8
USP-GEO
100
AcDbLine
 10
0.0832499999999925
 20
0.0
 30
0.0
 11
0.0
 21
0.0
 31
0.0
  0
LINE
  5
AA
100
AcDbEntity
  8
USP-GEO
100
AcDbLine
 10
0.0832499999999925
 20
0.0520000000000067
 30
0.0
 11
0.0
 21
0.0520000000000067
 31
0.0
  0
ARC
  5
AB
100
AcDbEntity
  8
USP-GEO
100
AcDbCircle
 10
0.0005000000000166
 20
0.0630000000004145
 30
0.0
 40
0.062
100
AcDbArc
 50
359.9999999999959
 51
90.0
  0
LINE
  5
AC
100
AcDbEntity
  8
USP-GEO
100
AcDbLine
 10
0.0
 20
0.1250000000004121
 30
0.0
 11
0.0005000000000166
 21
0.1250000000004121
 31
0.0
  0
LINE
  5
AD
100
AcDbEntity
  8
USP-GEO
100
AcDbLine
 10
0.0
 20
0.0520000000000067
 30
0.0
 11
0.0
 21
0.0
 31
0.0
  0
LINE
  5
AE
100
AcDbEntity
  8
USP-GEO
100
AcDbLine
 10
0.0625000000000284
 20
0.0630000000004145
 30
0.0
 11
0.0625
 21
0.0
 31
0.0
  0
LINE
  5
AF
100
AcDbEntity
  8
USP-GEO
100
AcDbLine
 10
0.0519999999999925
 20
2.457713970506148
 30
0.0
 11
0.0
 21
2.457713970506148
 31
0.0
  0
LINE
  5
B0
100
AcDbEntity
  8
USP-GEO
100
AcDbLine
 10
0.0519999999999925
 20
1.560327460226332
 30
0.0
 11
0.0
 21
1.560327460226332
 31
0.0
  0
LINE
  5
B1
100
AcDbEntity
  8
USP-GEO
100
AcDbLine
 10
0.0519999999999925
 20
1.858263260855764
 30
0.0
 11
0.0
 21
1.858263260855764
 31
0.0
  0
CIRCLE
  5
B2
100
AcDbEntity
  8
USP-GEO
100
AcDbCircle
 10
0.5
 20
0.9850847324427576
 30
0.0
 40
0.15625
  0
LINE
  5
B3
100
AcDbEntity
  8
USP-GEO
100
AcDbLine
 10
0.0519999999999925
 20
4.2052079590743
 30
0.0
 11
-0.0000000000000142
 21
4.2052079590743
 31
0.0
  0
LINE
  5
B4
100
AcDbEntity
  8
USP-GEO
100
AcDbLine
 10
0.0519999999999925
 20
3.555992572319283
 30
0.0
 11
0.0
 21
3.555992572319283
 31
0.0
  0
ARC
  5
B5
100
AcDbEntity
  8
USP-GEO
100
AcDbCircle
 10
0.2113323483271756
 20
7.904224416382604
 30
0.0
 40
0.09375
100
AcDbArc
 50
305.2984937640701
 51
33.69006752597956
  0
LINE
  5
B6
100
AcDbEntity
  8
USP-GEO
100
AcDbLine
 10
0.2469960968137741
 20
7.925930626182704
 30
0.0
 11
0.0519999999999925
 21
8.171716239147301
 31
0.0
  0
CIRCLE
  5
B7
100
AcDbEntity
  8
USP-GEO
100
AcDbCircle
 10
0.5
 20
4.610084732442757
 30
0.0
 40
0.15625
  0
LINE
  5
B8
100
AcDbEntity
  8
USP-GEO
100
AcDbLine
 10
0.0519999999999783
 20
7.553769413958434
 30
0.0
 11
-0.0000000000000142
 21
7.553769413958434
 31
0.0
  0
LINE
  5
B9
100
AcDbEntity
  8
USP-GEO
100
AcDbLine
 10
0.0519999999999783
 20
6.904554027203417
 30
0.0
 11
-0.0000000000000142
 21
6.904554027203417
 31
0.0
  0
ARC
  5
BA
100
AcDbEntity
  8
USP-GEO
100
AcDbCircle
 10
0.2113323483271756
 20
7.904224416382604
 30
0.0
 40
0.04175
100
AcDbArc
 50
307.8367249063999
 51
31.32616213537673
  0
LINE
  5
BB
100
AcDbEntity
  8
USP-GEO
100
AcDbLine
 10
0.2655044891639307
 20
7.827710093166857
 30
0.0
 11
0.0519999999999925
 21
7.703382448340136
 31
0.0
  0
LINE
  5
BC
100
AcDbEntity
  8
USP-GEO
100
AcDbLine
 10
0.2369423575181031
 20
7.871251853102791
 30
0.0
 11
0.0519999999999925
 21
7.763556470073766
 31
0.0
  0
CIRCLE
  5
BD
100
AcDbEntity
  8
USP-GEO
100
AcDbCircle
 10
0.5
 20
8.110084732442757
 30
0.0
 40
0.15625
  0
LINE
  5
BE
100
AcDbEntity
  8
USP-GEO
100
AcDbLine
 10
0.2893370634213568
 20
7.956227559778724
 30
0.0
 11
0.0519999999999925
 21
8.255382448340142
 31
0.0
  0
LINE
  5
BF
100
AcDbEntity
  8
USP-GEO
100
AcDbLine
 10
0.9374999999999005
 20
6.904554027203403
 30
0.0
 11
0.9374999999999715
 21
4.2052079590743
 31
0.0
  0
LINE
  5
C0
100
AcDbEntity
  8
USP-GEO
100
AcDbLine
 10
0.9374999999999005
 20
6.904554027203403
 30
0.0
 11
0.9374999999999573
 21
4.2052079590743
 31
0.0
  0
LINE
  5
C1
100
AcDbEntity
  8
USP-GEO
100
AcDbLine
 10
1.064697346293712
 20
1.543967673868138
 30
0.0
 11
2.0
 21
0.125
 31
0.0
  0
LINE
  5
C2
100
AcDbEntity
  8
USP-GEO
100
AcDbLine
 10
2.0
 20
0.125
 30
0.0
 11
1.999499999999997
 21
0.125
 31
0.0
  0
LINE
  5
C3
100
AcDbEntity
  8
USP-GEO
100
AcDbLine
 10
1.9375
 20
0.0630000000000024
 30
0.0
 11
1.9375
 21
0.0
 31
0.0
  0
LINE
  5
C4
100
AcDbEntity
  8
USP-GEO
100
AcDbLine
 10
1.96875
 20
0.0
 30
0.0
 11
2.0
 21
0.0
 31
0.0
  0
LINE
  5
C5
100
AcDbEntity
  8
USP-GEO
100
AcDbLine
 10
1.96875
 20
0.0520000000000067
 30
0.0
 11
2.0
 21
0.0520000000000067
 31
0.0
  0
LINE
  5
C6
100
AcDbEntity
  8
USP-GEO
100
AcDbLine
 10
2.0
 20
0.0520000000000067
 30
0.0
 11
2.0
 21
0.0
 31
0.0
  0
ARC
  5
C7
100
AcDbEntity
  8
USP-GEO
100
AcDbCircle
 10
1.999499999999997
 20
0.0630000000000024
 30
0.0
 40
0.062
100
AcDbArc
 50
90.0
 51
180.0
  0
LINE
  5
C8
100
AcDbEntity
  8
USP-GEO
100
AcDbLine
 10
0.9375
 20
2.457713970506148
 30
0.0
 11
0.9375
 21
2.926999999999992
 31
0.0
  0
LINE
  5
C9
100
AcDbEntity
  8
USP-GEO
100
AcDbLine
 10
0.9374999999999857
 20
3.555992572319283
 30
0.0
 11
0.9375
 21
2.457713970506148
 31
0.0
  0
LINE
  5
CA
100
AcDbEntity
  8
USP-GEO
100
AcDbLine
 10
0.9374999999999715
 20
3.555992572319283
 30
0.0
 11
0.9375
 21
2.457713970506148
 31
0.0
  0
ARC
  5
CB
100
AcDbEntity
  8
USP-GEO
100
AcDbCircle
 10
0.9375
 20
2.146102734347721
 30
0.0
 40
0.28125
100
AcDbArc
 50
303.0104798486348
 51
84.13673136345691
  0
LINE
  5
CC
100
AcDbEntity
  8
USP-GEO
100
AcDbLine
 10
1.0625
 20
1.858263260855764
 30
0.0
 11
1.0625
 21
1.560327460226332
 31
0.0
  0
ARC
  5
CD
100
AcDbEntity
  8
USP-GEO
100
AcDbCircle
 10
1.124499999999997
 20
1.560327460226361
 30
0.0
 40
0.062
100
AcDbArc
 50
179.9999999999991
 51
195.2996716274559
  0
ARC
  5
CE
100
AcDbEntity
  8
USP-GEO
100
AcDbCircle
 10
1.124499999999997
 20
1.560327460226332
 30
0.0
 40
0.062
100
AcDbArc
 50
180.0
 51
195.2996716274559
  0
ARC
  5
CF
100
AcDbEntity
  8
USP-GEO
100
AcDbCircle
 10
0.9694999999999964
 20
4.2052079590743
 30
0.0
 40
0.032
100
AcDbArc
 50
180.0
 51
264.136731363461
  0
ARC
  5
D0
100
AcDbEntity
  8
USP-GEO
100
AcDbCircle
 10
0.9994999999999834
 20
3.555992572319283
 30
0.0
 40
0.062
100
AcDbArc
 50
100.4062459480042
 51
180.0000000000016
  0
ARC
  5
D1
100
AcDbEntity
  8
USP-GEO
100
AcDbCircle
 10
0.9375
 20
3.893596722915873
 30
0.0
 40
0.28125
100
AcDbArc
 50
280.4062459480066
 51
84.13673136345691
  0
LINE
  5
D2
100
AcDbEntity
  8
USP-GEO
100
AcDbLine
 10
0.9374999999998721
 20
8.364499999999992
 30
0.0
 11
0.9374999999998863
 21
7.553769413958434
 31
0.0
  0
LINE
  5
D3
100
AcDbEntity
  8
USP-GEO
100
AcDbLine
 10
0.9374999999998721
 20
8.364500000000006
 30
0.0
 11
0.9374999999998863
 21
7.553769413958434
 31
0.0
  0
ARC
  5
D4
100
AcDbEntity
  8
USP-GEO
100
AcDbCircle
 10
0.9694999999999964
 20
7.553769413958434
 30
0.0
 40
0.032
100
AcDbArc
 50
180.0
 51
264.136731363461
  0
ARC
  5
D5
100
AcDbEntity
  8
USP-GEO
100
AcDbCircle
 10
0.9994999999998981
 20
6.904554027203403
 30
0.0
 40
0.062
100
AcDbArc
 50
100.4062459479918
 51
180.0
  0
ARC
  5
D6
100
AcDbEntity
  8
USP-GEO
100
AcDbCircle
 10
0.9375
 20
7.242158177800021
 30
0.0
 40
0.28125
100
AcDbArc
 50
280.4062459479926
 51
84.13673136345691
  0
ENDBLK
  5
D8
100
AcDbEntity
  8
0
100
AcDbBlockEnd
  0
ENDSEC
  0
SECTION
  2
ENTITIES
  0
INSERT
  5
3
100
AcDbEntity
  8
USP
100
AcDbBlockReference
  2
SUH410_T
 10
4.293170098171703
 20
11.41370615200274
 30
0.0
  0
INSERT
  5
35
100
AcDbEntity
  8
USP
100
AcDbBlockReference
  2
SUH410_F
 10
4.293220098171577
 20
0.9062881804148368
 30
0.0
  0
INSERT
  5
9B
100
AcDbEntity
  8
USP
100
AcDbBlockReference
  2
SUH410_S
 10
1.002178682998252
 20
0.9062881804148368
 30
0.0
  0
ENDSEC
  0
SECTION
  2
OBJECTS
  0
DICTIONARY
  5
F4
102
{ACAD_XDICTIONARY
360
F5
102
}
100
AcDbDictionary
  3
ACAD_GROUP
350
F1
  3
ACAD_MLINESTYLE
350
F2
  0
DICTIONARY
  5
E6
100
AcDbDictionary
280
     1
  0
DICTIONARY
  5
E8
100
AcDbDictionary
280
     1
  0
DICTIONARY
  5
6
100
AcDbDictionary
280
     1
  0
DICTIONARY
  5
B
100
AcDbDictionary
280
     1
  0
DICTIONARY
  5
F9
100
AcDbDictionary
280
     1
  0
DICTIONARY
  5
D9
100
AcDbDictionary
280
     1
  3
ACAD_LAYOUTSELFREF
360
DA
  0
DICTIONARY
  5
DE
100
AcDbDictionary
280
     1
  3
ACAD_LAYOUTSELFREF
360
DF
  0
DICTIONARY
  5
F5
100
AcDbDictionary
280
     1
  3
ACAD_XREC_ROUNDTRIP
360
F6
  0
DICTIONARY
  5
F1
102
{ACAD_REACTORS
330
F4
102
}
100
AcDbDictionary
  0
DICTIONARY
  5
F2
102
{ACAD_XDICTIONARY
360
F3
102
}
102
{ACAD_REACTORS
330
F4
102
}
100
AcDbDictionary
  3
STANDARD
350
F7
  0
XRECORD
  5
DA
102
{ACAD_REACTORS
330
D9
102
}
100
AcDbXrecord
340
2
  0
XRECORD
  5
DF
102
{ACAD_REACTORS
330
DE
102
}
100
AcDbXrecord
340
DF
  0
XRECORD
  5
F6
102
{ACAD_REACTORS
330
F5
102
}
100
AcDbXrecord
102
EXTNAMES
  1
ACDBVARIABLEDICTIONARY
  2
AcDbVariableDictionary
  0
DICTIONARY
  5
F3
100
AcDbDictionary
280
     1
  0
MLINESTYLE
  5
F7
102
{ACAD_REACTORS
330
F2
102
}
100
AcDbMlineStyle
  2
STANDARD
 70
     0
  3

 62
   256
 51
90.0
 52
90.0
 71
     2
 49
0.5
 62
   256
  6
BYLAYER
 49
-0.5
 62
   256
  6
BYLAYER
  0
ENDSEC
  0
EOF
