  0
SECTION
  2
HEADER
  9
$ACADVER
  1
AC1014
  9
$ACADMAINTVER
 70
     9
  9
$DWGCODEPAGE
  3
ANSI_1252
  9
$INSBASE
 10
0.0
 20
0.0
 30
0.0
  9
$EXTMIN
 10
0.0003661829982491
 20
0.0003522968021983
 30
0.0
  9
$EXTMAX
 10
9.137229413149649
 20
11.55823888086186
 30
0.0
  9
$LIMMIN
 10
0.0
 20
0.0
  9
$LIMMAX
 10
12.0
 20
9.0
  9
$ORTHOMODE
 70
     0
  9
$REGENMODE
 70
     1
  9
$FILLMODE
 70
     1
  9
$QTEXTMODE
 70
     0
  9
$MIRRTEXT
 70
     1
  9
$DRAGMODE
 70
     2
  9
$LTSCALE
 40
1.0
  9
$OSMODE
 70
    37
  9
$ATTMODE
 70
     1
  9
$TEXTSIZE
 40
0.5
  9
$TRACEWID
 40
0.05
  9
$TEXTSTYLE
  7
STANDARD
  9
$CLAYER
  8
0
  9
$CELTYPE
  6
BYLAYER
  9
$CECOLOR
 62
   256
  9
$CELTSCALE
 40
1.0
  9
$DELOBJ
 70
     1
  9
$DISPSILH
 70
     0
  9
$DIMSCALE
 40
1.0
  9
$DIMASZ
 40
0.18
  9
$DIMEXO
 40
0.0625
  9
$DIMDLI
 40
0.38
  9
$DIMRND
 40
0.0
  9
$DIMDLE
 40
0.0
  9
$DIMEXE
 40
0.18
  9
$DIMTP
 40
0.0
  9
$DIMTM
 40
0.0
  9
$DIMTXT
 40
0.18
  9
$DIMCEN
 40
0.09
  9
$DIMTSZ
 40
0.0
  9
$DIMTOL
 70
     0
  9
$DIMLIM
 70
     0
  9
$DIMTIH
 70
     1
  9
$DIMTOH
 70
     1
  9
$DIMSE1
 70
     0
  9
$DIMSE2
 70
     0
  9
$DIMTAD
 70
     0
  9
$DIMZIN
 70
     0
  9
$DIMBLK
  1

  9
$DIMASO
 70
     1
  9
$DIMSHO
 70
     1
  9
$DIMPOST
  1

  9
$DIMAPOST
  1

  9
$DIMALT
 70
     0
  9
$DIMALTD
 70
     2
  9
$DIMALTF
 40
25.4
  9
$DIMLFAC
 40
1.0
  9
$DIMTOFL
 70
     0
  9
$DIMTVP
 40
0.0
  9
$DIMTIX
 70
     0
  9
$DIMSOXD
 70
     0
  9
$DIMSAH
 70
     0
  9
$DIMBLK1
  1

  9
$DIMBLK2
  1

  9
$DIMSTYLE
  2
STANDARD
  9
$DIMCLRD
 70
     0
  9
$DIMCLRE
 70
     0
  9
$DIMCLRT
 70
     0
  9
$DIMTFAC
 40
1.0
  9
$DIMGAP
 40
0.09
  9
$DIMJUST
 70
     0
  9
$DIMSD1
 70
     0
  9
$DIMSD2
 70
     0
  9
$DIMTOLJ
 70
     1
  9
$DIMTZIN
 70
     0
  9
$DIMALTZ
 70
     0
  9
$DIMALTTZ
 70
     0
  9
$DIMFIT
 70
     3
  9
$DIMUPT
 70
     0
  9
$DIMUNIT
 70
     2
  9
$DIMDEC
 70
     4
  9
$DIMTDEC
 70
     4
  9
$DIMALTU
 70
     2
  9
$DIMALTTD
 70
     2
  9
$DIMTXSTY
  7
STANDARD
  9
$DIMAUNIT
 70
     0
  9
$LUNITS
 70
     2
  9
$LUPREC
 70
     4
  9
$SKETCHINC
 40
0.1
  9
$FILLETRAD
 40
0.5
  9
$AUNITS
 70
     0
  9
$AUPREC
 70
     0
  9
$MENU
  1
.
  9
$ELEVATION
 40
0.0
  9
$PELEVATION
 40
0.0
  9
$THICKNESS
 40
0.0
  9
$LIMCHECK
 70
     0
  9
$BLIPMODE
 70
     0
  9
$CHAMFERA
 40
0.5
  9
$CHAMFERB
 40
0.5
  9
$CHAMFERC
 40
1.0
  9
$CHAMFERD
 40
0.0
  9
$SKPOLY
 70
     0
  9
$TDCREATE
 40
2451667.537949421
  9
$TDUPDATE
 40
2452759.747006284
  9
$TDINDWG
 40
0.0806018866
  9
$TDUSRTIMER
 40
0.0806018866
  9
$USRTIMER
 70
     1
  9
$ANGBASE
 50
0.0
  9
$ANGDIR
 70
     0
  9
$PDMODE
 70
     0
  9
$PDSIZE
 40
0.0
  9
$PLINEWID
 40
0.0
  9
$COORDS
 70
     1
  9
$SPLFRAME
 70
     0
  9
$SPLINETYPE
 70
     6
  9
$SPLINESEGS
 70
     8
  9
$ATTDIA
 70
     0
  9
$ATTREQ
 70
     1
  9
$HANDLING
 70
     1
  9
$HANDSEED
  5
F9
  9
$SURFTAB1
 70
     6
  9
$SURFTAB2
 70
     6
  9
$SURFTYPE
 70
     6
  9
$SURFU
 70
     6
  9
$SURFV
 70
     6
  9
$UCSNAME
  2

  9
$UCSORG
 10
0.0
 20
0.0
 30
0.0
  9
$UCSXDIR
 10
1.0
 20
0.0
 30
0.0
  9
$UCSYDIR
 10
0.0
 20
1.0
 30
0.0
  9
$PUCSNAME
  2

  9
$PUCSORG
 10
0.0
 20
0.0
 30
0.0
  9
$PUCSXDIR
 10
1.0
 20
0.0
 30
0.0
  9
$PUCSYDIR
 10
0.0
 20
1.0
 30
0.0
  9
$USERI1
 70
     0
  9
$USERI2
 70
     0
  9
$USERI3
 70
     0
  9
$USERI4
 70
     0
  9
$USERI5
 70
     0
  9
$USERR1
 40
0.0
  9
$USERR2
 40
0.0
  9
$USERR3
 40
0.0
  9
$USERR4
 40
0.0
  9
$USERR5
 40
0.0
  9
$WORLDVIEW
 70
     1
  9
$SHADEDGE
 70
     3
  9
$SHADEDIF
 70
    70
  9
$TILEMODE
 70
     1
  9
$MAXACTVP
 70
    48
  9
$PINSBASE
 10
0.0
 20
0.0
 30
0.0
  9
$PLIMCHECK
 70
     0
  9
$PEXTMIN
 10
1.000000000000000E+20
 20
1.000000000000000E+20
 30
1.000000000000000E+20
  9
$PEXTMAX
 10
-1.000000000000000E+20
 20
-1.000000000000000E+20
 30
-1.000000000000000E+20
  9
$PLIMMIN
 10
0.0
 20
0.0
  9
$PLIMMAX
 10
12.0
 20
9.0
  9
$UNITMODE
 70
     0
  9
$VISRETAIN
 70
     1
  9
$PLINEGEN
 70
     0
  9
$PSLTSCALE
 70
     1
  9
$TREEDEPTH
 70
  3020
  9
$PICKSTYLE
 70
     1
  9
$CMLSTYLE
  2
STANDARD
  9
$CMLJUST
 70
     0
  9
$CMLSCALE
 40
1.0
  9
$PROXYGRAPHICS
 70
     1
  9
$MEASUREMENT
 70
     0
  0
ENDSEC
  0
SECTION
  2
CLASSES
  0
CLASS
  1
ACDBDICTIONARYWDFLT
  2
AcDbDictionaryWithDefault
  3
AutoCAD 2000
 90
        0
280
     1
281
     0
  0
CLASS
  1
ACDBPLACEHOLDER
  2
AcDbPlaceHolder
  3
AutoCAD 2000
 90
        0
280
     1
281
     0
  0
CLASS
  1
LAYOUT
  2
AcDbLayout
  3
AutoCAD 2000
 90
        0
280
     1
281
     0
  0
CLASS
  1
LONG_TRANSACTION
  2
AcDbLongTransaction
  3
AutoCAD 2000
 90
        0
280
     1
281
     0
  0
CLASS
  1
LWPOLYLINE
  2
AcDbPolyline
  3
"AutoCAD"
 90
        0
280
     1
281
     1
  0
CLASS
  1
HATCH
  2
AcDbHatch
  3
"ACAD_SEDONA"
 90
        0
280
     1
281
     1
  0
CLASS
  1
XRECORD
  2
AcDbXrecord
  3
"<Built In>"
 90
        0
280
     0
281
     0
  0
CLASS
  1
LONG_TRANSACTION
  2
AcDbLongTransaction
  3
AutoCAD 2000
 90
        0
280
     1
281
     0
  0
CLASS
  1
LWPOLYLINE
  2
AcDbPolyline
  3
"AutoCAD"
 90
        0
280
     1
281
     1
  0
CLASS
  1
HATCH
  2
AcDbHatch
  3
"ACAD_SEDONA"
 90
        0
280
     1
281
     1
  0
CLASS
  1
XRECORD
  2
AcDbXrecord
  3
"<Built In>"
 90
        0
280
     0
281
     0
  0
CLASS
  1
LONG_TRANSACTION
  2
AcDbLongTransaction
  3
AutoCAD 2000
 90
        0
280
     1
281
     0
  0
CLASS
  1
LWPOLYLINE
  2
AcDbPolyline
  3
"AutoCAD"
 90
        0
280
     1
281
     1
  0
CLASS
  1
HATCH
  2
AcDbHatch
  3
"ACAD_SEDONA"
 90
        0
280
     1
281
     1
  0
CLASS
  1
XRECORD
  2
AcDbXrecord
  3
"<Built In>"
 90
        0
280
     0
281
     0
  0
CLASS
  1
LONG_TRANSACTION
  2
AcDbLongTransaction
  3
AutoCAD 2000
 90
        0
280
     1
281
     0
  0
CLASS
  1
LWPOLYLINE
  2
AcDbPolyline
  3
"AutoCAD"
 90
        0
280
     1
281
     1
  0
CLASS
  1
HATCH
  2
AcDbHatch
  3
"ACAD_SEDONA"
 90
        0
280
     1
281
     1
  0
CLASS
  1
XRECORD
  2
AcDbXrecord
  3
"<Built In>"
 90
        0
280
     0
281
     0
  0
CLASS
  1
LONG_TRANSACTION
  2
AcDbLongTransaction
  3
AutoCAD 2000
 90
        0
280
     1
281
     0
  0
CLASS
  1
LWPOLYLINE
  2
AcDbPolyline
  3
"AutoCAD"
 90
        0
280
     1
281
     1
  0
CLASS
  1
HATCH
  2
AcDbHatch
  3
"ACAD_SEDONA"
 90
        0
280
     1
281
     1
  0
CLASS
  1
XRECORD
  2
AcDbXrecord
  3
"<Built In>"
 90
        0
280
     0
281
     0
  0
CLASS
  1
DICTIONARYVAR
  2
AcDbDictionaryVar
  3
"AutoCAD"
 90
        0
280
     0
281
     0
  0
CLASS
  1
LONG_TRANSACTION
  2
AcDbLongTransaction
  3
AutoCAD 2000
 90
        0
280
     0
281
     0
  0
CLASS
  1
LWPOLYLINE
  2
AcDbPolyline
  3
"AutoCAD"
 90
        0
280
     0
281
     1
  0
CLASS
  1
HATCH
  2
AcDbHatch
  3
"ACAD_SEDONA"
 90
        0
280
     0
281
     1
  0
CLASS
  1
XRECORD
  2
AcDbXrecord
  3
"<Built In>"
 90
        0
280
     0
281
     0
  0
CLASS
  1
LONG_TRANSACTION
  2
AcDbLongTransaction
  3
AutoCAD 2000
 90
        0
280
     0
281
     0
  0
CLASS
  1
LWPOLYLINE
  2
AcDbPolyline
  3
"AutoCAD"
 90
        0
280
     0
281
     1
  0
CLASS
  1
HATCH
  2
AcDbHatch
  3
"ACAD_SEDONA"
 90
        0
280
     0
281
     1
  0
CLASS
  1
XRECORD
  2
AcDbXrecord
  3
"<Built In>"
 90
        0
280
     0
281
     0
  0
ENDSEC
  0
SECTION
  2
TABLES
  0
TABLE
  2
VPORT
  5
D9
100
AcDbSymbolTable
 70
     1
  0
VPORT
  5
F5
100
AcDbSymbolTableRecord
100
AcDbViewportTableRecord
  2
*ACTIVE
 70
     0
 10
0.0
 20
0.0
 11
1.0
 21
1.0
 12
4.568804030110401
 22
5.915133563270707
 13
0.0
 23
0.0
 14
0.5
 24
0.5
 15
0.5
 25
0.5
 16
0.0
 26
0.0
 36
1.0
 17
0.0
 27
0.0
 37
0.0
 40
11.91460155433181
 41
1.457627118644067
 42
50.0
 43
0.0
 44
0.0
 50
0.0
 51
0.0
 71
     0
 72
   100
 73
     1
 74
     3
 75
     0
 76
     0
 77
     0
 78
     0
  0
ENDTAB
  0
TABLE
  2
LTYPE
  5
D2
100
AcDbSymbolTable
 70
     2
  0
LTYPE
  5
D3
102
{ACAD_XDICTIONARY
360
D4
102
}
100
AcDbSymbolTableRecord
100
AcDbLinetypeTableRecord
  2
BYBLOCK
 70
     0
  3

 72
    65
 73
     0
 40
0.0
  0
LTYPE
  5
D5
102
{ACAD_XDICTIONARY
360
D6
102
}
100
AcDbSymbolTableRecord
100
AcDbLinetypeTableRecord
  2
BYLAYER
 70
     0
  3

 72
    65
 73
     0
 40
0.0
  0
LTYPE
  5
5
102
{ACAD_XDICTIONARY
360
6
102
}
100
AcDbSymbolTableRecord
100
AcDbLinetypeTableRecord
  2
CONTINUOUS
 70
     0
  3
Solid line
 72
    65
 73
     0
 40
0.0
  0
LTYPE
  5
94
100
AcDbSymbolTableRecord
100
AcDbLinetypeTableRecord
  2
HIDDEN
 70
     0
  3
Hidden __ __ __ __ __ __ __ __ __ __ __ __ __ _
 72
    65
 73
     2
 40
0.375
 49
0.25
 74
     0
 49
-0.125
 74
     0
  0
ENDTAB
  0
TABLE
  2
LAYER
  5
D0
100
AcDbSymbolTable
 70
     5
  0
LAYER
  5
33
100
AcDbSymbolTableRecord
100
AcDbLayerTableRecord
  2
0
 70
     0
 62
     7
  6
CONTINUOUS
  0
LAYER
  5
4
100
AcDbSymbolTableRecord
100
AcDbLayerTableRecord
  2
USP
 70
     0
 62
     7
  6
CONTINUOUS
  0
LAYER
  5
93
100
AcDbSymbolTableRecord
100
AcDbLayerTableRecord
  2
USP-HID
 70
     0
 62
     7
  6
HIDDEN
  0
LAYER
  5
D
100
AcDbSymbolTableRecord
100
AcDbLayerTableRecord
  2
USP-GEO
 70
     0
 62
     7
  6
CONTINUOUS
  0
LAYER
  5
9
100
AcDbSymbolTableRecord
100
AcDbLayerTableRecord
  2
USP-TXT
 70
     0
 62
     7
  6
CONTINUOUS
  0
ENDTAB
  0
TABLE
  2
STYLE
  5
D1
100
AcDbSymbolTable
 70
     1
  0
STYLE
  5
A
102
{ACAD_XDICTIONARY
360
B
102
}
100
AcDbSymbolTableRecord
100
AcDbTextStyleTableRecord
  2
STANDARD
 70
     0
 40
0.0
 41
1.0
 50
0.0
 71
     0
 42
0.5
  3
txt
  4

  0
ENDTAB
  0
TABLE
  2
VIEW
  5
D7
100
AcDbSymbolTable
 70
     0
  0
ENDTAB
  0
TABLE
  2
UCS
  5
D8
100
AcDbSymbolTable
 70
     0
  0
ENDTAB
  0
TABLE
  2
APPID
  5
DB
100
AcDbSymbolTable
 70
     1
  0
APPID
  5
DC
100
AcDbSymbolTableRecord
100
AcDbRegAppTableRecord
  2
ACAD
 70
     0
  0
ENDTAB
  0
TABLE
  2
DIMSTYLE
  5
DD
100
AcDbSymbolTable
 70
     1
  0
DIMSTYLE
105
E6
102
{ACAD_XDICTIONARY
360
E7
102
}
100
AcDbSymbolTableRecord
100
AcDbDimStyleTableRecord
  2
STANDARD
 70
     0
  3

  4

  5

  6

  7

 40
1.0
 41
0.18
 42
0.0625
 43
0.38
 44
0.18
 45
0.0
 46
0.0
 47
0.0
 48
0.0
140
0.18
141
0.09
142
0.0
143
25.4
144
1.0
145
0.0
146
1.0
147
0.09
 71
     0
 72
     0
 73
     1
 74
     1
 75
     0
 76
     0
 77
     0
 78
     0
170
     0
171
     2
172
     0
173
     0
174
     0
175
     0
176
     0
177
     0
178
     0
270
     2
271
     4
272
     4
273
     2
274
     2
340
A
275
     0
280
     0
281
     0
282
     0
283
     1
284
     0
285
     0
286
     0
287
     3
288
     0
  0
ENDTAB
  0
TABLE
  2
BLOCK_RECORD
  5
1
100
AcDbSymbolTable
 70
     3
  0
BLOCK_RECORD
  5
2
102
{ACAD_XDICTIONARY
360
C7
102
}
100
AcDbSymbolTableRecord
100
AcDbBlockTableRecord
  2
*MODEL_SPACE
  0
BLOCK_RECORD
  5
CB
102
{ACAD_XDICTIONARY
360
CC
102
}
100
AcDbSymbolTableRecord
100
AcDbBlockTableRecord
  2
*PAPER_SPACE
  0
BLOCK_RECORD
  5
7
100
AcDbSymbolTableRecord
100
AcDbBlockTableRecord
  2
SUH28_T
  0
BLOCK_RECORD
  5
36
100
AcDbSymbolTableRecord
100
AcDbBlockTableRecord
  2
SUH28_F
  0
BLOCK_RECORD
  5
8A
100
AcDbSymbolTableRecord
100
AcDbBlockTableRecord
  2
SUH28_S
  0
ENDTAB
  0
ENDSEC
  0
SECTION
  2
BLOCKS
  0
BLOCK
  5
C9
100
AcDbEntity
  8
0
100
AcDbBlockBegin
  2
*MODEL_SPACE
 70
     0
 10
0.0
 20
0.0
 30
0.0
  3
*MODEL_SPACE
  1

  0
ENDBLK
  5
CA
100
AcDbEntity
  8
0
100
AcDbBlockEnd
  0
BLOCK
  5
CE
100
AcDbEntity
 67
     1
  8
0
100
AcDbBlockBegin
  2
*PAPER_SPACE
 70
     0
 10
0.0
 20
0.0
 30
0.0
  3
*PAPER_SPACE
  1

  0
ENDBLK
  5
CF
100
AcDbEntity
 67
     1
  8
0
100
AcDbBlockEnd
  0
BLOCK
  5
32
100
AcDbEntity
  8
0
100
AcDbBlockBegin
  2
SUH28_T
 70
     0
 10
0.0
 20
0.0
 30
0.0
  3
SUH28_T
  1

  0
TEXT
  5
8
100
AcDbEntity
  8
USP-TXT
100
AcDbText
 10
0.0679999999999985
 20
-0.7215981189427368
 30
0.0
 40
0.23625
  1
SUH28 - TOP VIEW
 72
     1
 11
1.957999999999998
 21
-0.7215981189427368
 31
0.0
100
AcDbText
  0
LINE
  5
C
100
AcDbEntity
  8
USP-GEO
100
AcDbLine
 10
1.17611168720299
 20
1.989499999999992
 30
0.0
 11
1.301749999999998
 21
1.989499999999992
 31
0.0
  0
LINE
  5
E
100
AcDbEntity
  8
USP-GEO
100
AcDbLine
 10
1.176999999999992
 20
0.0625
 30
0.0
 11
1.301749999999998
 21
0.0625
 31
0.0
  0
LINE
  5
F
100
AcDbEntity
  8
USP-GEO
100
AcDbLine
 10
1.176999999999992
 20
0.0
 30
0.0
 11
1.176999999999992
 21
1.989499999999992
 31
0.0
  0
LINE
  5
10
100
AcDbEntity
  8
USP-GEO
100
AcDbLine
 10
1.125
 20
0.0
 30
0.0
 11
1.125
 21
1.9375
 31
0.0
  0
LINE
  5
11
100
AcDbEntity
  8
USP-GEO
100
AcDbLine
 10
1.125
 20
0.75
 30
0.0
 11
1.176999999999992
 21
0.75
 31
0.0
  0
LINE
  5
12
100
AcDbEntity
  8
USP-GEO
100
AcDbLine
 10
1.176999999999992
 20
0.0
 30
0.0
 11
1.125
 21
0.0
 31
0.0
  0
LINE
  5
13
100
AcDbEntity
  8
USP-GEO
100
AcDbLine
 10
0.0
 20
2.0
 30
0.0
 11
1.0625
 21
2.0
 31
0.0
  0
LINE
  5
14
100
AcDbEntity
  8
USP-GEO
100
AcDbLine
 10
0.0
 20
2.051999999999992
 30
0.0
 11
1.114499999999992
 21
2.051999999999992
 31
0.0
  0
LINE
  5
15
100
AcDbEntity
  8
USP-GEO
100
AcDbLine
 10
0.0
 20
2.051999999999992
 30
0.0
 11
0.0
 21
2.0
 31
0.0
  0
LINE
  5
16
100
AcDbEntity
  8
USP-GEO
100
AcDbLine
 10
0.7812499999997727
 20
2.0
 30
0.0
 11
0.7812499999997869
 21
1.8125
 31
0.0
  0
ARC
  5
17
100
AcDbEntity
  8
USP-GEO
100
AcDbCircle
 10
1.0625
 20
1.9375
 30
0.0
 40
0.0625
100
AcDbArc
 50
0.0
 51
90.0
  0
ARC
  5
18
100
AcDbEntity
  8
USP-GEO
100
AcDbCircle
 10
1.114499999999992
 20
1.989499999999992
 30
0.0
 40
0.0625
100
AcDbArc
 50
0.0
 51
90.0
  0
LINE
  5
19
100
AcDbEntity
  8
USP-GEO
100
AcDbLine
 10
0.5937499999997016
 20
2.0
 30
0.0
 11
0.5937499999997016
 21
1.8125
 31
0.0
  0
LINE
  5
1A
100
AcDbEntity
  8
USP-GEO
100
AcDbLine
 10
0.5937499999997016
 20
1.8125
 30
0.0
 11
0.7812499999997869
 21
1.8125
 31
0.0
  0
LINE
  5
1B
100
AcDbEntity
  8
USP-GEO
100
AcDbLine
 10
1.125
 20
1.125
 30
0.0
 11
1.176999999999992
 21
1.125
 31
0.0
  0
LINE
  5
1C
100
AcDbEntity
  8
USP-GEO
100
AcDbLine
 10
3.915999999999996
 20
2.051999999999992
 30
0.0
 11
2.801500000000004
 21
2.051999999999992
 31
0.0
  0
LINE
  5
1D
100
AcDbEntity
  8
USP-GEO
100
AcDbLine
 10
3.915999999999996
 20
2.0
 30
0.0
 11
2.853499999999996
 21
2.0
 31
0.0
  0
LINE
  5
1E
100
AcDbEntity
  8
USP-GEO
100
AcDbLine
 10
2.73899999999999
 20
0.0
 30
0.0
 11
2.73899999999999
 21
1.989499999999992
 31
0.0
  0
LINE
  5
1F
100
AcDbEntity
  8
USP-GEO
100
AcDbLine
 10
2.790999999999996
 20
0.0
 30
0.0
 11
2.790999999999996
 21
1.9375
 31
0.0
  0
LINE
  5
20
100
AcDbEntity
  8
USP-GEO
100
AcDbLine
 10
1.364249999999998
 20
0.0
 30
0.0
 11
2.551749999999998
 21
0.0
 31
0.0
  0
ARC
  5
21
100
AcDbEntity
  8
USP-GEO
100
AcDbCircle
 10
1.301749999999998
 20
0.0
 30
0.0
 40
0.0625
100
AcDbArc
 50
0.0
 51
90.0
  0
LINE
  5
22
100
AcDbEntity
  8
USP-GEO
100
AcDbLine
 10
2.73899999999999
 20
0.75
 30
0.0
 11
2.790999999999996
 21
0.75
 31
0.0
  0
LINE
  5
23
100
AcDbEntity
  8
USP-GEO
100
AcDbLine
 10
2.73899999999999
 20
0.0
 30
0.0
 11
2.790999999999996
 21
0.0
 31
0.0
  0
LINE
  5
24
100
AcDbEntity
  8
USP-GEO
100
AcDbLine
 10
2.614249999999998
 20
0.0625
 30
0.0
 11
2.73899999999999
 21
0.0625
 31
0.0
  0
ARC
  5
25
100
AcDbEntity
  8
USP-GEO
100
AcDbCircle
 10
2.614249999999998
 20
0.0
 30
0.0
 40
0.0625
100
AcDbArc
 50
90.0
 51
180.0
  0
LINE
  5
26
100
AcDbEntity
  8
USP-GEO
100
AcDbLine
 10
1.364249999999998
 20
2.051999999999992
 30
0.0
 11
2.551749999999998
 21
2.051999999999992
 31
0.0
  0
ARC
  5
27
100
AcDbEntity
  8
USP-GEO
100
AcDbCircle
 10
1.301749999999998
 20
2.051999999999992
 30
0.0
 40
0.0625
100
AcDbArc
 50
270.0
 51
0.0
  0
LINE
  5
28
100
AcDbEntity
  8
USP-GEO
100
AcDbLine
 10
2.614249999999998
 20
1.989499999999992
 30
0.0
 11
2.73988831279658
 21
1.989499999999992
 31
0.0
  0
ARC
  5
29
100
AcDbEntity
  8
USP-GEO
100
AcDbCircle
 10
2.853499999999996
 20
1.9375
 30
0.0
 40
0.0625
100
AcDbArc
 50
90.0
 51
180.0
  0
ARC
  5
2A
100
AcDbEntity
  8
USP-GEO
100
AcDbCircle
 10
2.801500000000004
 20
1.989499999999992
 30
0.0
 40
0.0625
100
AcDbArc
 50
90.0
 51
180.0
  0
ARC
  5
2B
100
AcDbEntity
  8
USP-GEO
100
AcDbCircle
 10
2.614249999999998
 20
2.051999999999992
 30
0.0
 40
0.0625
100
AcDbArc
 50
180.0
 51
270.0
  0
LINE
  5
2C
100
AcDbEntity
  8
USP-GEO
100
AcDbLine
 10
2.73899999999999
 20
1.125
 30
0.0
 11
2.790999999999996
 21
1.125
 31
0.0
  0
LINE
  5
2D
100
AcDbEntity
  8
USP-GEO
100
AcDbLine
 10
3.322250000000281
 20
2.0
 30
0.0
 11
3.322250000000281
 21
1.8125
 31
0.0
  0
LINE
  5
2E
100
AcDbEntity
  8
USP-GEO
100
AcDbLine
 10
3.915999999999939
 20
2.051999999999992
 30
0.0
 11
3.915999999999939
 21
2.0
 31
0.0
  0
LINE
  5
2F
100
AcDbEntity
  8
USP-GEO
100
AcDbLine
 10
3.915999999999996
 20
2.051999999999992
 30
0.0
 11
3.915999999999996
 21
2.0
 31
0.0
  0
LINE
  5
30
100
AcDbEntity
  8
USP-GEO
100
AcDbLine
 10
3.134750000000209
 20
2.0
 30
0.0
 11
3.134750000000195
 21
1.8125
 31
0.0
  0
LINE
  5
31
100
AcDbEntity
  8
USP-GEO
100
AcDbLine
 10
3.322250000000281
 20
1.8125
 30
0.0
 11
3.134750000000195
 21
1.8125
 31
0.0
  0
ENDBLK
  5
34
100
AcDbEntity
  8
0
100
AcDbBlockEnd
  0
BLOCK
  5
87
100
AcDbEntity
  8
0
100
AcDbBlockBegin
  2
SUH28_F
 70
     0
 10
0.0
 20
0.0
 30
0.0
  3
SUH28_F
  1

  0
TEXT
  5
37
100
AcDbEntity
  8
USP-TXT
100
AcDbText
 10
-0.1677499999999004
 20
-0.7215981189427368
 30
0.0
 40
0.23625
  1
SUH28 - FRONT VIEW
 72
     1
 11
1.9585000000001
 21
-0.7215981189427368
 31
0.0
100
AcDbText
  0
ARC
  5
38
100
AcDbEntity
  8
USP-GEO
100
AcDbCircle
 10
1.203000000000102
 20
0.078000000000003
 30
0.0
 40
0.078
100
AcDbArc
 50
180.0
 51
270.0
  0
ARC
  5
39
100
AcDbEntity
  8
USP-GEO
100
AcDbCircle
 10
1.255000000000109
 20
0.1300000000000097
 30
0.0
 40
0.078
100
AcDbArc
 50
180.0
 51
270.0
  0
LINE
  5
3A
100
AcDbEntity
  8
USP-GEO
100
AcDbLine
 10
0.0000000000001137
 20
2.428157983341975
 30
0.0
 11
0.0000000000001137
 21
3.427000000000006
 31
0.0
  0
LINE
  5
3B
100
AcDbEntity
  8
USP-GEO
100
AcDbLine
 10
0.0000000000000995
 20
3.5208411156311
 30
0.0
 11
0.0000000000001279
 21
2.428157983341975
 31
0.0
  0
LINE
  5
3C
100
AcDbEntity
  8
USP-GEO
100
AcDbLine
 10
1.125000000000113
 20
0.078000000000003
 30
0.0
 11
1.125000000000099
 21
7.051999999999992
 31
0.0
  0
LINE
  5
3D
100
AcDbEntity
  8
USP-GEO
100
AcDbLine
 10
1.177000000000106
 20
0.1300000000000097
 30
0.0
 11
1.17700000000012
 21
7.051999999999992
 31
0.0
  0
LINE
  5
3E
100
AcDbEntity
  8
USP-GEO
100
AcDbLine
 10
0.1271973462938405
 20
1.61450000000002
 30
0.0
 11
1.125000000000113
 21
0.2801799123360524
 31
0.0
  0
LINE
  5
3F
100
AcDbEntity
  8
USP-GEO
100
AcDbLine
 10
1.125000000000099
 20
0.3749999999994884
 30
0.0
 11
1.177000000000106
 21
0.3749999999994884
 31
0.0
  0
ARC
  5
40
100
AcDbEntity
  8
USP-GEO
100
AcDbCircle
 10
0.0000000000001137
 20
2.116546747183562
 30
0.0
 40
0.28125
100
AcDbArc
 50
303.0104798486348
 51
84.13673136345691
  0
CIRCLE
  5
41
100
AcDbEntity
  8
USP-GEO
100
AcDbCircle
 10
0.3125000000000995
 20
1.677000000000006
 30
0.0
 40
0.0855
  0
ARC
  5
42
100
AcDbEntity
  8
USP-GEO
100
AcDbCircle
 10
0.0320000000001244
 20
2.428157983341975
 30
0.0
 40
0.032
100
AcDbArc
 50
180.0
 51
264.136731363461
  0
ARC
  5
43
100
AcDbEntity
  8
USP-GEO
100
AcDbCircle
 10
0.1870000000001255
 20
1.828707273691591
 30
0.0
 40
0.062
100
AcDbArc
 50
123.0104798486377
 51
180.0
  0
ARC
  5
44
100
AcDbEntity
  8
USP-GEO
100
AcDbCircle
 10
0.1870000000001255
 20
1.630859786358271
 30
0.0
 40
0.062
100
AcDbArc
 50
179.9999999999991
 51
195.2996716274559
  0
ARC
  5
45
100
AcDbEntity
  8
USP-GEO
100
AcDbCircle
 10
0.1870000000001255
 20
1.630859786358243
 30
0.0
 40
0.062
100
AcDbArc
 50
180.0
 51
195.2996716274559
  0
LINE
  5
46
100
AcDbEntity
  8
USP-GEO
100
AcDbLine
 10
0.1250000000001279
 20
1.828707273691591
 30
0.0
 11
0.1250000000001279
 21
1.630859786358243
 31
0.0
  0
LINE
  5
47
100
AcDbEntity
  8
USP-GEO
100
AcDbLine
 10
0.6874999999999858
 20
6.552000000000006
 30
0.0
 11
0.6875
 21
6.000000000000014
 31
0.0
  0
LINE
  5
48
100
AcDbEntity
  8
USP-GEO
100
AcDbLine
 10
0.6718749999999858
 20
6.552000000000006
 30
0.0
 11
0.671875
 21
5.989500000000006
 31
0.0
  0
ARC
  5
49
100
AcDbEntity
  8
USP-GEO
100
AcDbCircle
 10
0.0000000000001137
 20
5.838611444583321
 30
0.0
 40
0.28125
100
AcDbArc
 50
280.4062459479926
 51
84.13673136345691
  0
LINE
  5
4A
100
AcDbEntity
  8
USP-GEO
100
AcDbLine
 10
0.4999999999999858
 20
6.552000000000006
 30
0.0
 11
0.4999999999999858
 21
6.000000000000042
 31
0.0
  0
LINE
  5
4B
100
AcDbEntity
  8
USP-GEO
100
AcDbLine
 10
0.5156249999999858
 20
6.552000000000006
 30
0.0
 11
0.515625
 21
5.989500000000006
 31
0.0
  0
LINE
  5
4C
100
AcDbEntity
  8
USP-GEO
100
AcDbLine
 10
0.0000000000000142
 20
5.501007293986717
 30
0.0
 11
0.0000000000000853
 21
4.170056502386117
 31
0.0
  0
ARC
  5
4D
100
AcDbEntity
  8
USP-GEO
100
AcDbCircle
 10
0.0000000000001137
 20
3.85844526622769
 30
0.0
 40
0.28125
100
AcDbArc
 50
280.4062459480066
 51
84.13673136345691
  0
ARC
  5
4E
100
AcDbEntity
  8
USP-GEO
100
AcDbCircle
 10
0.0320000000001244
 20
4.170056502386117
 30
0.0
 40
0.032
100
AcDbArc
 50
180.0
 51
264.136731363461
  0
ARC
  5
4F
100
AcDbEntity
  8
USP-GEO
100
AcDbCircle
 10
0.0620000000001113
 20
3.5208411156311
 30
0.0
 40
0.062
100
AcDbArc
 50
100.4062459480042
 51
180.0000000000016
  0
CIRCLE
  5
50
100
AcDbEntity
  8
USP-GEO
100
AcDbCircle
 10
0.1875000000000284
 20
2.864500000000006
 30
0.0
 40
0.0855
  0
ARC
  5
51
100
AcDbEntity
  8
USP-GEO
100
AcDbCircle
 10
0.062000000000026
 20
5.501007293986717
 30
0.0
 40
0.062
100
AcDbArc
 50
100.4062459479918
 51
180.0
  0
CIRCLE
  5
52
100
AcDbEntity
  8
USP-GEO
100
AcDbCircle
 10
0.1875000000000142
 20
4.614500000000006
 30
0.0
 40
0.0855
  0
LINE
  5
53
100
AcDbEntity
  8
USP-GEO
100
AcDbLine
 10
0.5937500000000142
 20
5.739500000000006
 30
0.0
 11
0.6875
 21
6.000000000000014
 31
0.0
  0
LINE
  5
54
100
AcDbEntity
  8
USP-GEO
100
AcDbLine
 10
0.515625
 20
5.989500000000006
 30
0.0
 11
0.671875
 21
5.989500000000006
 31
0.0
  0
LINE
  5
55
100
AcDbEntity
  8
USP-GEO
100
AcDbLine
 10
0.5937500000000142
 20
5.739500000000006
 30
0.0
 11
0.5
 21
6.0
 31
0.0
  0
LINE
  5
56
100
AcDbEntity
  8
USP-GEO
100
AcDbLine
 10
1.17700000000012
 20
7.052000000000006
 30
0.0
 11
-0.0000000000000142
 21
7.052000000000006
 31
0.0
  0
CIRCLE
  5
57
100
AcDbEntity
  8
USP-GEO
100
AcDbCircle
 10
0.1875
 20
6.302402773605606
 30
0.0
 40
0.0855
  0
ARC
  5
58
100
AcDbEntity
  8
USP-GEO
100
AcDbCircle
 10
0.0320000000001244
 20
6.150222680741748
 30
0.0
 40
0.032
100
AcDbArc
 50
180.0
 51
264.136731363461
  0
LINE
  5
59
100
AcDbEntity
  8
USP-GEO
100
AcDbLine
 10
0.0
 20
7.052000000000006
 30
0.0
 11
0.0000000000000142
 21
6.150222680741748
 31
0.0
  0
LINE
  5
5A
100
AcDbEntity
  8
USP-GEO
100
AcDbLine
 10
0.6562499999999858
 20
6.552000000000006
 30
0.0
 11
0.6874999999999858
 21
6.552000000000006
 31
0.0
  0
LINE
  5
5B
100
AcDbEntity
  8
USP-GEO
100
AcDbLine
 10
0.5624999999999858
 20
6.552000000000006
 30
0.0
 11
0.6249999999999858
 21
6.552000000000006
 31
0.0
  0
LINE
  5
5C
100
AcDbEntity
  8
USP-GEO
100
AcDbLine
 10
0.4999999999999858
 20
6.552000000000006
 30
0.0
 11
0.5312499999999858
 21
6.552000000000006
 31
0.0
  0
LINE
  5
5D
100
AcDbEntity
  8
USP-GEO
100
AcDbLine
 10
3.917000000000101
 20
2.550013979449857
 30
0.0
 11
3.917000000000101
 21
3.177000000000006
 31
0.0
  0
LINE
  5
5E
100
AcDbEntity
  8
USP-GEO
100
AcDbLine
 10
3.917000000000129
 20
3.527780950368324
 30
0.0
 11
3.917000000000101
 21
2.550013979449857
 31
0.0
  0
LINE
  5
5F
100
AcDbEntity
  8
USP-GEO
100
AcDbLine
 10
2.792000000000101
 20
0.078000000000003
 30
0.0
 11
2.792000000000101
 21
7.052000000000006
 31
0.0
  0
LINE
  5
60
100
AcDbEntity
  8
USP-GEO
100
AcDbLine
 10
2.740000000000108
 20
0.1300000000000097
 30
0.0
 11
2.740000000000108
 21
7.052000000000006
 31
0.0
  0
LINE
  5
61
100
AcDbEntity
  8
USP-GEO
100
AcDbLine
 10
3.789802653706374
 20
1.614500000000006
 30
0.0
 11
2.792000000000101
 21
0.2801799123360524
 31
0.0
  0
LINE
  5
62
100
AcDbEntity
  8
USP-GEO
100
AcDbLine
 10
2.662000000000105
 20
0.0520000000000067
 30
0.0
 11
1.255000000000109
 21
0.0520000000000067
 31
0.0
  0
LINE
  5
63
100
AcDbEntity
  8
USP-GEO
100
AcDbLine
 10
2.714000000000098
 20
0.0
 30
0.0
 11
1.203000000000102
 21
0.0
 31
0.0
  0
LINE
  5
64
100
AcDbEntity
  8
USP-GEO
100
AcDbLine
 10
1.364750000000114
 20
0.0
 30
0.0
 11
1.364750000000114
 21
0.0520000000000067
 31
0.0
  0
LINE
  5
65
100
AcDbEntity
  8
USP-GEO
100
AcDbLine
 10
2.792000000000101
 20
0.3749999999994884
 30
0.0
 11
2.740000000000108
 21
0.3749999999994884
 31
0.0
  0
ARC
  5
66
100
AcDbEntity
  8
USP-GEO
100
AcDbCircle
 10
2.714000000000098
 20
0.078000000000003
 30
0.0
 40
0.078
100
AcDbArc
 50
270.0
 51
0.0
  0
LINE
  5
67
100
AcDbEntity
  8
USP-GEO
100
AcDbLine
 10
2.5522500000001
 20
0.0
 30
0.0
 11
2.552250000000114
 21
0.0520000000000067
 31
0.0
  0
ARC
  5
68
100
AcDbEntity
  8
USP-GEO
100
AcDbCircle
 10
2.662000000000105
 20
0.1300000000000097
 30
0.0
 40
0.078
100
AcDbArc
 50
270.0
 51
0.0
  0
ARC
  5
69
100
AcDbEntity
  8
USP-GEO
100
AcDbCircle
 10
3.885000000000104
 20
2.550013979449857
 30
0.0
 40
0.032
100
AcDbArc
 50
275.8632686365389
 51
0.0
  0
ARC
  5
6A
100
AcDbEntity
  8
USP-GEO
100
AcDbCircle
 10
3.730000000000103
 20
1.950563269799474
 30
0.0
 40
0.062
100
AcDbArc
 50
0.0
 51
56.98952015136222
  0
ARC
  5
6B
100
AcDbEntity
  8
USP-GEO
100
AcDbCircle
 10
3.730000000000103
 20
1.630859786358243
 30
0.0
 40
0.062
100
AcDbArc
 50
344.700328372544
 51
0.0
  0
ARC
  5
6C
100
AcDbEntity
  8
USP-GEO
100
AcDbCircle
 10
3.730000000000103
 20
1.630859786358257
 30
0.0
 40
0.062
100
AcDbArc
 50
344.700328372544
 51
0.0000000000008142
  0
CIRCLE
  5
6D
100
AcDbEntity
  8
USP-GEO
100
AcDbCircle
 10
3.604500000000101
 20
1.677499999999994
 30
0.0
 40
0.0855
  0
LINE
  5
6E
100
AcDbEntity
  8
USP-GEO
100
AcDbLine
 10
3.792000000000101
 20
1.950563269799474
 30
0.0
 11
3.792000000000101
 21
1.630859786358243
 31
0.0
  0
ARC
  5
6F
100
AcDbEntity
  8
USP-GEO
100
AcDbCircle
 10
3.917000000000101
 20
2.238402743291445
 30
0.0
 40
0.28125
100
AcDbArc
 50
95.86326863654308
 51
236.9895201513644
  0
LINE
  5
70
100
AcDbEntity
  8
USP-GEO
100
AcDbLine
 10
3.3232500000002
 20
5.864500000000006
 30
0.0
 11
3.4170000000002
 21
6.125
 31
0.0
  0
LINE
  5
71
100
AcDbEntity
  8
USP-GEO
100
AcDbLine
 10
3.3232500000002
 20
5.864500000000006
 30
0.0
 11
3.2295000000002
 21
6.125000000000014
 31
0.0
  0
LINE
  5
72
100
AcDbEntity
  8
USP-GEO
100
AcDbLine
 10
3.917000000000228
 20
7.052000000000006
 30
0.0
 11
3.917000000000214
 21
6.048438437929078
 31
0.0
  0
LINE
  5
73
100
AcDbEntity
  8
USP-GEO
100
AcDbLine
 10
3.9170000000002
 20
5.399223051174047
 30
0.0
 11
3.917000000000129
 21
4.176996337123341
 31
0.0
  0
ARC
  5
74
100
AcDbEntity
  8
USP-GEO
100
AcDbCircle
 10
3.885000000000104
 20
4.176996337123341
 30
0.0
 40
0.032
100
AcDbArc
 50
275.8632686365389
 51
0.0
  0
ARC
  5
75
100
AcDbEntity
  8
USP-GEO
100
AcDbCircle
 10
3.855000000000117
 20
3.527780950368324
 30
0.0
 40
0.062
100
AcDbArc
 50
359.9999999999983
 51
79.59375405199573
  0
CIRCLE
  5
76
100
AcDbEntity
  8
USP-GEO
100
AcDbCircle
 10
3.667000000000214
 20
2.989500000000006
 30
0.0
 40
0.0855
  0
ARC
  5
77
100
AcDbEntity
  8
USP-GEO
100
AcDbCircle
 10
3.917000000000101
 20
3.865385100964928
 30
0.0
 40
0.28125
100
AcDbArc
 50
95.86326863654308
 51
259.5937540519933
  0
ARC
  5
78
100
AcDbEntity
  8
USP-GEO
100
AcDbCircle
 10
3.885000000000104
 20
6.048438437929078
 30
0.0
 40
0.032
100
AcDbArc
 50
275.8632686365389
 51
0.0
  0
ARC
  5
79
100
AcDbEntity
  8
USP-GEO
100
AcDbCircle
 10
3.855000000000202
 20
5.399223051174047
 30
0.0
 40
0.062
100
AcDbArc
 50
0.0
 51
79.59375405200816
  0
ARC
  5
7A
100
AcDbEntity
  8
USP-GEO
100
AcDbCircle
 10
3.917000000000101
 20
5.736827201770651
 30
0.0
 40
0.28125
100
AcDbArc
 50
95.86326863654308
 51
259.5937540520073
  0
CIRCLE
  5
7B
100
AcDbEntity
  8
USP-GEO
100
AcDbCircle
 10
3.667000000000214
 20
4.864500000000006
 30
0.0
 40
0.0855
  0
LINE
  5
7C
100
AcDbEntity
  8
USP-GEO
100
AcDbLine
 10
2.740000000000094
 20
7.052000000000006
 30
0.0
 11
3.917000000000214
 21
7.052000000000006
 31
0.0
  0
LINE
  5
7D
100
AcDbEntity
  8
USP-GEO
100
AcDbLine
 10
3.9170000000003
 20
7.052000000000006
 30
0.0
 11
2.740000000000108
 21
7.052000000000006
 31
0.0
  0
CIRCLE
  5
7E
100
AcDbEntity
  8
USP-GEO
100
AcDbCircle
 10
3.667000000000214
 20
6.333749999999994
 30
0.0
 40
0.0855
  0
LINE
  5
7F
100
AcDbEntity
  8
USP-GEO
100
AcDbLine
 10
3.417000000000214
 20
6.677000000000006
 30
0.0
 11
3.385750000000214
 21
6.677000000000006
 31
0.0
  0
LINE
  5
80
100
AcDbEntity
  8
USP-GEO
100
AcDbLine
 10
3.354500000000214
 20
6.677000000000006
 30
0.0
 11
3.292000000000214
 21
6.677000000000006
 31
0.0
  0
LINE
  5
81
100
AcDbEntity
  8
USP-GEO
100
AcDbLine
 10
3.260750000000214
 20
6.677000000000006
 30
0.0
 11
3.229500000000214
 21
6.677000000000006
 31
0.0
  0
LINE
  5
82
100
AcDbEntity
  8
USP-GEO
100
AcDbLine
 10
3.4013750000002
 20
6.114500000000006
 30
0.0
 11
3.2451250000002
 21
6.114500000000006
 31
0.0
  0
LINE
  5
83
100
AcDbEntity
  8
USP-GEO
100
AcDbLine
 10
3.245125000000214
 20
6.677000000000006
 30
0.0
 11
3.2451250000002
 21
6.114500000000006
 31
0.0
  0
LINE
  5
84
100
AcDbEntity
  8
USP-GEO
100
AcDbLine
 10
3.401375000000214
 20
6.677000000000006
 30
0.0
 11
3.4013750000002
 21
6.114500000000006
 31
0.0
  0
LINE
  5
85
100
AcDbEntity
  8
USP-GEO
100
AcDbLine
 10
3.417000000000214
 20
6.677000000000006
 30
0.0
 11
3.417000000000214
 21
6.125000000000042
 31
0.0
  0
LINE
  5
86
100
AcDbEntity
  8
USP-GEO
100
AcDbLine
 10
3.229500000000214
 20
6.677000000000006
 30
0.0
 11
3.2295000000002
 21
6.125000000000014
 31
0.0
  0
ENDBLK
  5
88
100
AcDbEntity
  8
0
100
AcDbBlockEnd
  0
BLOCK
  5
C5
100
AcDbEntity
  8
0
100
AcDbBlockBegin
  2
SUH28_S
 70
     0
 10
0.0
 20
0.0
 30
0.0
  3
SUH28_S
  1

  0
TEXT
  5
8B
100
AcDbEntity
  8
USP-TXT
100
AcDbText
 10
-0.9427500000000033
 20
-0.7215981189427368
 30
0.0
 40
0.23625
  1
SUH28 - SIDE VIEW
 72
     1
 11
1.025999999999996
 21
-0.7215981189427368
 31
0.0
100
AcDbText
  0
LINE
  5
8C
100
AcDbEntity
  8
USP-GEO
100
AcDbLine
 10
0.9374999999999715
 20
3.520841115631085
 30
0.0
 11
0.9375
 21
2.428157983341975
 31
0.0
  0
LINE
  5
8D
100
AcDbEntity
  8
USP-GEO
100
AcDbLine
 10
0.9374999999999857
 20
2.428157983341975
 30
0.0
 11
0.9374999999999857
 21
3.426999999999992
 31
0.0
  0
LINE
  5
8E
100
AcDbEntity
  8
USP-GEO
100
AcDbLine
 10
-0.0000000000000284
 20
7.052000000000006
 30
0.0
 11
0.0
 21
0.3750000000004121
 31
0.0
  0
LINE
  5
8F
100
AcDbEntity
  8
USP-GEO
100
AcDbLine
 10
0.0519999999999783
 20
7.052000000000006
 30
0.0
 11
0.0519999999999925
 21
0.4070691260455704
 31
0.0
  0
LINE
  5
90
100
AcDbEntity
  8
USP-GEO
100
AcDbLine
 10
1.064697346293712
 20
1.61450000000002
 30
0.0
 11
1.991939667751353
 21
0.3745373169409447
 31
0.0
  0
LINE
  5
91
100
AcDbEntity
  8
USP-GEO
100
AcDbLine
 10
1.96875
 20
0.0
 30
0.0
 11
0.0832499999999925
 21
0.0
 31
0.0
  0
LINE
  5
92
100
AcDbEntity
  8
USP-HID
100
AcDbLine
 10
1.96875
 20
0.0520000000000067
 30
0.0
 11
0.0832499999999925
 21
0.0520000000000067
 31
0.0
  0
ARC
  5
95
100
AcDbEntity
  8
USP-GEO
100
AcDbCircle
 10
0.0005000000000166
 20
0.3130000000004145
 30
0.0
 40
0.062
100
AcDbArc
 50
359.9999999999959
 51
90.0
  0
LINE
  5
96
100
AcDbEntity
  8
USP-GEO
100
AcDbLine
 10
0.0
 20
0.3750000000004121
 30
0.0
 11
0.0005000000000166
 21
0.3750000000004121
 31
0.0
  0
LINE
  5
97
100
AcDbEntity
  8
USP-GEO
100
AcDbLine
 10
0.0
 20
0.4070691260455704
 30
0.0
 11
0.0519999999999925
 21
0.4070691260455704
 31
0.0
  0
LINE
  5
98
100
AcDbEntity
  8
USP-GEO
100
AcDbLine
 10
0.0832499999999925
 20
0.0
 30
0.0
 11
0.0
 21
0.0
 31
0.0
  0
LINE
  5
99
100
AcDbEntity
  8
USP-GEO
100
AcDbLine
 10
0.0832499999999925
 20
0.0520000000000067
 30
0.0
 11
0.0
 21
0.0520000000000067
 31
0.0
  0
LINE
  5
9A
100
AcDbEntity
  8
USP-GEO
100
AcDbLine
 10
0.0
 20
0.0520000000000067
 30
0.0
 11
0.0
 21
0.0
 31
0.0
  0
LINE
  5
9B
100
AcDbEntity
  8
USP-GEO
100
AcDbLine
 10
0.0625000000000284
 20
0.3130000000004145
 30
0.0
 11
0.0625
 21
0.0
 31
0.0
  0
LINE
  5
9C
100
AcDbEntity
  8
USP-GEO
100
AcDbLine
 10
0.0519999999999925
 20
1.880698671670884
 30
0.0
 11
0.0
 21
1.880698671670884
 31
0.0
  0
LINE
  5
9D
100
AcDbEntity
  8
USP-GEO
100
AcDbLine
 10
0.0519999999999925
 20
2.428157983341691
 30
0.0
 11
0.0
 21
2.428157983341691
 31
0.0
  0
LINE
  5
9E
100
AcDbEntity
  8
USP-GEO
100
AcDbLine
 10
0.0519999999999925
 20
1.614499999999736
 30
0.0
 11
0.0
 21
1.614499999999736
 31
0.0
  0
CIRCLE
  5
9F
100
AcDbEntity
  8
USP-GEO
100
AcDbCircle
 10
0.5
 20
1.302000000000006
 30
0.0
 40
0.15625
  0
ARC
  5
A0
100
AcDbEntity
  8
USP-GEO
100
AcDbCircle
 10
0.9374999999999857
 20
2.116546747183548
 30
0.0
 40
0.28125
100
AcDbArc
 50
303.0104798486348
 51
84.13673136345691
  0
ARC
  5
A1
100
AcDbEntity
  8
USP-GEO
100
AcDbCircle
 10
1.124499999999997
 20
1.828707273691591
 30
0.0
 40
0.062
100
AcDbArc
 50
123.0104798486377
 51
180.0
  0
ARC
  5
A2
100
AcDbEntity
  8
USP-GEO
100
AcDbCircle
 10
1.124499999999997
 20
1.810327460226361
 30
0.0
 40
0.062
100
AcDbArc
 50
179.9999999999991
 51
195.2996716274559
  0
ARC
  5
A3
100
AcDbEntity
  8
USP-GEO
100
AcDbCircle
 10
1.124499999999997
 20
1.810327460226332
 30
0.0
 40
0.062
100
AcDbArc
 50
180.0
 51
195.2996716274559
  0
ARC
  5
A4
100
AcDbEntity
  8
USP-GEO
100
AcDbCircle
 10
0.9694999999999964
 20
2.428157983341975
 30
0.0
 40
0.032
100
AcDbArc
 50
180.0
 51
264.136731363461
  0
CIRCLE
  5
A5
100
AcDbEntity
  8
USP-GEO
100
AcDbCircle
 10
0.9374999999999857
 20
2.116546747183548
 30
0.0
 40
0.0855
  0
ARC
  5
A6
100
AcDbEntity
  8
USP-GEO
100
AcDbCircle
 10
1.124499999999997
 20
1.630859786358243
 30
0.0
 40
0.062
100
AcDbArc
 50
180.0
 51
195.2996716274559
  0
ARC
  5
A7
100
AcDbEntity
  8
USP-GEO
100
AcDbCircle
 10
1.124499999999997
 20
1.630859786358257
 30
0.0
 40
0.062
100
AcDbArc
 50
179.9999999999991
 51
195.2996716274559
  0
LINE
  5
A8
100
AcDbEntity
  8
USP-GEO
100
AcDbLine
 10
1.0625
 20
1.828707273691591
 30
0.0
 11
1.0625
 21
1.630859786358243
 31
0.0
  0
ARC
  5
A9
100
AcDbEntity
  8
USP-GEO
100
AcDbCircle
 10
1.999499999999997
 20
0.3130000000000024
 30
0.0
 40
0.062
100
AcDbArc
 50
97.00412739206477
 51
180.0
  0
LINE
  5
AA
100
AcDbEntity
  8
USP-GEO
100
AcDbLine
 10
2.0
 20
0.375
 30
0.0
 11
1.999499999999997
 21
0.375
 31
0.0
  0
LINE
  5
AB
100
AcDbEntity
  8
USP-GEO
100
AcDbLine
 10
1.96875
 20
0.0
 30
0.0
 11
2.0
 21
0.0
 31
0.0
  0
LINE
  5
AC
100
AcDbEntity
  8
USP-GEO
100
AcDbLine
 10
1.96875
 20
0.0520000000000067
 30
0.0
 11
2.0
 21
0.0520000000000067
 31
0.0
  0
LINE
  5
AD
100
AcDbEntity
  8
USP-GEO
100
AcDbLine
 10
2.0
 20
0.0520000000000067
 30
0.0
 11
2.0
 21
0.0
 31
0.0
  0
LINE
  5
AE
100
AcDbEntity
  8
USP-GEO
100
AcDbLine
 10
1.9375
 20
0.3130000000000024
 30
0.0
 11
1.9375
 21
0.0
 31
0.0
  0
ARC
  5
AF
100
AcDbEntity
  8
USP-GEO
100
AcDbCircle
 10
0.9374999999999857
 20
5.838611444583321
 30
0.0
 40
0.28125
100
AcDbArc
 50
280.4062459479926
 51
84.13673136345691
  0
LINE
  5
B0
100
AcDbEntity
  8
USP-GEO
100
AcDbLine
 10
0.2655044891639307
 20
6.108960093166857
 30
0.0
 11
0.0519999999999925
 21
5.984632448340136
 31
0.0
  0
LINE
  5
B1
100
AcDbEntity
  8
USP-GEO
100
AcDbLine
 10
0.2369423575181031
 20
6.152501853102791
 30
0.0
 11
0.0519999999999925
 21
6.044806470073751
 31
0.0
  0
LINE
  5
B2
100
AcDbEntity
  8
USP-GEO
100
AcDbLine
 10
0.9374999999998863
 20
5.501007293986717
 30
0.0
 11
0.9374999999999573
 21
4.170056502386117
 31
0.0
  0
LINE
  5
B3
100
AcDbEntity
  8
USP-GEO
100
AcDbLine
 10
0.0519999999999925
 20
4.138223910024905
 30
0.0
 11
-0.0000000000000142
 21
4.138223910024905
 31
0.0
  0
LINE
  5
B4
100
AcDbEntity
  8
USP-GEO
100
AcDbLine
 10
0.0519999999999925
 20
3.581821326372207
 30
0.0
 11
-0.0000000000000142
 21
3.581821326372207
 31
0.0
  0
ARC
  5
B5
100
AcDbEntity
  8
USP-GEO
100
AcDbCircle
 10
0.9694999999999964
 20
4.170056502386117
 30
0.0
 40
0.032
100
AcDbArc
 50
180.0
 51
264.136731363461
  0
CIRCLE
  5
B6
100
AcDbEntity
  8
USP-GEO
100
AcDbCircle
 10
0.9374999999999857
 20
3.85844526622769
 30
0.0
 40
0.0855
  0
ARC
  5
B7
100
AcDbEntity
  8
USP-GEO
100
AcDbCircle
 10
0.9994999999999834
 20
3.5208411156311
 30
0.0
 40
0.062
100
AcDbArc
 50
100.4062459480042
 51
180.0000000000016
  0
ARC
  5
B8
100
AcDbEntity
  8
USP-GEO
100
AcDbCircle
 10
0.9374999999999857
 20
3.85844526622769
 30
0.0
 40
0.28125
100
AcDbArc
 50
280.4062459480066
 51
84.13673136345691
  0
LINE
  5
B9
100
AcDbEntity
  8
USP-GEO
100
AcDbLine
 10
0.0519999999999925
 20
5.501007293986432
 30
0.0
 11
-0.0000000000000142
 21
5.501007293986432
 31
0.0
  0
CIRCLE
  5
BA
100
AcDbEntity
  8
USP-GEO
100
AcDbCircle
 10
0.5
 20
4.552000000000006
 30
0.0
 40
0.15625
  0
CIRCLE
  5
BB
100
AcDbEntity
  8
USP-GEO
100
AcDbCircle
 10
0.9374999999999857
 20
5.838611444583321
 30
0.0
 40
0.0855
  0
ARC
  5
BC
100
AcDbEntity
  8
USP-GEO
100
AcDbCircle
 10
0.9994999999998981
 20
5.501007293986717
 30
0.0
 40
0.062
100
AcDbArc
 50
100.4062459479918
 51
180.0
  0
LINE
  5
BD
100
AcDbEntity
  8
USP-GEO
100
AcDbLine
 10
0.9374999999998721
 20
7.052000000000006
 30
0.0
 11
-0.0000000000000284
 21
7.052000000000006
 31
0.0
  0
LINE
  5
BE
100
AcDbEntity
  8
USP-GEO
100
AcDbLine
 10
0.2893370634213568
 20
6.237477559778724
 30
0.0
 11
0.0519999999999925
 21
6.536632448340128
 31
0.0
  0
LINE
  5
BF
100
AcDbEntity
  8
USP-GEO
100
AcDbLine
 10
0.2469960968137741
 20
6.207180626182704
 30
0.0
 11
0.0519999999999925
 21
6.452966239147286
 31
0.0
  0
LINE
  5
C0
100
AcDbEntity
  8
USP-GEO
100
AcDbLine
 10
0.0519999999999783
 20
6.118390088380536
 30
0.0
 11
-0.0000000000000142
 21
6.118390088380536
 31
0.0
  0
ARC
  5
C1
100
AcDbEntity
  8
USP-GEO
100
AcDbCircle
 10
0.2113323483271756
 20
6.185474416382604
 30
0.0
 40
0.09375
100
AcDbArc
 50
305.2984937640701
 51
33.69006752597956
  0
ARC
  5
C2
100
AcDbEntity
  8
USP-GEO
100
AcDbCircle
 10
0.2113323483271756
 20
6.185474416382604
 30
0.0
 40
0.04175
100
AcDbArc
 50
307.8367249063999
 51
31.32616213537673
  0
ARC
  5
C3
100
AcDbEntity
  8
USP-GEO
100
AcDbCircle
 10
0.9694999999999964
 20
6.150222680741734
 30
0.0
 40
0.032
100
AcDbArc
 50
180.0
 51
264.136731363461
  0
LINE
  5
C4
100
AcDbEntity
  8
USP-GEO
100
AcDbLine
 10
0.9374999999998721
 20
7.052000000000006
 30
0.0
 11
0.9374999999998863
 21
6.150222680741734
 31
0.0
  0
ENDBLK
  5
C6
100
AcDbEntity
  8
0
100
AcDbBlockEnd
  0
ENDSEC
  0
SECTION
  2
ENTITIES
  0
INSERT
  5
3
100
AcDbEntity
  8
USP
100
AcDbBlockReference
  2
SUH28_T
 10
4.958085569937054
 20
9.493294707037712
 30
0.0
  0
INSERT
  5
35
100
AcDbEntity
  8
USP
100
AcDbBlockReference
  2
SUH28_F
 10
5.052479413149555
 20
0.7219504157449351
 30
0.0
  0
INSERT
  5
89
100
AcDbEntity
  8
USP
100
AcDbBlockReference
  2
SUH28_S
 10
0.9431161829982524
 20
0.7219504157449351
 30
0.0
  0
ENDSEC
  0
SECTION
  2
OBJECTS
  0
DICTIONARY
  5
E2
102
{ACAD_XDICTIONARY
360
E3
102
}
100
AcDbDictionary
  3
ACAD_GROUP
350
DF
  3
ACAD_MLINESTYLE
350
E0
  0
DICTIONARY
  5
D4
100
AcDbDictionary
280
     1
  0
DICTIONARY
  5
D6
100
AcDbDictionary
280
     1
  0
DICTIONARY
  5
6
100
AcDbDictionary
280
     1
  0
DICTIONARY
  5
B
100
AcDbDictionary
280
     1
  0
DICTIONARY
  5
E7
100
AcDbDictionary
280
     1
  0
DICTIONARY
  5
C7
100
AcDbDictionary
280
     1
  3
ACAD_LAYOUTSELFREF
360
C8
  0
DICTIONARY
  5
CC
100
AcDbDictionary
280
     1
  3
ACAD_LAYOUTSELFREF
360
CD
  0
DICTIONARY
  5
E3
100
AcDbDictionary
280
     1
  3
ACAD_XREC_ROUNDTRIP
360
E4
  0
DICTIONARY
  5
DF
102
{ACAD_REACTORS
330
E2
102
}
100
AcDbDictionary
  0
DICTIONARY
  5
E0
102
{ACAD_XDICTIONARY
360
E1
102
}
102
{ACAD_REACTORS
330
E2
102
}
100
AcDbDictionary
  3
STANDARD
350
E5
  0
XRECORD
  5
C8
102
{ACAD_REACTORS
330
C7
102
}
100
AcDbXrecord
340
2
  0
XRECORD
  5
CD
102
{ACAD_REACTORS
330
CC
102
}
100
AcDbXrecord
340
CD
  0
XRECORD
  5
E4
102
{ACAD_REACTORS
330
E3
102
}
100
AcDbXrecord
102
EXTNAMES
  1
ACDBVARIABLEDICTIONARY
  2
AcDbVariableDictionary
  0
DICTIONARY
  5
E1
100
AcDbDictionary
280
     1
  0
MLINESTYLE
  5
E5
102
{ACAD_REACTORS
330
E0
102
}
100
AcDbMlineStyle
  2
STANDARD
 70
     0
  3

 62
   256
 51
90.0
 52
90.0
 71
     2
 49
0.5
 62
   256
  6
BYLAYER
 49
-0.5
 62
   256
  6
BYLAYER
  0
ENDSEC
  0
EOF
