  0
SECTION
  2
HEADER
  9
$ACADVER
  1
AC1014
  9
$ACADMAINTVER
 70
     9
  9
$DWGCODEPAGE
  3
ANSI_1252
  9
$INSBASE
 10
0.0
 20
0.0
 30
0.0
  9
$EXTMIN
 10
0.0003661829982491
 20
0.0011872794615471
 30
0.0
  9
$EXTMAX
 10
8.437013091354906
 20
38.90709703792749
 30
0.0
  9
$LIMMIN
 10
0.0
 20
0.0
  9
$LIMMAX
 10
12.0
 20
9.0
  9
$ORTHOMODE
 70
     0
  9
$REGENMODE
 70
     1
  9
$FILLMODE
 70
     1
  9
$QTEXTMODE
 70
     0
  9
$MIRRTEXT
 70
     1
  9
$DRAGMODE
 70
     2
  9
$LTSCALE
 40
0.375
  9
$OSMODE
 70
    37
  9
$ATTMODE
 70
     1
  9
$TEXTSIZE
 40
0.375
  9
$TRACEWID
 40
0.05
  9
$TEXTSTYLE
  7
STANDARD
  9
$CLAYER
  8
0
  9
$CELTYPE
  6
BYLAYER
  9
$CECOLOR
 62
   256
  9
$CELTSCALE
 40
1.0
  9
$DELOBJ
 70
     1
  9
$DISPSILH
 70
     0
  9
$DIMSCALE
 40
1.5
  9
$DIMASZ
 40
0.18
  9
$DIMEXO
 40
0.0625
  9
$DIMDLI
 40
0.38
  9
$DIMRND
 40
0.0
  9
$DIMDLE
 40
0.0
  9
$DIMEXE
 40
0.18
  9
$DIMTP
 40
0.0
  9
$DIMTM
 40
0.0
  9
$DIMTXT
 40
0.18
  9
$DIMCEN
 40
0.09
  9
$DIMTSZ
 40
0.0
  9
$DIMTOL
 70
     0
  9
$DIMLIM
 70
     0
  9
$DIMTIH
 70
     1
  9
$DIMTOH
 70
     1
  9
$DIMSE1
 70
     0
  9
$DIMSE2
 70
     0
  9
$DIMTAD
 70
     0
  9
$DIMZIN
 70
     0
  9
$DIMBLK
  1

  9
$DIMASO
 70
     1
  9
$DIMSHO
 70
     1
  9
$DIMPOST
  1

  9
$DIMAPOST
  1

  9
$DIMALT
 70
     0
  9
$DIMALTD
 70
     2
  9
$DIMALTF
 40
25.4
  9
$DIMLFAC
 40
1.0
  9
$DIMTOFL
 70
     0
  9
$DIMTVP
 40
0.0
  9
$DIMTIX
 70
     0
  9
$DIMSOXD
 70
     0
  9
$DIMSAH
 70
     0
  9
$DIMBLK1
  1

  9
$DIMBLK2
  1

  9
$DIMSTYLE
  2
STANDARD
  9
$DIMCLRD
 70
     0
  9
$DIMCLRE
 70
     0
  9
$DIMCLRT
 70
     0
  9
$DIMTFAC
 40
1.0
  9
$DIMGAP
 40
0.09
  9
$DIMJUST
 70
     0
  9
$DIMSD1
 70
     0
  9
$DIMSD2
 70
     0
  9
$DIMTOLJ
 70
     1
  9
$DIMTZIN
 70
     0
  9
$DIMALTZ
 70
     0
  9
$DIMALTTZ
 70
     0
  9
$DIMFIT
 70
     3
  9
$DIMUPT
 70
     0
  9
$DIMUNIT
 70
     2
  9
$DIMDEC
 70
     4
  9
$DIMTDEC
 70
     4
  9
$DIMALTU
 70
     2
  9
$DIMALTTD
 70
     2
  9
$DIMTXSTY
  7
STANDARD
  9
$DIMAUNIT
 70
     0
  9
$LUNITS
 70
     2
  9
$LUPREC
 70
     4
  9
$SKETCHINC
 40
0.1
  9
$FILLETRAD
 40
0.0
  9
$AUNITS
 70
     0
  9
$AUPREC
 70
     2
  9
$MENU
  1
CUSTOM
  9
$ELEVATION
 40
0.0
  9
$PELEVATION
 40
0.0
  9
$THICKNESS
 40
0.0
  9
$LIMCHECK
 70
     0
  9
$BLIPMODE
 70
     0
  9
$CHAMFERA
 40
0.0
  9
$CHAMFERB
 40
0.0
  9
$CHAMFERC
 40
0.0
  9
$CHAMFERD
 40
0.0
  9
$SKPOLY
 70
     0
  9
$TDCREATE
 40
2450049.604998495
  9
$TDUPDATE
 40
2452759.746946967
  9
$TDINDWG
 40
0.2357129977
  9
$TDUSRTIMER
 40
0.2357129977
  9
$USRTIMER
 70
     1
  9
$ANGBASE
 50
0.0
  9
$ANGDIR
 70
     0
  9
$PDMODE
 70
     0
  9
$PDSIZE
 40
0.0
  9
$PLINEWID
 40
0.0
  9
$COORDS
 70
     1
  9
$SPLFRAME
 70
     0
  9
$SPLINETYPE
 70
     6
  9
$SPLINESEGS
 70
     8
  9
$ATTDIA
 70
     0
  9
$ATTREQ
 70
     1
  9
$HANDLING
 70
     1
  9
$HANDSEED
  5
14A
  9
$SURFTAB1
 70
     6
  9
$SURFTAB2
 70
     6
  9
$SURFTYPE
 70
     6
  9
$SURFU
 70
     6
  9
$SURFV
 70
     6
  9
$UCSNAME
  2

  9
$UCSORG
 10
0.0
 20
0.0
 30
0.0
  9
$UCSXDIR
 10
1.0
 20
0.0
 30
0.0
  9
$UCSYDIR
 10
0.0
 20
1.0
 30
0.0
  9
$PUCSNAME
  2

  9
$PUCSORG
 10
0.0
 20
0.0
 30
0.0
  9
$PUCSXDIR
 10
1.0
 20
0.0
 30
0.0
  9
$PUCSYDIR
 10
0.0
 20
1.0
 30
0.0
  9
$USERI1
 70
     0
  9
$USERI2
 70
     0
  9
$USERI3
 70
     0
  9
$USERI4
 70
     0
  9
$USERI5
 70
     0
  9
$USERR1
 40
0.0
  9
$USERR2
 40
0.0
  9
$USERR3
 40
0.0
  9
$USERR4
 40
0.0
  9
$USERR5
 40
0.0
  9
$WORLDVIEW
 70
     1
  9
$SHADEDGE
 70
     3
  9
$SHADEDIF
 70
    70
  9
$TILEMODE
 70
     1
  9
$MAXACTVP
 70
    16
  9
$PINSBASE
 10
0.0
 20
0.0
 30
0.0
  9
$PLIMCHECK
 70
     0
  9
$PEXTMIN
 10
1.000000000000000E+20
 20
1.000000000000000E+20
 30
1.000000000000000E+20
  9
$PEXTMAX
 10
-1.000000000000000E+20
 20
-1.000000000000000E+20
 30
-1.000000000000000E+20
  9
$PLIMMIN
 10
0.0
 20
0.0
  9
$PLIMMAX
 10
12.0
 20
9.0
  9
$UNITMODE
 70
     0
  9
$VISRETAIN
 70
     0
  9
$PLINEGEN
 70
     0
  9
$PSLTSCALE
 70
     0
  9
$TREEDEPTH
 70
  3020
  9
$PICKSTYLE
 70
     1
  9
$CMLSTYLE
  2
STANDARD
  9
$CMLJUST
 70
     0
  9
$CMLSCALE
 40
1.0
  9
$PROXYGRAPHICS
 70
     1
  9
$MEASUREMENT
 70
     0
  0
ENDSEC
  0
SECTION
  2
CLASSES
  0
CLASS
  1
ACDBDICTIONARYWDFLT
  2
AcDbDictionaryWithDefault
  3
AutoCAD 2000
 90
        0
280
     1
281
     0
  0
CLASS
  1
ACDBPLACEHOLDER
  2
AcDbPlaceHolder
  3
AutoCAD 2000
 90
        0
280
     1
281
     0
  0
CLASS
  1
LAYOUT
  2
AcDbLayout
  3
AutoCAD 2000
 90
        0
280
     1
281
     0
  0
CLASS
  1
LONG_TRANSACTION
  2
AcDbLongTransaction
  3
AutoCAD 2000
 90
        0
280
     1
281
     0
  0
CLASS
  1
LWPOLYLINE
  2
AcDbPolyline
  3
"AutoCAD"
 90
        0
280
     1
281
     1
  0
CLASS
  1
HATCH
  2
AcDbHatch
  3
"ACAD_SEDONA"
 90
        0
280
     1
281
     1
  0
CLASS
  1
XRECORD
  2
AcDbXrecord
  3
"<Built In>"
 90
        0
280
     0
281
     0
  0
CLASS
  1
LONG_TRANSACTION
  2
AcDbLongTransaction
  3
AutoCAD 2000
 90
        0
280
     1
281
     0
  0
CLASS
  1
LWPOLYLINE
  2
AcDbPolyline
  3
"AutoCAD"
 90
        0
280
     1
281
     1
  0
CLASS
  1
HATCH
  2
AcDbHatch
  3
"ACAD_SEDONA"
 90
        0
280
     1
281
     1
  0
CLASS
  1
XRECORD
  2
AcDbXrecord
  3
"<Built In>"
 90
        0
280
     0
281
     0
  0
CLASS
  1
LONG_TRANSACTION
  2
AcDbLongTransaction
  3
AutoCAD 2000
 90
        0
280
     1
281
     0
  0
CLASS
  1
LWPOLYLINE
  2
AcDbPolyline
  3
"AutoCAD"
 90
        0
280
     1
281
     1
  0
CLASS
  1
HATCH
  2
AcDbHatch
  3
"ACAD_SEDONA"
 90
        0
280
     1
281
     1
  0
CLASS
  1
XRECORD
  2
AcDbXrecord
  3
"<Built In>"
 90
        0
280
     0
281
     0
  0
CLASS
  1
DICTIONARYVAR
  2
AcDbDictionaryVar
  3
"AutoCAD"
 90
        0
280
     0
281
     0
  0
CLASS
  1
LONG_TRANSACTION
  2
AcDbLongTransaction
  3
AutoCAD 2000
 90
        0
280
     0
281
     0
  0
CLASS
  1
LWPOLYLINE
  2
AcDbPolyline
  3
"AutoCAD"
 90
        0
280
     0
281
     1
  0
CLASS
  1
HATCH
  2
AcDbHatch
  3
"ACAD_SEDONA"
 90
        0
280
     0
281
     1
  0
CLASS
  1
XRECORD
  2
AcDbXrecord
  3
"<Built In>"
 90
        0
280
     0
281
     0
  0
CLASS
  1
LONG_TRANSACTION
  2
AcDbLongTransaction
  3
AutoCAD 2000
 90
        0
280
     0
281
     0
  0
CLASS
  1
LWPOLYLINE
  2
AcDbPolyline
  3
"AutoCAD"
 90
        0
280
     0
281
     1
  0
CLASS
  1
HATCH
  2
AcDbHatch
  3
"ACAD_SEDONA"
 90
        0
280
     0
281
     1
  0
CLASS
  1
XRECORD
  2
AcDbXrecord
  3
"<Built In>"
 90
        0
280
     0
281
     0
  0
ENDSEC
  0
SECTION
  2
TABLES
  0
TABLE
  2
VPORT
  5
12D
100
AcDbSymbolTable
 70
     1
  0
VPORT
  5
146
100
AcDbSymbolTableRecord
100
AcDbViewportTableRecord
  2
*ACTIVE
 70
     0
 10
0.0
 20
0.0
 11
1.0
 21
1.0
 12
4.116061942982643
 22
19.93420921473878
 13
0.0
 23
0.0
 14
1.0
 24
1.0
 15
0.0
 25
0.0
 16
0.0
 26
0.0
 36
1.0
 17
0.0
 27
0.0
 37
0.0
 40
40.15262569268471
 41
1.457627118644067
 42
50.0
 43
0.0
 44
0.0
 50
0.0
 51
0.0
 71
     0
 72
   100
 73
     1
 74
     0
 75
     0
 76
     0
 77
     0
 78
     0
  0
ENDTAB
  0
TABLE
  2
LTYPE
  5
128
100
AcDbSymbolTable
 70
     2
  0
LTYPE
  5
129
100
AcDbSymbolTableRecord
100
AcDbLinetypeTableRecord
  2
BYBLOCK
 70
     0
  3

 72
    65
 73
     0
 40
0.0
  0
LTYPE
  5
12A
100
AcDbSymbolTableRecord
100
AcDbLinetypeTableRecord
  2
BYLAYER
 70
     0
  3

 72
    65
 73
     0
 40
0.0
  0
LTYPE
  5
5
100
AcDbSymbolTableRecord
100
AcDbLinetypeTableRecord
  2
CONTINUOUS
 70
     0
  3
Solid line
 72
    65
 73
     0
 40
0.0
  0
LTYPE
  5
20
100
AcDbSymbolTableRecord
100
AcDbLinetypeTableRecord
  2
CENTER
 70
     0
  3
____ _ ____ _ ____ _ ____ _ ____ _ ____ _ ____ 
 72
    65
 73
     4
 40
2.0
 49
1.25
 74
     0
 49
-0.25
 74
     0
 49
0.25
 74
     0
 49
-0.25
 74
     0
  0
ENDTAB
  0
TABLE
  2
LAYER
  5
126
100
AcDbSymbolTable
 70
     6
  0
LAYER
  5
18
100
AcDbSymbolTableRecord
100
AcDbLayerTableRecord
  2
0
 70
     0
 62
     7
  6
CONTINUOUS
  0
LAYER
  5
4
100
AcDbSymbolTableRecord
100
AcDbLayerTableRecord
  2
USP
 70
     0
 62
     7
  6
CONTINUOUS
  0
LAYER
  5
1F
100
AcDbSymbolTableRecord
100
AcDbLayerTableRecord
  2
USP-CEN
 70
     0
 62
     7
  6
CENTER
  0
LAYER
  5
B
100
AcDbSymbolTableRecord
100
AcDbLayerTableRecord
  2
USP-GEO
 70
     0
 62
     7
  6
CONTINUOUS
  0
LAYER
  5
8
100
AcDbSymbolTableRecord
100
AcDbLayerTableRecord
  2
USP-TXT
 70
     0
 62
     7
  6
CONTINUOUS
  0
LAYER
  5
3D
100
AcDbSymbolTableRecord
100
AcDbLayerTableRecord
  2
USP-DIM
 70
     0
 62
     7
  6
CONTINUOUS
  0
ENDTAB
  0
TABLE
  2
STYLE
  5
127
100
AcDbSymbolTable
 70
     1
  0
STYLE
  5
9
100
AcDbSymbolTableRecord
100
AcDbTextStyleTableRecord
  2
STANDARD
 70
     0
 40
0.0
 41
1.0
 50
0.0
 71
     0
 42
0.375
  3
txt
  4

  0
ENDTAB
  0
TABLE
  2
VIEW
  5
12B
100
AcDbSymbolTable
 70
     0
  0
ENDTAB
  0
TABLE
  2
UCS
  5
12C
100
AcDbSymbolTable
 70
     0
  0
ENDTAB
  0
TABLE
  2
APPID
  5
12F
100
AcDbSymbolTable
 70
     1
  0
APPID
  5
41
100
AcDbSymbolTableRecord
100
AcDbRegAppTableRecord
  2
ACAD
 70
     0
  0
ENDTAB
  0
TABLE
  2
DIMSTYLE
  5
130
100
AcDbSymbolTable
 70
     1
  0
DIMSTYLE
105
138
100
AcDbSymbolTableRecord
100
AcDbDimStyleTableRecord
  2
STANDARD
 70
     0
  3

  4

  5

  6

  7

 40
1.0
 41
0.18
 42
0.0625
 43
0.38
 44
0.18
 45
0.0
 46
0.0
 47
0.0
 48
0.0
140
0.18
141
0.09
142
0.0
143
25.4
144
1.0
145
0.0
146
1.0
147
0.09
 71
     0
 72
     0
 73
     1
 74
     1
 75
     0
 76
     0
 77
     0
 78
     0
170
     0
171
     2
172
     0
173
     0
174
     0
175
     0
176
     0
177
     0
178
     0
270
     2
271
     4
272
     4
273
     2
274
     2
340
9
275
     0
280
     0
281
     0
282
     0
283
     1
284
     0
285
     0
286
     0
287
     3
288
     0
  0
ENDTAB
  0
TABLE
  2
BLOCK_RECORD
  5
1
100
AcDbSymbolTable
 70
     2
  0
BLOCK_RECORD
  5
2
102
{ACAD_XDICTIONARY
360
11D
102
}
100
AcDbSymbolTableRecord
100
AcDbBlockTableRecord
  2
*MODEL_SPACE
  0
BLOCK_RECORD
  5
121
102
{ACAD_XDICTIONARY
360
122
102
}
100
AcDbSymbolTableRecord
100
AcDbBlockTableRecord
  2
*PAPER_SPACE
  0
BLOCK_RECORD
  5
6
100
AcDbSymbolTableRecord
100
AcDbBlockTableRecord
  2
STB34_T
  0
BLOCK_RECORD
  5
1B
100
AcDbSymbolTableRecord
100
AcDbBlockTableRecord
  2
STB34_S
  0
ENDTAB
  0
ENDSEC
  0
SECTION
  2
BLOCKS
  0
BLOCK
  5
11F
100
AcDbEntity
  8
0
100
AcDbBlockBegin
  2
*MODEL_SPACE
 70
     0
 10
0.0
 20
0.0
 30
0.0
  3
*MODEL_SPACE
  1

  0
ENDBLK
  5
120
100
AcDbEntity
  8
0
100
AcDbBlockEnd
  0
BLOCK
  5
124
100
AcDbEntity
 67
     1
  8
0
100
AcDbBlockBegin
  2
*PAPER_SPACE
 70
     0
 10
0.0
 20
0.0
 30
0.0
  3
*PAPER_SPACE
  1

  0
ENDBLK
  5
125
100
AcDbEntity
 67
     1
  8
0
100
AcDbBlockEnd
  0
BLOCK
  5
17
100
AcDbEntity
  8
0
100
AcDbBlockBegin
  2
STB34_T
 70
     0
 10
0.0
 20
0.0
 30
0.0
  3
STB34_T
  1

  0
TEXT
  5
7
100
AcDbEntity
  8
USP-TXT
100
AcDbText
 10
0.0263021875352081
 20
-0.9767704612638112
 30
0.0
 40
0.25
  1
STB34 - TOP VIEW
 72
     1
 11
2.026302187535208
 21
-0.9767704612638112
 31
0.0
100
AcDbText
  0
LINE
  5
A
100
AcDbEntity
  8
USP-GEO
100
AcDbLine
 10
0.3125000000000142
 20
0.0000000000000142
 30
0.0
 11
4.000000000000014
 21
0.0
 31
0.0
  0
LINE
  5
C
100
AcDbEntity
  8
USP-GEO
100
AcDbLine
 10
0.3125000000000142
 20
0.6250000000000142
 30
0.0
 11
4.000000000000014
 21
0.625
 31
0.0
  0
ARC
  5
D
100
AcDbEntity
  8
USP-GEO
100
AcDbCircle
 10
0.4719256336191649
 20
0.2666287767007702
 30
0.0
 40
0.1103546195663747
100
AcDbArc
 50
188.0341477349643
 51
325.7948827715898
  0
LINE
  5
E
100
AcDbEntity
  8
USP-GEO
100
AcDbLine
 10
0.0526043750703877
 20
0.3384957656165852
 30
0.0
 11
0.2933604522494306
 21
0.0977396884375566
 31
0.0
  0
CIRCLE
  5
F
100
AcDbEntity
  8
USP-GEO
100
AcDbCircle
 10
0.3125
 20
0.3125000000000142
 30
0.0
 40
0.3125
  0
LINE
  5
10
100
AcDbEntity
  8
USP-GEO
100
AcDbLine
 10
0.0526043750703877
 20
0.3384957656165852
 30
0.0
 11
0.2766897944122491
 21
0.3384957656165852
 31
0.0
  0
LINE
  5
11
100
AcDbEntity
  8
USP-GEO
100
AcDbLine
 10
0.0526043750703877
 20
0.3384957656165852
 30
0.0
 11
0.2933604522494306
 21
0.5792518427956282
 31
0.0
  0
TEXT
  5
12
100
AcDbEntity
  8
USP-TXT
100
AcDbText
 10
0.442277840962646
 20
0.4233594004675894
 30
0.0
 40
0.1252667904795466
  1
U
 50
224.9999999999997
100
AcDbText
  0
TEXT
  5
13
100
AcDbEntity
  8
USP-TXT
100
AcDbText
 10
0.3598141992910087
 20
0.5854279351905518
 30
0.0
 40
0.1252667904795466
  1
34
 50
224.9999999999997
100
AcDbText
  0
ARC
  5
14
100
AcDbEntity
  8
USP-GEO
100
AcDbCircle
 10
0.270961548550531
 20
0.2468801158929352
 30
0.0
 40
0.0917945536235113
100
AcDbArc
 50
2.700639296551198
 51
86.42225290831403
  0
LINE
  5
15
100
AcDbEntity
  8
USP-GEO
100
AcDbLine
 10
4.000000000000014
 20
0.0
 30
0.0
 11
4.000000000000014
 21
0.625
 31
0.0
  0
ARC
  5
16
100
AcDbEntity
  8
USP-GEO
100
AcDbCircle
 10
3.668400000000019
 20
0.3125000000000142
 30
0.0
 40
0.3125
100
AcDbArc
 50
270.0
 51
90.0
  0
ENDBLK
  5
19
100
AcDbEntity
  8
0
100
AcDbBlockEnd
  0
BLOCK
  5
11B
100
AcDbEntity
  8
0
100
AcDbBlockBegin
  2
STB34_S
 70
     0
 10
0.0
 20
0.0
 30
0.0
  3
STB34_S
  1

  0
LINE
  5
1C
100
AcDbEntity
  8
USP-GEO
100
AcDbLine
 10
0.0
 20
8.487071633055148
 30
0.0
 11
0.0000000000000142
 21
29.96875959730553
 31
0.0
  0
LINE
  5
1D
100
AcDbEntity
  8
USP-GEO
100
AcDbLine
 10
0.875
 20
8.487071633055148
 30
0.0
 11
0.8750000000000142
 21
29.96875959730553
 31
0.0
  0
LINE
  5
1E
100
AcDbEntity
  8
USP-CEN
100
AcDbLine
 10
0.4375
 20
8.487071633055148
 30
0.0
 11
0.4375000000000142
 21
29.96875959730553
 31
0.0
  0
ARC
  5
21
100
AcDbEntity
  8
USP-GEO
100
AcDbCircle
 10
1.810706893896153
 20
4.899590904487947
 30
0.0
 40
1.3125
100
AcDbArc
 50
309.2000414242622
 51
69.99999999999911
  0
ARC
  5
22
100
AcDbEntity
  8
USP-GEO
100
AcDbCircle
 10
1.810706893896153
 20
4.899590904487947
 30
0.0
 40
2.1875
100
AcDbArc
 50
309.2000414242613
 51
69.99999999999996
  0
ARC
  5
23
100
AcDbEntity
  8
USP-CEN
100
AcDbCircle
 10
1.810706893896153
 20
4.899590904487947
 30
0.0
 40
1.75
100
AcDbArc
 50
309.2000414242622
 51
69.99999999999911
  0
TEXT
  5
24
100
AcDbEntity
  8
USP-TXT
100
AcDbText
 10
-0.08719797029041
 20
-0.9767704612638006
 30
0.0
 40
0.25
  1
STB34 - SIDE VIEW
 72
     1
 11
1.996135363042924
 21
-0.9767704612638006
 31
0.0
100
AcDbText
  0
ARC
  5
25
100
AcDbEntity
  8
USP-GEO
100
AcDbCircle
 10
4.022811414191792
 20
2.187286793351528
 30
0.0
 40
2.1875
100
AcDbArc
 50
129.2000414242613
 51
269.2000414242612
  0
ARC
  5
26
100
AcDbEntity
  8
USP-CEN
100
AcDbCircle
 10
4.022811414191792
 20
2.187286793351528
 30
0.0
 40
1.75
100
AcDbArc
 50
129.2000414242623
 51
269.2000414242612
  0
ARC
  5
27
100
AcDbEntity
  8
USP-GEO
100
AcDbCircle
 10
4.022811414191792
 20
2.187286793351528
 30
0.0
 40
1.3125
100
AcDbArc
 50
129.2000414242623
 51
269.2000414242612
  0
LINE
  5
28
100
AcDbEntity
  8
USP-GEO
100
AcDbLine
 10
3.992270726085834
 20
0.0000000000000107
 30
0.0
 11
4.0044870013282
 21
0.8749147173406264
 31
0.0
  0
POINT
  5
29
100
AcDbEntity
  8
USP-GEO
100
AcDbPoint
 10
3.992270726085834
 20
-0.0000000000000178
 30
0.0
  0
POINT
  5
2A
100
AcDbEntity
  8
USP-GEO
100
AcDbPoint
 10
3.992270726085834
 20
-0.0000000000000178
 30
0.0
  0
POINT
  5
2B
100
AcDbEntity
  8
USP-GEO
100
AcDbPoint
 10
3.992270726085834
 20
-0.0000000000000178
 30
0.0
  0
POINT
  5
2C
100
AcDbEntity
  8
USP-GEO
100
AcDbPoint
 10
2.419198652241448
 20
1.486625598686099
 30
0.0
  0
LINE
  5
2D
100
AcDbEntity
  8
USP-GEO
100
AcDbLine
 10
1.738598561885055
 20
7.253725068273634
 30
0.0
 11
2.558875957421065
 21
6.955168512457117
 31
0.0
  0
LINE
  5
2E
100
AcDbEntity
  8
USP-GEO
100
AcDbLine
 10
1.439330936475101
 20
6.431494025085964
 30
0.0
 11
2.259608332011111
 21
6.13293746926946
 31
0.0
  0
LINE
  5
2F
100
AcDbEntity
  8
USP-CEN
100
AcDbLine
 10
1.588964749180078
 20
6.842609546679806
 30
0.0
 11
2.409242144716088
 21
6.544052990863303
 31
0.0
  0
ARC
  5
30
100
AcDbEntity
  8
USP-GEO
100
AcDbCircle
 10
2.1875
 20
8.487071633055148
 30
0.0
 40
2.1875
100
AcDbArc
 50
180.0
 51
249.9999999999999
  0
ARC
  5
31
100
AcDbEntity
  8
USP-GEO
100
AcDbCircle
 10
2.1875
 20
8.487071633055148
 30
0.0
 40
1.3125
100
AcDbArc
 50
180.0
 51
249.9999999999999
  0
ARC
  5
32
100
AcDbEntity
  8
USP-CEN
100
AcDbCircle
 10
2.1875
 20
8.487071633055148
 30
0.0
 40
1.75
100
AcDbArc
 50
180.0
 51
249.9999999999999
  0
POINT
  5
33
100
AcDbEntity
  8
USP-GEO
100
AcDbPoint
 10
1.439330936475087
 20
6.431494025085978
 30
0.0
  0
POINT
  5
34
100
AcDbEntity
  8
USP-GEO
100
AcDbPoint
 10
0.7267837467462642
 20
7.523324764069126
 30
0.0
  0
POINT
  5
35
100
AcDbEntity
  8
USP-GEO
100
AcDbPoint
 10
0.0
 20
8.487071633055148
 30
0.0
  0
POINT
  5
36
100
AcDbEntity
  8
USP-GEO
100
AcDbPoint
 10
0.0
 20
8.487071633055148
 30
0.0
  0
POINT
  5
37
100
AcDbEntity
  8
USP-GEO
100
AcDbPoint
 10
0.875
 20
8.487071633055148
 30
0.0
  0
LINE
  5
38
100
AcDbEntity
  8
USP-GEO
100
AcDbLine
 10
0.8750000000000142
 20
33.88889848619442
 30
0.0
 11
0.8125000000000142
 21
33.83334293063886
 31
0.0
  0
LINE
  5
39
100
AcDbEntity
  8
USP-GEO
100
AcDbLine
 10
0.0000000000000142
 20
33.88889848619442
 30
0.0
 11
0.0625000000000142
 21
33.83334293063886
 31
0.0
  0
LINE
  5
3A
100
AcDbEntity
  8
USP-GEO
100
AcDbLine
 10
0.8125000000000142
 20
33.83334293063886
 30
0.0
 11
0.0625000000000142
 21
33.94445404174998
 31
0.0
  0
LINE
  5
3B
100
AcDbEntity
  8
USP-GEO
100
AcDbLine
 10
0.8750000000000142
 20
33.77778737508331
 30
0.0
 11
0.0000000000000142
 21
33.88889848619442
 31
0.0
  0
TEXT
  5
3C
100
AcDbEntity
  8
USP-DIM
100
AcDbText
 10
-4.151875684414712
 20
29.91876182563593
 30
0.0
 40
0.2277
  1
Embedment Line
 72
     4
 11
-2.671825684414713
 21
30.03261182563594
 31
0.0
100
AcDbText
  0
LINE
  5
3E
100
AcDbEntity
  8
USP-GEO
100
AcDbLine
 10
0.8750000000000142
 20
31.25000959730553
 30
0.0
 11
0.8750000000000142
 21
30.03125959730553
 31
0.0
  0
LINE
  5
3F
100
AcDbEntity
  8
USP-GEO
100
AcDbLine
 10
0.0000000000000142
 20
31.25000959730553
 30
0.0
 11
0.0000000000000142
 21
30.03125959730553
 31
0.0
  0
LINE
  5
40
100
AcDbEntity
  8
USP-DIM
100
AcDbLine
 10
-0.2681775960152564
 20
29.99549528523639
 30
0.0
 11
-1.081746910468908
 21
29.99549528523639
 31
0.0
1001
ACAD
1000
DSTYLE
1002
{
1070
     5
1000

1070
    40
1040
1.5
1070
    77
1070
     0
1070
   147
1040
0.09
1002
}
  0
LINE
  5
42
100
AcDbEntity
  8
USP-GEO
100
AcDbLine
 10
0.8750000000000142
 20
30.03125959730553
 30
0.0
 11
0.0000000000000142
 21
30.03125959730553
 31
0.0
  0
LINE
  5
43
100
AcDbEntity
  8
USP-GEO
100
AcDbLine
 10
0.8750000000000142
 20
29.96875959730553
 30
0.0
 11
0.0000000000000142
 21
29.96875959730553
 31
0.0
  0
LINE
  5
44
100
AcDbEntity
  8
USP-GEO
100
AcDbLine
 10
0.0000000000000142
 20
29.96875959730553
 30
0.0
 11
0.0100000000000051
 21
29.98438459730554
 31
0.0
  0
POINT
  5
45
100
AcDbEntity
  8
USP-GEO
100
AcDbPoint
 10
0.0000000000000142
 20
30.00000959730553
 30
0.0
  0
LINE
  5
46
100
AcDbEntity
  8
USP-GEO
100
AcDbLine
 10
0.0000000000000142
 20
30.03125959730553
 30
0.0
 11
0.0100000000000051
 21
30.01563459730553
 31
0.0
  0
LINE
  5
47
100
AcDbEntity
  8
USP-GEO
100
AcDbLine
 10
0.0100000000000051
 20
30.01563459730553
 30
0.0
 11
0.0100000000000051
 21
29.98438459730554
 31
0.0
  0
SOLID
  5
48
100
AcDbEntity
  8
USP-DIM
100
AcDbTrace
 10
-0.2681775960152564
 20
30.04049528523639
 30
0.0
 11
0.0018224039847468
 21
29.99549528523639
 31
0.0
 12
-0.2681775960152564
 22
29.95049528523638
 32
0.0
 13
-0.2681775960152564
 23
29.95049528523638
 33
0.0
1001
ACAD
1000
DSTYLE
1002
{
1070
     5
1000

1070
    40
1040
1.5
1070
    77
1070
     0
1070
   147
1040
0.09
1002
}
  0
LINE
  5
49
100
AcDbEntity
  8
USP-GEO
100
AcDbLine
 10
0.8750000000000142
 20
29.96875959730553
 30
0.0
 11
0.865000000000009
 21
29.98438459730554
 31
0.0
  0
LINE
  5
4A
100
AcDbEntity
  8
USP-GEO
100
AcDbLine
 10
0.8750000000000142
 20
30.03125959730553
 30
0.0
 11
0.865000000000009
 21
30.01563459730553
 31
0.0
  0
LINE
  5
4B
100
AcDbEntity
  8
USP-GEO
100
AcDbLine
 10
0.865000000000009
 20
30.01563459730553
 30
0.0
 11
0.865000000000009
 21
29.98438459730554
 31
0.0
  0
LINE
  5
4C
100
AcDbEntity
  8
USP-GEO
100
AcDbLine
 10
0.8750000000000142
 20
32.44445404174998
 30
0.0
 11
0.8125000000000142
 21
32.38889848619442
 31
0.0
  0
LINE
  5
4D
100
AcDbEntity
  8
USP-GEO
100
AcDbLine
 10
0.0000000000000142
 20
32.44445404174998
 30
0.0
 11
0.0625000000000142
 21
32.38889848619442
 31
0.0
  0
LINE
  5
4E
100
AcDbEntity
  8
USP-GEO
100
AcDbLine
 10
0.8750000000000142
 20
32.33334293063886
 30
0.0
 11
0.0000000000000142
 21
32.44445404174998
 31
0.0
  0
LINE
  5
4F
100
AcDbEntity
  8
USP-GEO
100
AcDbLine
 10
0.8125000000000142
 20
32.38889848619442
 30
0.0
 11
0.0625000000000142
 21
32.50000959730553
 31
0.0
  0
LINE
  5
50
100
AcDbEntity
  8
USP-GEO
100
AcDbLine
 10
0.8750000000000142
 20
31.55556515286109
 30
0.0
 11
0.0000000000000142
 21
31.66667626397218
 31
0.0
  0
LINE
  5
51
100
AcDbEntity
  8
USP-GEO
100
AcDbLine
 10
0.8125000000000142
 20
31.50000959730553
 30
0.0
 11
0.0625000000000142
 21
31.61112070841664
 31
0.0
  0
LINE
  5
52
100
AcDbEntity
  8
USP-GEO
100
AcDbLine
 10
0.8125000000000142
 20
31.38889848619442
 30
0.0
 11
0.0625000000000142
 21
31.50000959730553
 31
0.0
  0
LINE
  5
53
100
AcDbEntity
  8
USP-GEO
100
AcDbLine
 10
0.8125000000000142
 20
31.2777873750833
 30
0.0
 11
0.0625000000000142
 21
31.38889848619442
 31
0.0
  0
LINE
  5
54
100
AcDbEntity
  8
USP-GEO
100
AcDbLine
 10
0.8750000000000142
 20
31.44445404174997
 30
0.0
 11
0.0000000000000142
 21
31.55556515286109
 31
0.0
  0
LINE
  5
55
100
AcDbEntity
  8
USP-GEO
100
AcDbLine
 10
0.8750000000000142
 20
31.33334293063886
 30
0.0
 11
0.0000000000000142
 21
31.44445404174997
 31
0.0
  0
LINE
  5
56
100
AcDbEntity
  8
USP-GEO
100
AcDbLine
 10
0.8125000000000142
 20
31.94445404174997
 30
0.0
 11
0.0625000000000142
 21
32.05556515286109
 31
0.0
  0
LINE
  5
57
100
AcDbEntity
  8
USP-GEO
100
AcDbLine
 10
0.8125000000000142
 20
31.83334293063886
 30
0.0
 11
0.0625000000000142
 21
31.94445404174997
 31
0.0
  0
LINE
  5
58
100
AcDbEntity
  8
USP-GEO
100
AcDbLine
 10
0.8125000000000142
 20
31.72223181952774
 30
0.0
 11
0.0625000000000142
 21
31.83334293063886
 31
0.0
  0
LINE
  5
59
100
AcDbEntity
  8
USP-GEO
100
AcDbLine
 10
0.8125000000000142
 20
31.61112070841664
 30
0.0
 11
0.0625000000000142
 21
31.72223181952774
 31
0.0
  0
LINE
  5
5A
100
AcDbEntity
  8
USP-GEO
100
AcDbLine
 10
0.8750000000000142
 20
31.88889848619441
 30
0.0
 11
0.0000000000000142
 21
32.00000959730553
 31
0.0
  0
LINE
  5
5B
100
AcDbEntity
  8
USP-GEO
100
AcDbLine
 10
0.8750000000000142
 20
31.7777873750833
 30
0.0
 11
0.0000000000000142
 21
31.88889848619441
 31
0.0
  0
LINE
  5
5C
100
AcDbEntity
  8
USP-GEO
100
AcDbLine
 10
0.8750000000000142
 20
31.6666762639722
 30
0.0
 11
0.0000000000000142
 21
31.7777873750833
 31
0.0
  0
LINE
  5
5D
100
AcDbEntity
  8
USP-GEO
100
AcDbLine
 10
0.8750000000000142
 20
31.25000959730553
 30
0.0
 11
0.0000000000000142
 21
31.25000959730553
 31
0.0
  0
LINE
  5
5E
100
AcDbEntity
  8
USP-GEO
100
AcDbLine
 10
0.8125000000000142
 20
32.1666762639722
 30
0.0
 11
0.0625000000000142
 21
32.2777873750833
 31
0.0
  0
LINE
  5
5F
100
AcDbEntity
  8
USP-GEO
100
AcDbLine
 10
0.8750000000000142
 20
32.11112070841664
 30
0.0
 11
0.0000000000000142
 21
32.22223181952775
 31
0.0
  0
LINE
  5
60
100
AcDbEntity
  8
USP-GEO
100
AcDbLine
 10
0.8125000000000142
 20
32.05556515286109
 30
0.0
 11
0.0625000000000142
 21
32.16667626397219
 31
0.0
  0
LINE
  5
61
100
AcDbEntity
  8
USP-GEO
100
AcDbLine
 10
0.8750000000000142
 20
32.00000959730553
 30
0.0
 11
0.0000000000000142
 21
32.11112070841664
 31
0.0
  0
LINE
  5
62
100
AcDbEntity
  8
USP-GEO
100
AcDbLine
 10
0.8750000000000142
 20
32.22223181952775
 30
0.0
 11
0.0000000000000142
 21
32.33334293063886
 31
0.0
  0
LINE
  5
63
100
AcDbEntity
  8
USP-GEO
100
AcDbLine
 10
0.8125000000000142
 20
32.2777873750833
 30
0.0
 11
0.0625000000000142
 21
32.38889848619442
 31
0.0
  0
LINE
  5
64
100
AcDbEntity
  8
USP-GEO
100
AcDbLine
 10
0.0625000000000142
 20
31.72223181952774
 30
0.0
 11
0.0000000000000142
 21
31.6666762639722
 31
0.0
  0
LINE
  5
65
100
AcDbEntity
  8
USP-GEO
100
AcDbLine
 10
0.65625
 20
31.25000959730553
 30
0.0
 11
0.0000000000000142
 21
31.33334293063886
 31
0.0
  0
LINE
  5
66
100
AcDbEntity
  8
USP-GEO
100
AcDbLine
 10
0.2499999999999716
 20
31.25000959730553
 30
0.0
 11
0.0625000000000142
 21
31.2777873750833
 31
0.0
  0
LINE
  5
67
100
AcDbEntity
  8
USP-GEO
100
AcDbLine
 10
0.0625000000000142
 20
31.61112070841664
 30
0.0
 11
0.0000000000000142
 21
31.55556515286109
 31
0.0
  0
LINE
  5
68
100
AcDbEntity
  8
USP-GEO
100
AcDbLine
 10
0.0000000000000142
 20
31.55556515286109
 30
0.0
 11
0.0625000000000142
 21
31.50000959730553
 31
0.0
  0
LINE
  5
69
100
AcDbEntity
  8
USP-GEO
100
AcDbLine
 10
0.0625000000000142
 20
31.50000959730553
 30
0.0
 11
0.0000000000000142
 21
31.44445404174997
 31
0.0
  0
LINE
  5
6A
100
AcDbEntity
  8
USP-GEO
100
AcDbLine
 10
0.0000000000000142
 20
31.44445404174997
 30
0.0
 11
0.0625000000000142
 21
31.38889848619442
 31
0.0
  0
LINE
  5
6B
100
AcDbEntity
  8
USP-GEO
100
AcDbLine
 10
0.0625000000000142
 20
31.38889848619442
 30
0.0
 11
0.0000000000000142
 21
31.33334293063886
 31
0.0
  0
LINE
  5
6C
100
AcDbEntity
  8
USP-GEO
100
AcDbLine
 10
0.0000000000000142
 20
31.33334293063886
 30
0.0
 11
0.0625000000000142
 21
31.2777873750833
 31
0.0
  0
LINE
  5
6D
100
AcDbEntity
  8
USP-GEO
100
AcDbLine
 10
0.0625000000000142
 20
31.2777873750833
 30
0.0
 11
0.0312500000000142
 21
31.25000959730553
 31
0.0
  0
LINE
  5
6E
100
AcDbEntity
  8
USP-GEO
100
AcDbLine
 10
0.0000000000000142
 20
31.6666762639722
 30
0.0
 11
0.0625000000000142
 21
31.61112070841664
 31
0.0
  0
LINE
  5
6F
100
AcDbEntity
  8
USP-GEO
100
AcDbLine
 10
0.0625000000000142
 20
32.38889848619442
 30
0.0
 11
0.0000000000000142
 21
32.33334293063886
 31
0.0
  0
LINE
  5
70
100
AcDbEntity
  8
USP-GEO
100
AcDbLine
 10
0.0625000000000142
 20
31.94445404174997
 30
0.0
 11
0.0000000000000142
 21
31.88889848619441
 31
0.0
  0
LINE
  5
71
100
AcDbEntity
  8
USP-GEO
100
AcDbLine
 10
0.0625000000000142
 20
32.05556515286109
 30
0.0
 11
0.0000000000000142
 21
32.00000959730553
 31
0.0
  0
LINE
  5
72
100
AcDbEntity
  8
USP-GEO
100
AcDbLine
 10
0.0000000000000142
 20
32.00000959730553
 30
0.0
 11
0.0625000000000142
 21
31.94445404174997
 31
0.0
  0
LINE
  5
73
100
AcDbEntity
  8
USP-GEO
100
AcDbLine
 10
0.0625000000000142
 20
32.2777873750833
 30
0.0
 11
0.0000000000000142
 21
32.22223181952776
 31
0.0
  0
LINE
  5
74
100
AcDbEntity
  8
USP-GEO
100
AcDbLine
 10
0.0000000000000142
 20
32.22223181952775
 30
0.0
 11
0.0625000000000142
 21
32.16667626397219
 31
0.0
  0
LINE
  5
75
100
AcDbEntity
  8
USP-GEO
100
AcDbLine
 10
0.0625000000000142
 20
32.16667626397219
 30
0.0
 11
0.0000000000000142
 21
32.11112070841664
 31
0.0
  0
LINE
  5
76
100
AcDbEntity
  8
USP-GEO
100
AcDbLine
 10
0.0000000000000142
 20
32.11112070841664
 30
0.0
 11
0.0625000000000142
 21
32.05556515286109
 31
0.0
  0
LINE
  5
77
100
AcDbEntity
  8
USP-GEO
100
AcDbLine
 10
0.0000000000000142
 20
31.88889848619441
 30
0.0
 11
0.0625000000000142
 21
31.83334293063886
 31
0.0
  0
LINE
  5
78
100
AcDbEntity
  8
USP-GEO
100
AcDbLine
 10
0.0625000000000142
 20
31.83334293063886
 30
0.0
 11
0.0000000000000142
 21
31.7777873750833
 31
0.0
  0
LINE
  5
79
100
AcDbEntity
  8
USP-GEO
100
AcDbLine
 10
0.0000000000000142
 20
31.7777873750833
 30
0.0
 11
0.0625000000000142
 21
31.72223181952774
 31
0.0
  0
LINE
  5
7A
100
AcDbEntity
  8
USP-GEO
100
AcDbLine
 10
0.0000000000000142
 20
32.33334293063886
 30
0.0
 11
0.0625000000000142
 21
32.2777873750833
 31
0.0
  0
LINE
  5
7B
100
AcDbEntity
  8
USP-GEO
100
AcDbLine
 10
0.8125000000000142
 20
31.72223181952774
 30
0.0
 11
0.8750000000000142
 21
31.6666762639722
 31
0.0
  0
LINE
  5
7C
100
AcDbEntity
  8
USP-GEO
100
AcDbLine
 10
0.8125000000000142
 20
31.61112070841664
 30
0.0
 11
0.8750000000000142
 21
31.55556515286109
 31
0.0
  0
LINE
  5
7D
100
AcDbEntity
  8
USP-GEO
100
AcDbLine
 10
0.8125000000000142
 20
31.50000959730553
 30
0.0
 11
0.8750000000000142
 21
31.44445404174997
 31
0.0
  0
LINE
  5
7E
100
AcDbEntity
  8
USP-GEO
100
AcDbLine
 10
0.8750000000000142
 20
31.55556515286109
 30
0.0
 11
0.8125000000000142
 21
31.50000959730553
 31
0.0
  0
LINE
  5
7F
100
AcDbEntity
  8
USP-GEO
100
AcDbLine
 10
0.8125000000000142
 20
31.38889848619442
 30
0.0
 11
0.8750000000000142
 21
31.33334293063886
 31
0.0
  0
LINE
  5
80
100
AcDbEntity
  8
USP-GEO
100
AcDbLine
 10
0.8750000000000142
 20
31.44445404174997
 30
0.0
 11
0.8125000000000142
 21
31.38889848619442
 31
0.0
  0
LINE
  5
81
100
AcDbEntity
  8
USP-GEO
100
AcDbLine
 10
0.8125000000000142
 20
31.2777873750833
 30
0.0
 11
0.8437500000000142
 21
31.25000959730553
 31
0.0
  0
LINE
  5
82
100
AcDbEntity
  8
USP-GEO
100
AcDbLine
 10
0.8750000000000142
 20
31.33334293063886
 30
0.0
 11
0.8125000000000142
 21
31.2777873750833
 31
0.0
  0
POINT
  5
83
100
AcDbEntity
  8
USP-GEO
100
AcDbPoint
 10
0.8750000000000142
 20
31.25000959730553
 30
0.0
  0
POINT
  5
84
100
AcDbEntity
  8
USP-GEO
100
AcDbPoint
 10
0.8750000000000142
 20
31.25000959730553
 30
0.0
  0
LINE
  5
85
100
AcDbEntity
  8
USP-GEO
100
AcDbLine
 10
0.8750000000000142
 20
31.6666762639722
 30
0.0
 11
0.8125000000000142
 21
31.61112070841664
 31
0.0
  0
LINE
  5
86
100
AcDbEntity
  8
USP-GEO
100
AcDbLine
 10
0.8125000000000142
 20
32.38889848619442
 30
0.0
 11
0.8750000000000142
 21
32.33334293063886
 31
0.0
  0
LINE
  5
87
100
AcDbEntity
  8
USP-GEO
100
AcDbLine
 10
0.8125000000000142
 20
31.94445404174997
 30
0.0
 11
0.8750000000000142
 21
31.88889848619441
 31
0.0
  0
LINE
  5
88
100
AcDbEntity
  8
USP-GEO
100
AcDbLine
 10
0.8125000000000142
 20
32.05556515286109
 30
0.0
 11
0.8750000000000142
 21
32.00000959730553
 31
0.0
  0
LINE
  5
89
100
AcDbEntity
  8
USP-GEO
100
AcDbLine
 10
0.8750000000000142
 20
32.00000959730553
 30
0.0
 11
0.8125000000000142
 21
31.94445404174997
 31
0.0
  0
LINE
  5
8A
100
AcDbEntity
  8
USP-GEO
100
AcDbLine
 10
0.8125000000000142
 20
32.2777873750833
 30
0.0
 11
0.8750000000000142
 21
32.22223181952776
 31
0.0
  0
LINE
  5
8B
100
AcDbEntity
  8
USP-GEO
100
AcDbLine
 10
0.8125000000000142
 20
32.16667626397219
 30
0.0
 11
0.8750000000000142
 21
32.11112070841664
 31
0.0
  0
LINE
  5
8C
100
AcDbEntity
  8
USP-GEO
100
AcDbLine
 10
0.8750000000000142
 20
32.22223181952775
 30
0.0
 11
0.8125000000000142
 21
32.16667626397219
 31
0.0
  0
LINE
  5
8D
100
AcDbEntity
  8
USP-GEO
100
AcDbLine
 10
0.8750000000000142
 20
32.11112070841664
 30
0.0
 11
0.8125000000000142
 21
32.05556515286109
 31
0.0
  0
LINE
  5
8E
100
AcDbEntity
  8
USP-GEO
100
AcDbLine
 10
0.8125000000000142
 20
31.83334293063886
 30
0.0
 11
0.8750000000000142
 21
31.7777873750833
 31
0.0
  0
LINE
  5
8F
100
AcDbEntity
  8
USP-GEO
100
AcDbLine
 10
0.8750000000000142
 20
31.88889848619441
 30
0.0
 11
0.8125000000000142
 21
31.83334293063886
 31
0.0
  0
LINE
  5
90
100
AcDbEntity
  8
USP-GEO
100
AcDbLine
 10
0.8750000000000142
 20
31.7777873750833
 30
0.0
 11
0.8125000000000142
 21
31.72223181952774
 31
0.0
  0
LINE
  5
91
100
AcDbEntity
  8
USP-GEO
100
AcDbLine
 10
0.8750000000000142
 20
32.33334293063886
 30
0.0
 11
0.8125000000000142
 21
32.2777873750833
 31
0.0
  0
LINE
  5
92
100
AcDbEntity
  8
USP-GEO
100
AcDbLine
 10
0.8750000000000142
 20
33.44445404174997
 30
0.0
 11
0.0000000000000142
 21
33.55556515286109
 31
0.0
  0
LINE
  5
93
100
AcDbEntity
  8
USP-GEO
100
AcDbLine
 10
0.8750000000000142
 20
33.55556515286109
 30
0.0
 11
0.0000000000000142
 21
33.6666762639722
 31
0.0
  0
LINE
  5
94
100
AcDbEntity
  8
USP-GEO
100
AcDbLine
 10
0.8125000000000142
 20
33.38889848619442
 30
0.0
 11
0.0625000000000142
 21
33.50000959730553
 31
0.0
  0
LINE
  5
95
100
AcDbEntity
  8
USP-GEO
100
AcDbLine
 10
0.8125000000000142
 20
33.50000959730553
 30
0.0
 11
0.0625000000000142
 21
33.61112070841665
 31
0.0
  0
LINE
  5
96
100
AcDbEntity
  8
USP-GEO
100
AcDbLine
 10
0.8125000000000142
 20
33.61112070841665
 30
0.0
 11
0.0625000000000142
 21
33.72223181952775
 31
0.0
  0
LINE
  5
97
100
AcDbEntity
  8
USP-GEO
100
AcDbLine
 10
0.8750000000000142
 20
33.6666762639722
 30
0.0
 11
0.0000000000000142
 21
33.77778737508331
 31
0.0
  0
LINE
  5
98
100
AcDbEntity
  8
USP-GEO
100
AcDbLine
 10
0.8125000000000142
 20
33.72223181952776
 30
0.0
 11
0.0625000000000142
 21
33.83334293063886
 31
0.0
  0
LINE
  5
99
100
AcDbEntity
  8
USP-GEO
100
AcDbLine
 10
0.8750000000000142
 20
32.55556515286109
 30
0.0
 11
0.0000000000000142
 21
32.6666762639722
 31
0.0
  0
LINE
  5
9A
100
AcDbEntity
  8
USP-GEO
100
AcDbLine
 10
0.8125000000000142
 20
32.61112070841665
 30
0.0
 11
0.0625000000000142
 21
32.72223181952774
 31
0.0
  0
LINE
  5
9B
100
AcDbEntity
  8
USP-GEO
100
AcDbLine
 10
0.8750000000000142
 20
32.6666762639722
 30
0.0
 11
0.0000000000000142
 21
32.7777873750833
 31
0.0
  0
LINE
  5
9C
100
AcDbEntity
  8
USP-GEO
100
AcDbLine
 10
0.8750000000000142
 20
32.7777873750833
 30
0.0
 11
0.0000000000000142
 21
32.88889848619442
 31
0.0
  0
LINE
  5
9D
100
AcDbEntity
  8
USP-GEO
100
AcDbLine
 10
0.8125000000000142
 20
32.72223181952774
 30
0.0
 11
0.0625000000000142
 21
32.83334293063886
 31
0.0
  0
LINE
  5
9E
100
AcDbEntity
  8
USP-GEO
100
AcDbLine
 10
0.8750000000000142
 20
33.22223181952776
 30
0.0
 11
0.0000000000000142
 21
33.33334293063886
 31
0.0
  0
LINE
  5
9F
100
AcDbEntity
  8
USP-GEO
100
AcDbLine
 10
0.8125000000000142
 20
33.16667626397221
 30
0.0
 11
0.0625000000000142
 21
33.2777873750833
 31
0.0
  0
LINE
  5
A0
100
AcDbEntity
  8
USP-GEO
100
AcDbLine
 10
0.8750000000000142
 20
33.00000959730553
 30
0.0
 11
0.0000000000000142
 21
33.11112070841665
 31
0.0
  0
LINE
  5
A1
100
AcDbEntity
  8
USP-GEO
100
AcDbLine
 10
0.8125000000000142
 20
32.94445404174997
 30
0.0
 11
0.0625000000000142
 21
33.05556515286109
 31
0.0
  0
LINE
  5
A2
100
AcDbEntity
  8
USP-GEO
100
AcDbLine
 10
0.8125000000000142
 20
33.05556515286109
 30
0.0
 11
0.0625000000000142
 21
33.16667626397221
 31
0.0
  0
LINE
  5
A3
100
AcDbEntity
  8
USP-GEO
100
AcDbLine
 10
0.8750000000000142
 20
33.11112070841665
 30
0.0
 11
0.0000000000000142
 21
33.22223181952775
 31
0.0
  0
LINE
  5
A4
100
AcDbEntity
  8
USP-GEO
100
AcDbLine
 10
0.8750000000000142
 20
32.88889848619442
 30
0.0
 11
0.0000000000000142
 21
33.00000959730553
 31
0.0
  0
LINE
  5
A5
100
AcDbEntity
  8
USP-GEO
100
AcDbLine
 10
0.8125000000000142
 20
32.83334293063886
 30
0.0
 11
0.0625000000000142
 21
32.94445404174997
 31
0.0
  0
LINE
  5
A6
100
AcDbEntity
  8
USP-GEO
100
AcDbLine
 10
0.8125000000000142
 20
32.50000959730553
 30
0.0
 11
0.0625000000000142
 21
32.61112070841665
 31
0.0
  0
LINE
  5
A7
100
AcDbEntity
  8
USP-GEO
100
AcDbLine
 10
0.8750000000000142
 20
32.44445404174998
 30
0.0
 11
0.0000000000000142
 21
32.55556515286109
 31
0.0
  0
LINE
  5
A8
100
AcDbEntity
  8
USP-GEO
100
AcDbLine
 10
0.8750000000000142
 20
33.33334293063886
 30
0.0
 11
0.0000000000000142
 21
33.44445404174997
 31
0.0
  0
LINE
  5
A9
100
AcDbEntity
  8
USP-GEO
100
AcDbLine
 10
0.8125000000000142
 20
33.2777873750833
 30
0.0
 11
0.0625000000000142
 21
33.38889848619442
 31
0.0
  0
LINE
  5
AA
100
AcDbEntity
  8
USP-GEO
100
AcDbLine
 10
0.0625000000000142
 20
33.16667626397221
 30
0.0
 11
0.0000000000000142
 21
33.11112070841665
 31
0.0
  0
LINE
  5
AB
100
AcDbEntity
  8
USP-GEO
100
AcDbLine
 10
0.0000000000000142
 20
32.88889848619442
 30
0.0
 11
0.0625000000000142
 21
32.83334293063886
 31
0.0
  0
LINE
  5
AC
100
AcDbEntity
  8
USP-GEO
100
AcDbLine
 10
0.0000000000000142
 20
33.00000959730553
 30
0.0
 11
0.0625000000000142
 21
32.94445404174997
 31
0.0
  0
LINE
  5
AD
100
AcDbEntity
  8
USP-GEO
100
AcDbLine
 10
0.0625000000000142
 20
33.05556515286109
 30
0.0
 11
0.0000000000000142
 21
33.00000959730553
 31
0.0
  0
LINE
  5
AE
100
AcDbEntity
  8
USP-GEO
100
AcDbLine
 10
0.0000000000000142
 20
33.11112070841665
 30
0.0
 11
0.0625000000000142
 21
33.05556515286109
 31
0.0
  0
LINE
  5
AF
100
AcDbEntity
  8
USP-GEO
100
AcDbLine
 10
0.0625000000000142
 20
32.94445404174997
 30
0.0
 11
0.0000000000000142
 21
32.88889848619442
 31
0.0
  0
LINE
  5
B0
100
AcDbEntity
  8
USP-GEO
100
AcDbLine
 10
0.0000000000000142
 20
32.6666762639722
 30
0.0
 11
0.0625000000000142
 21
32.61112070841665
 31
0.0
  0
LINE
  5
B1
100
AcDbEntity
  8
USP-GEO
100
AcDbLine
 10
0.0625000000000142
 20
32.72223181952774
 30
0.0
 11
0.0000000000000142
 21
32.6666762639722
 31
0.0
  0
LINE
  5
B2
100
AcDbEntity
  8
USP-GEO
100
AcDbLine
 10
0.0000000000000142
 20
32.7777873750833
 30
0.0
 11
0.0625000000000142
 21
32.72223181952774
 31
0.0
  0
LINE
  5
B3
100
AcDbEntity
  8
USP-GEO
100
AcDbLine
 10
0.0000000000000142
 20
32.55556515286109
 30
0.0
 11
0.0625000000000142
 21
32.50000959730553
 31
0.0
  0
LINE
  5
B4
100
AcDbEntity
  8
USP-GEO
100
AcDbLine
 10
0.0625000000000142
 20
32.61112070841665
 30
0.0
 11
0.0000000000000142
 21
32.55556515286109
 31
0.0
  0
LINE
  5
B5
100
AcDbEntity
  8
USP-GEO
100
AcDbLine
 10
0.0625000000000142
 20
32.50000959730553
 30
0.0
 11
0.0000000000000142
 21
32.44445404174998
 31
0.0
  0
LINE
  5
B6
100
AcDbEntity
  8
USP-GEO
100
AcDbLine
 10
0.0625000000000142
 20
32.83334293063886
 30
0.0
 11
0.0000000000000142
 21
32.7777873750833
 31
0.0
  0
LINE
  5
B7
100
AcDbEntity
  8
USP-GEO
100
AcDbLine
 10
0.0000000000000142
 20
33.44445404174997
 30
0.0
 11
0.0625000000000142
 21
33.38889848619442
 31
0.0
  0
LINE
  5
B8
100
AcDbEntity
  8
USP-GEO
100
AcDbLine
 10
0.0625000000000142
 20
33.50000959730553
 30
0.0
 11
0.0000000000000142
 21
33.44445404174997
 31
0.0
  0
LINE
  5
B9
100
AcDbEntity
  8
USP-GEO
100
AcDbLine
 10
0.0000000000000142
 20
33.55556515286109
 30
0.0
 11
0.0625000000000142
 21
33.50000959730553
 31
0.0
  0
LINE
  5
BA
100
AcDbEntity
  8
USP-GEO
100
AcDbLine
 10
0.0625000000000142
 20
33.61112070841665
 30
0.0
 11
0.0000000000000142
 21
33.55556515286109
 31
0.0
  0
LINE
  5
BB
100
AcDbEntity
  8
USP-GEO
100
AcDbLine
 10
0.0000000000000142
 20
33.6666762639722
 30
0.0
 11
0.0625000000000142
 21
33.61112070841665
 31
0.0
  0
LINE
  5
BC
100
AcDbEntity
  8
USP-GEO
100
AcDbLine
 10
0.0625000000000142
 20
33.72223181952775
 30
0.0
 11
0.0000000000000142
 21
33.6666762639722
 31
0.0
  0
LINE
  5
BD
100
AcDbEntity
  8
USP-GEO
100
AcDbLine
 10
0.0625000000000142
 20
33.83334293063886
 30
0.0
 11
0.0000000000000142
 21
33.77778737508332
 31
0.0
  0
LINE
  5
BE
100
AcDbEntity
  8
USP-GEO
100
AcDbLine
 10
0.0000000000000142
 20
33.77778737508331
 30
0.0
 11
0.0625000000000142
 21
33.72223181952775
 31
0.0
  0
LINE
  5
BF
100
AcDbEntity
  8
USP-GEO
100
AcDbLine
 10
0.0000000000000142
 20
33.22223181952776
 30
0.0
 11
0.0625000000000142
 21
33.16667626397221
 31
0.0
  0
LINE
  5
C0
100
AcDbEntity
  8
USP-GEO
100
AcDbLine
 10
0.0625000000000142
 20
33.2777873750833
 30
0.0
 11
0.0000000000000142
 21
33.22223181952776
 31
0.0
  0
LINE
  5
C1
100
AcDbEntity
  8
USP-GEO
100
AcDbLine
 10
0.0000000000000142
 20
33.33334293063886
 30
0.0
 11
0.0625000000000142
 21
33.2777873750833
 31
0.0
  0
LINE
  5
C2
100
AcDbEntity
  8
USP-GEO
100
AcDbLine
 10
0.0625000000000142
 20
33.38889848619442
 30
0.0
 11
0.0000000000000142
 21
33.33334293063886
 31
0.0
  0
LINE
  5
C3
100
AcDbEntity
  8
USP-GEO
100
AcDbLine
 10
0.8125000000000142
 20
33.16667626397221
 30
0.0
 11
0.8750000000000142
 21
33.11112070841665
 31
0.0
  0
LINE
  5
C4
100
AcDbEntity
  8
USP-GEO
100
AcDbLine
 10
0.8750000000000142
 20
32.88889848619442
 30
0.0
 11
0.8125000000000142
 21
32.83334293063886
 31
0.0
  0
LINE
  5
C5
100
AcDbEntity
  8
USP-GEO
100
AcDbLine
 10
0.8750000000000142
 20
33.00000959730553
 30
0.0
 11
0.8125000000000142
 21
32.94445404174997
 31
0.0
  0
LINE
  5
C6
100
AcDbEntity
  8
USP-GEO
100
AcDbLine
 10
0.8750000000000142
 20
33.11112070841665
 30
0.0
 11
0.8125000000000142
 21
33.05556515286109
 31
0.0
  0
LINE
  5
C7
100
AcDbEntity
  8
USP-GEO
100
AcDbLine
 10
0.8125000000000142
 20
33.05556515286109
 30
0.0
 11
0.8750000000000142
 21
33.00000959730553
 31
0.0
  0
LINE
  5
C8
100
AcDbEntity
  8
USP-GEO
100
AcDbLine
 10
0.8125000000000142
 20
32.94445404174997
 30
0.0
 11
0.8750000000000142
 21
32.88889848619442
 31
0.0
  0
LINE
  5
C9
100
AcDbEntity
  8
USP-GEO
100
AcDbLine
 10
0.8750000000000142
 20
32.6666762639722
 30
0.0
 11
0.8125000000000142
 21
32.61112070841665
 31
0.0
  0
LINE
  5
CA
100
AcDbEntity
  8
USP-GEO
100
AcDbLine
 10
0.8750000000000142
 20
32.7777873750833
 30
0.0
 11
0.8125000000000142
 21
32.72223181952774
 31
0.0
  0
LINE
  5
CB
100
AcDbEntity
  8
USP-GEO
100
AcDbLine
 10
0.8125000000000142
 20
32.72223181952774
 30
0.0
 11
0.8750000000000142
 21
32.6666762639722
 31
0.0
  0
LINE
  5
CC
100
AcDbEntity
  8
USP-GEO
100
AcDbLine
 10
0.8750000000000142
 20
32.55556515286109
 30
0.0
 11
0.8125000000000142
 21
32.50000959730553
 31
0.0
  0
LINE
  5
CD
100
AcDbEntity
  8
USP-GEO
100
AcDbLine
 10
0.8125000000000142
 20
32.61112070841665
 30
0.0
 11
0.8750000000000142
 21
32.55556515286109
 31
0.0
  0
LINE
  5
CE
100
AcDbEntity
  8
USP-GEO
100
AcDbLine
 10
0.8125000000000142
 20
32.50000959730553
 30
0.0
 11
0.8750000000000142
 21
32.44445404174998
 31
0.0
  0
LINE
  5
CF
100
AcDbEntity
  8
USP-GEO
100
AcDbLine
 10
0.8125000000000142
 20
32.83334293063886
 30
0.0
 11
0.8750000000000142
 21
32.7777873750833
 31
0.0
  0
LINE
  5
D0
100
AcDbEntity
  8
USP-GEO
100
AcDbLine
 10
0.8750000000000142
 20
33.44445404174997
 30
0.0
 11
0.8125000000000142
 21
33.38889848619442
 31
0.0
  0
LINE
  5
D1
100
AcDbEntity
  8
USP-GEO
100
AcDbLine
 10
0.8750000000000142
 20
33.55556515286109
 30
0.0
 11
0.8125000000000142
 21
33.50000959730553
 31
0.0
  0
LINE
  5
D2
100
AcDbEntity
  8
USP-GEO
100
AcDbLine
 10
0.8125000000000142
 20
33.50000959730553
 30
0.0
 11
0.8750000000000142
 21
33.44445404174997
 31
0.0
  0
LINE
  5
D3
100
AcDbEntity
  8
USP-GEO
100
AcDbLine
 10
0.8750000000000142
 20
33.6666762639722
 30
0.0
 11
0.8125000000000142
 21
33.61112070841665
 31
0.0
  0
LINE
  5
D4
100
AcDbEntity
  8
USP-GEO
100
AcDbLine
 10
0.8125000000000142
 20
33.61112070841665
 30
0.0
 11
0.8750000000000142
 21
33.55556515286109
 31
0.0
  0
LINE
  5
D5
100
AcDbEntity
  8
USP-GEO
100
AcDbLine
 10
0.8125000000000142
 20
33.72223181952775
 30
0.0
 11
0.8750000000000142
 21
33.6666762639722
 31
0.0
  0
LINE
  5
D6
100
AcDbEntity
  8
USP-GEO
100
AcDbLine
 10
0.8125000000000142
 20
33.83334293063886
 30
0.0
 11
0.8750000000000142
 21
33.77778737508332
 31
0.0
  0
LINE
  5
D7
100
AcDbEntity
  8
USP-GEO
100
AcDbLine
 10
0.8750000000000142
 20
33.77778737508331
 30
0.0
 11
0.8125000000000142
 21
33.72223181952775
 31
0.0
  0
LINE
  5
D8
100
AcDbEntity
  8
USP-GEO
100
AcDbLine
 10
0.8750000000000142
 20
33.22223181952776
 30
0.0
 11
0.8125000000000142
 21
33.16667626397221
 31
0.0
  0
LINE
  5
D9
100
AcDbEntity
  8
USP-GEO
100
AcDbLine
 10
0.8125000000000142
 20
33.2777873750833
 30
0.0
 11
0.8750000000000142
 21
33.22223181952776
 31
0.0
  0
LINE
  5
DA
100
AcDbEntity
  8
USP-GEO
100
AcDbLine
 10
0.8750000000000142
 20
33.33334293063886
 30
0.0
 11
0.8125000000000142
 21
33.2777873750833
 31
0.0
  0
LINE
  5
DB
100
AcDbEntity
  8
USP-GEO
100
AcDbLine
 10
0.8125000000000142
 20
33.38889848619442
 30
0.0
 11
0.8750000000000142
 21
33.33334293063886
 31
0.0
  0
LINE
  5
DC
100
AcDbEntity
  8
USP-GEO
100
AcDbLine
 10
0.8125000000000142
 20
34.94445404174998
 30
0.0
 11
0.4375000000000142
 21
35.00000959730553
 31
0.0
  0
LINE
  5
DD
100
AcDbEntity
  8
USP-GEO
100
AcDbLine
 10
0.7500000000000142
 20
35.00000959730553
 30
0.0
 11
0.8125000000000142
 21
34.94445404174998
 31
0.0
  0
LINE
  5
DE
100
AcDbEntity
  8
USP-GEO
100
AcDbLine
 10
0.8750000000000142
 20
34.44445404174997
 30
0.0
 11
0.0000000000000142
 21
34.55556515286109
 31
0.0
  0
LINE
  5
DF
100
AcDbEntity
  8
USP-GEO
100
AcDbLine
 10
0.8125000000000142
 20
34.83334293063886
 30
0.0
 11
0.0625000000000142
 21
34.94445404174998
 31
0.0
  0
LINE
  5
E0
100
AcDbEntity
  8
USP-GEO
100
AcDbLine
 10
0.8125000000000142
 20
34.72223181952776
 30
0.0
 11
0.0625000000000142
 21
34.83334293063886
 31
0.0
  0
LINE
  5
E1
100
AcDbEntity
  8
USP-GEO
100
AcDbLine
 10
0.8125000000000142
 20
34.61112070841664
 30
0.0
 11
0.0625000000000142
 21
34.72223181952776
 31
0.0
  0
LINE
  5
E2
100
AcDbEntity
  8
USP-GEO
100
AcDbLine
 10
0.8750000000000142
 20
34.88889848619442
 30
0.0
 11
0.1093750000000142
 21
34.98612070841665
 31
0.0
  0
LINE
  5
E3
100
AcDbEntity
  8
USP-GEO
100
AcDbLine
 10
0.8750000000000142
 20
34.77778737508332
 30
0.0
 11
0.0000000000000142
 21
34.88889848619442
 31
0.0
  0
LINE
  5
E4
100
AcDbEntity
  8
USP-GEO
100
AcDbLine
 10
0.8750000000000142
 20
34.6666762639722
 30
0.0
 11
0.0000000000000142
 21
34.77778737508332
 31
0.0
  0
LINE
  5
E5
100
AcDbEntity
  8
USP-GEO
100
AcDbLine
 10
0.8125000000000142
 20
34.50000959730553
 30
0.0
 11
0.0625000000000142
 21
34.61112070841664
 31
0.0
  0
LINE
  5
E6
100
AcDbEntity
  8
USP-GEO
100
AcDbLine
 10
0.8750000000000142
 20
34.55556515286109
 30
0.0
 11
0.0000000000000142
 21
34.6666762639722
 31
0.0
  0
LINE
  5
E7
100
AcDbEntity
  8
USP-GEO
100
AcDbLine
 10
0.8125000000000142
 20
34.1666762639722
 30
0.0
 11
0.0625000000000142
 21
34.2777873750833
 31
0.0
  0
LINE
  5
E8
100
AcDbEntity
  8
USP-GEO
100
AcDbLine
 10
0.8750000000000142
 20
34.11112070841665
 30
0.0
 11
0.0000000000000142
 21
34.22223181952776
 31
0.0
  0
LINE
  5
E9
100
AcDbEntity
  8
USP-GEO
100
AcDbLine
 10
0.8125000000000142
 20
34.2777873750833
 30
0.0
 11
0.0625000000000142
 21
34.38889848619442
 31
0.0
  0
LINE
  5
EA
100
AcDbEntity
  8
USP-GEO
100
AcDbLine
 10
0.8750000000000142
 20
34.22223181952776
 30
0.0
 11
0.0000000000000142
 21
34.33334293063886
 31
0.0
  0
LINE
  5
EB
100
AcDbEntity
  8
USP-GEO
100
AcDbLine
 10
0.8125000000000142
 20
34.05556515286109
 30
0.0
 11
0.0625000000000142
 21
34.1666762639722
 31
0.0
  0
LINE
  5
EC
100
AcDbEntity
  8
USP-GEO
100
AcDbLine
 10
0.8125000000000142
 20
33.94445404174998
 30
0.0
 11
0.0625000000000142
 21
34.05556515286109
 31
0.0
  0
LINE
  5
ED
100
AcDbEntity
  8
USP-GEO
100
AcDbLine
 10
0.8750000000000142
 20
34.00000959730553
 30
0.0
 11
0.0000000000000142
 21
34.11112070841665
 31
0.0
  0
LINE
  5
EE
100
AcDbEntity
  8
USP-GEO
100
AcDbLine
 10
0.8750000000000142
 20
33.88889848619442
 30
0.0
 11
0.0000000000000142
 21
34.00000959730553
 31
0.0
  0
LINE
  5
EF
100
AcDbEntity
  8
USP-GEO
100
AcDbLine
 10
0.8125000000000142
 20
34.38889848619442
 30
0.0
 11
0.0625000000000142
 21
34.50000959730553
 31
0.0
  0
LINE
  5
F0
100
AcDbEntity
  8
USP-GEO
100
AcDbLine
 10
0.8750000000000142
 20
34.33334293063886
 30
0.0
 11
0.0000000000000142
 21
34.44445404174997
 31
0.0
  0
LINE
  5
F1
100
AcDbEntity
  8
USP-GEO
100
AcDbLine
 10
0.0625000000000142
 20
34.61112070841664
 30
0.0
 11
0.0000000000000142
 21
34.55556515286109
 31
0.0
  0
LINE
  5
F2
100
AcDbEntity
  8
USP-GEO
100
AcDbLine
 10
0.0000000000000142
 20
34.55556515286109
 30
0.0
 11
0.0625000000000142
 21
34.50000959730553
 31
0.0
  0
LINE
  5
F3
100
AcDbEntity
  8
USP-GEO
100
AcDbLine
 10
0.0625000000000142
 20
34.50000959730553
 30
0.0
 11
0.0000000000000142
 21
34.44445404174997
 31
0.0
  0
LINE
  5
F4
100
AcDbEntity
  8
USP-GEO
100
AcDbLine
 10
0.0000000000000142
 20
34.22223181952776
 30
0.0
 11
0.0625000000000142
 21
34.1666762639722
 31
0.0
  0
LINE
  5
F5
100
AcDbEntity
  8
USP-GEO
100
AcDbLine
 10
0.0625000000000142
 20
34.38889848619442
 30
0.0
 11
0.0000000000000142
 21
34.33334293063886
 31
0.0
  0
LINE
  5
F6
100
AcDbEntity
  8
USP-GEO
100
AcDbLine
 10
0.0000000000000142
 20
34.33334293063886
 30
0.0
 11
0.0625000000000142
 21
34.2777873750833
 31
0.0
  0
LINE
  5
F7
100
AcDbEntity
  8
USP-GEO
100
AcDbLine
 10
0.0625000000000142
 20
34.2777873750833
 30
0.0
 11
0.0000000000000142
 21
34.22223181952776
 31
0.0
  0
LINE
  5
F8
100
AcDbEntity
  8
USP-GEO
100
AcDbLine
 10
0.0000000000000142
 20
34.11112070841665
 30
0.0
 11
0.0625000000000142
 21
34.05556515286109
 31
0.0
  0
LINE
  5
F9
100
AcDbEntity
  8
USP-GEO
100
AcDbLine
 10
0.0625000000000142
 20
34.05556515286109
 30
0.0
 11
0.0000000000000142
 21
34.00000959730553
 31
0.0
  0
LINE
  5
FA
100
AcDbEntity
  8
USP-GEO
100
AcDbLine
 10
0.0000000000000142
 20
34.00000959730553
 30
0.0
 11
0.0625000000000142
 21
33.94445404174998
 31
0.0
  0
LINE
  5
FB
100
AcDbEntity
  8
USP-GEO
100
AcDbLine
 10
0.0625000000000142
 20
34.1666762639722
 30
0.0
 11
0.0000000000000142
 21
34.11112070841665
 31
0.0
  0
LINE
  5
FC
100
AcDbEntity
  8
USP-GEO
100
AcDbLine
 10
0.0625000000000142
 20
33.94445404174998
 30
0.0
 11
0.0000000000000142
 21
33.88889848619442
 31
0.0
  0
LINE
  5
FD
100
AcDbEntity
  8
USP-GEO
100
AcDbLine
 10
0.0000000000000142
 20
34.44445404174997
 30
0.0
 11
0.0625000000000142
 21
34.38889848619442
 31
0.0
  0
LINE
  5
FE
100
AcDbEntity
  8
USP-GEO
100
AcDbLine
 10
0.1250000000000142
 20
35.00000959730553
 30
0.0
 11
0.7500000000000142
 21
35.00000959730553
 31
0.0
  0
POINT
  5
FF
100
AcDbEntity
  8
USP-GEO
100
AcDbPoint
 10
0.1250000000000142
 20
35.00000959730553
 30
0.0
  0
LINE
  5
100
100
AcDbEntity
  8
USP-GEO
100
AcDbLine
 10
0.0625000000000142
 20
34.94445404174998
 30
0.0
 11
0.0000000000000142
 21
34.88889848619442
 31
0.0
  0
LINE
  5
101
100
AcDbEntity
  8
USP-GEO
100
AcDbLine
 10
0.0000000000000142
 20
34.88889848619442
 30
0.0
 11
0.0625000000000142
 21
34.83334293063886
 31
0.0
  0
LINE
  5
102
100
AcDbEntity
  8
USP-GEO
100
AcDbLine
 10
0.0625000000000142
 20
34.83334293063886
 30
0.0
 11
0.0000000000000142
 21
34.77778737508332
 31
0.0
  0
LINE
  5
103
100
AcDbEntity
  8
USP-GEO
100
AcDbLine
 10
0.0000000000000142
 20
34.77778737508332
 30
0.0
 11
0.0625000000000142
 21
34.72223181952776
 31
0.0
  0
LINE
  5
104
100
AcDbEntity
  8
USP-GEO
100
AcDbLine
 10
0.0625000000000142
 20
34.72223181952776
 30
0.0
 11
0.0000000000000142
 21
34.6666762639722
 31
0.0
  0
LINE
  5
105
100
AcDbEntity
  8
USP-GEO
100
AcDbLine
 10
0.0000000000000142
 20
34.6666762639722
 30
0.0
 11
0.0625000000000142
 21
34.61112070841664
 31
0.0
  0
LINE
  5
106
100
AcDbEntity
  8
USP-GEO
100
AcDbLine
 10
0.1250000000000142
 20
35.00000959730553
 30
0.0
 11
0.0625000000000142
 21
34.94445404174998
 31
0.0
  0
POINT
  5
107
100
AcDbEntity
  8
USP-GEO
100
AcDbPoint
 10
0.7500000000000142
 20
35.00000959730553
 30
0.0
  0
LINE
  5
108
100
AcDbEntity
  8
USP-GEO
100
AcDbLine
 10
0.8125000000000142
 20
34.61112070841664
 30
0.0
 11
0.8750000000000142
 21
34.55556515286109
 31
0.0
  0
LINE
  5
109
100
AcDbEntity
  8
USP-GEO
100
AcDbLine
 10
0.8125000000000142
 20
34.50000959730553
 30
0.0
 11
0.8750000000000142
 21
34.44445404174997
 31
0.0
  0
LINE
  5
10A
100
AcDbEntity
  8
USP-GEO
100
AcDbLine
 10
0.8750000000000142
 20
34.55556515286109
 30
0.0
 11
0.8125000000000142
 21
34.50000959730553
 31
0.0
  0
LINE
  5
10B
100
AcDbEntity
  8
USP-GEO
100
AcDbLine
 10
0.8750000000000142
 20
34.22223181952776
 30
0.0
 11
0.8125000000000142
 21
34.1666762639722
 31
0.0
  0
LINE
  5
10C
100
AcDbEntity
  8
USP-GEO
100
AcDbLine
 10
0.8125000000000142
 20
34.38889848619442
 30
0.0
 11
0.8750000000000142
 21
34.33334293063886
 31
0.0
  0
LINE
  5
10D
100
AcDbEntity
  8
USP-GEO
100
AcDbLine
 10
0.8125000000000142
 20
34.2777873750833
 30
0.0
 11
0.8750000000000142
 21
34.22223181952776
 31
0.0
  0
LINE
  5
10E
100
AcDbEntity
  8
USP-GEO
100
AcDbLine
 10
0.8750000000000142
 20
34.33334293063886
 30
0.0
 11
0.8125000000000142
 21
34.2777873750833
 31
0.0
  0
LINE
  5
10F
100
AcDbEntity
  8
USP-GEO
100
AcDbLine
 10
0.8125000000000142
 20
34.05556515286109
 30
0.0
 11
0.8750000000000142
 21
34.00000959730553
 31
0.0
  0
LINE
  5
110
100
AcDbEntity
  8
USP-GEO
100
AcDbLine
 10
0.8750000000000142
 20
34.11112070841665
 30
0.0
 11
0.8125000000000142
 21
34.05556515286109
 31
0.0
  0
LINE
  5
111
100
AcDbEntity
  8
USP-GEO
100
AcDbLine
 10
0.8750000000000142
 20
34.00000959730553
 30
0.0
 11
0.8125000000000142
 21
33.94445404174998
 31
0.0
  0
LINE
  5
112
100
AcDbEntity
  8
USP-GEO
100
AcDbLine
 10
0.8125000000000142
 20
34.1666762639722
 30
0.0
 11
0.8750000000000142
 21
34.11112070841665
 31
0.0
  0
LINE
  5
113
100
AcDbEntity
  8
USP-GEO
100
AcDbLine
 10
0.8125000000000142
 20
33.94445404174998
 30
0.0
 11
0.8750000000000142
 21
33.88889848619442
 31
0.0
  0
LINE
  5
114
100
AcDbEntity
  8
USP-GEO
100
AcDbLine
 10
0.8750000000000142
 20
34.44445404174997
 30
0.0
 11
0.8125000000000142
 21
34.38889848619442
 31
0.0
  0
LINE
  5
115
100
AcDbEntity
  8
USP-GEO
100
AcDbLine
 10
0.8125000000000142
 20
34.94445404174998
 30
0.0
 11
0.8750000000000142
 21
34.88889848619442
 31
0.0
  0
LINE
  5
116
100
AcDbEntity
  8
USP-GEO
100
AcDbLine
 10
0.8125000000000142
 20
34.83334293063886
 30
0.0
 11
0.8750000000000142
 21
34.77778737508332
 31
0.0
  0
LINE
  5
117
100
AcDbEntity
  8
USP-GEO
100
AcDbLine
 10
0.8750000000000142
 20
34.88889848619442
 30
0.0
 11
0.8125000000000142
 21
34.83334293063886
 31
0.0
  0
LINE
  5
118
100
AcDbEntity
  8
USP-GEO
100
AcDbLine
 10
0.8125000000000142
 20
34.72223181952776
 30
0.0
 11
0.8750000000000142
 21
34.6666762639722
 31
0.0
  0
LINE
  5
119
100
AcDbEntity
  8
USP-GEO
100
AcDbLine
 10
0.8750000000000142
 20
34.77778737508332
 30
0.0
 11
0.8125000000000142
 21
34.72223181952776
 31
0.0
  0
LINE
  5
11A
100
AcDbEntity
  8
USP-GEO
100
AcDbLine
 10
0.8750000000000142
 20
34.6666762639722
 30
0.0
 11
0.8125000000000142
 21
34.61112070841664
 31
0.0
  0
ENDBLK
  5
11C
100
AcDbEntity
  8
0
100
AcDbBlockEnd
  0
ENDSEC
  0
SECTION
  2
ENTITIES
  0
INSERT
  5
3
100
AcDbEntity
  8
USP
100
AcDbBlockReference
  2
STB34_T
 10
4.144512593498782
 20
38.28209703792748
 30
0.0
  0
INSERT
  5
1A
100
AcDbEntity
  8
USP
100
AcDbBlockReference
  2
STB34_S
 10
4.152241867412961
 20
0.9779577407253476
 30
0.0
  0
ENDSEC
  0
SECTION
  2
OBJECTS
  0
DICTIONARY
  5
134
102
{ACAD_XDICTIONARY
360
135
102
}
100
AcDbDictionary
  3
ACAD_GROUP
350
132
  3
ACAD_MLINESTYLE
350
133
  0
DICTIONARY
  5
11D
100
AcDbDictionary
280
     1
  3
ACAD_LAYOUTSELFREF
360
11E
  0
DICTIONARY
  5
122
100
AcDbDictionary
280
     1
  3
ACAD_LAYOUTSELFREF
360
123
  0
DICTIONARY
  5
135
100
AcDbDictionary
280
     1
  3
ACAD_XREC_ROUNDTRIP
360
136
  0
DICTIONARY
  5
132
102
{ACAD_REACTORS
330
134
102
}
100
AcDbDictionary
  0
DICTIONARY
  5
133
102
{ACAD_REACTORS
330
134
102
}
100
AcDbDictionary
  3
STANDARD
350
137
  0
XRECORD
  5
11E
102
{ACAD_REACTORS
330
11D
102
}
100
AcDbXrecord
340
2
  0
XRECORD
  5
123
102
{ACAD_REACTORS
330
122
102
}
100
AcDbXrecord
340
121
  0
XRECORD
  5
136
102
{ACAD_REACTORS
330
135
102
}
100
AcDbXrecord
102
EXTNAMES
  1
ACDBVARIABLEDICTIONARY
  2
AcDbVariableDictionary
  0
MLINESTYLE
  5
137
102
{ACAD_REACTORS
330
133
102
}
100
AcDbMlineStyle
  2
STANDARD
 70
     0
  3

 62
     0
 51
90.0
 52
90.0
 71
     2
 49
0.5
 62
   256
  6
BYLAYER
 49
-0.5
 62
   256
  6
BYLAYER
  0
ENDSEC
  0
EOF
