  0
SECTION
  2
HEADER
  9
$ACADVER
  1
AC1014
  9
$ACADMAINTVER
 70
     9
  9
$DWGCODEPAGE
  3
ANSI_1252
  9
$INSBASE
 10
0.0
 20
0.0
 30
0.0
  9
$EXTMIN
 10
0.0003661829982491
 20
0.0007650184422801
 30
0.0
  9
$EXTMAX
 10
8.87558339237508
 20
25.07042650373555
 30
0.0
  9
$LIMMIN
 10
0.0
 20
0.0
  9
$LIMMAX
 10
12.0
 20
9.0
  9
$ORTHOMODE
 70
     0
  9
$REGENMODE
 70
     1
  9
$FILLMODE
 70
     1
  9
$QTEXTMODE
 70
     0
  9
$MIRRTEXT
 70
     1
  9
$DRAGMODE
 70
     2
  9
$LTSCALE
 40
0.375
  9
$OSMODE
 70
    37
  9
$ATTMODE
 70
     1
  9
$TEXTSIZE
 40
0.375
  9
$TRACEWID
 40
0.05
  9
$TEXTSTYLE
  7
STANDARD
  9
$CLAYER
  8
0
  9
$CELTYPE
  6
BYLAYER
  9
$CECOLOR
 62
   256
  9
$CELTSCALE
 40
1.0
  9
$DELOBJ
 70
     1
  9
$DISPSILH
 70
     0
  9
$DIMSCALE
 40
1.5
  9
$DIMASZ
 40
0.18
  9
$DIMEXO
 40
0.0625
  9
$DIMDLI
 40
0.38
  9
$DIMRND
 40
0.0
  9
$DIMDLE
 40
0.0
  9
$DIMEXE
 40
0.18
  9
$DIMTP
 40
0.0
  9
$DIMTM
 40
0.0
  9
$DIMTXT
 40
0.18
  9
$DIMCEN
 40
0.09
  9
$DIMTSZ
 40
0.0
  9
$DIMTOL
 70
     0
  9
$DIMLIM
 70
     0
  9
$DIMTIH
 70
     1
  9
$DIMTOH
 70
     1
  9
$DIMSE1
 70
     0
  9
$DIMSE2
 70
     0
  9
$DIMTAD
 70
     0
  9
$DIMZIN
 70
     0
  9
$DIMBLK
  1

  9
$DIMASO
 70
     1
  9
$DIMSHO
 70
     1
  9
$DIMPOST
  1

  9
$DIMAPOST
  1

  9
$DIMALT
 70
     0
  9
$DIMALTD
 70
     2
  9
$DIMALTF
 40
25.4
  9
$DIMLFAC
 40
1.0
  9
$DIMTOFL
 70
     0
  9
$DIMTVP
 40
0.0
  9
$DIMTIX
 70
     0
  9
$DIMSOXD
 70
     0
  9
$DIMSAH
 70
     0
  9
$DIMBLK1
  1

  9
$DIMBLK2
  1

  9
$DIMSTYLE
  2
STANDARD
  9
$DIMCLRD
 70
     0
  9
$DIMCLRE
 70
     0
  9
$DIMCLRT
 70
     0
  9
$DIMTFAC
 40
1.0
  9
$DIMGAP
 40
0.09
  9
$DIMJUST
 70
     0
  9
$DIMSD1
 70
     0
  9
$DIMSD2
 70
     0
  9
$DIMTOLJ
 70
     1
  9
$DIMTZIN
 70
     0
  9
$DIMALTZ
 70
     0
  9
$DIMALTTZ
 70
     0
  9
$DIMFIT
 70
     5
  9
$DIMUPT
 70
     0
  9
$DIMUNIT
 70
     5
  9
$DIMDEC
 70
     4
  9
$DIMTDEC
 70
     4
  9
$DIMALTU
 70
     5
  9
$DIMALTTD
 70
     2
  9
$DIMTXSTY
  7
STANDARD
  9
$DIMAUNIT
 70
     0
  9
$LUNITS
 70
     5
  9
$LUPREC
 70
     4
  9
$SKETCHINC
 40
0.1
  9
$FILLETRAD
 40
0.0
  9
$AUNITS
 70
     0
  9
$AUPREC
 70
     2
  9
$MENU
  1
CUSTOM
  9
$ELEVATION
 40
0.0
  9
$PELEVATION
 40
0.0
  9
$THICKNESS
 40
0.0
  9
$LIMCHECK
 70
     0
  9
$BLIPMODE
 70
     0
  9
$CHAMFERA
 40
0.0
  9
$CHAMFERB
 40
0.0
  9
$CHAMFERC
 40
0.0
  9
$CHAMFERD
 40
0.0
  9
$SKPOLY
 70
     0
  9
$TDCREATE
 40
2450049.604998495
  9
$TDUPDATE
 40
2452759.746916771
  9
$TDINDWG
 40
0.2159014699
  9
$TDUSRTIMER
 40
0.2159014699
  9
$USRTIMER
 70
     1
  9
$ANGBASE
 50
0.0
  9
$ANGDIR
 70
     0
  9
$PDMODE
 70
     0
  9
$PDSIZE
 40
0.0
  9
$PLINEWID
 40
0.0
  9
$COORDS
 70
     1
  9
$SPLFRAME
 70
     0
  9
$SPLINETYPE
 70
     6
  9
$SPLINESEGS
 70
     8
  9
$ATTDIA
 70
     0
  9
$ATTREQ
 70
     1
  9
$HANDLING
 70
     1
  9
$HANDSEED
  5
192
  9
$SURFTAB1
 70
     6
  9
$SURFTAB2
 70
     6
  9
$SURFTYPE
 70
     6
  9
$SURFU
 70
     6
  9
$SURFV
 70
     6
  9
$UCSNAME
  2

  9
$UCSORG
 10
0.0
 20
0.0
 30
0.0
  9
$UCSXDIR
 10
1.0
 20
0.0
 30
0.0
  9
$UCSYDIR
 10
0.0
 20
1.0
 30
0.0
  9
$PUCSNAME
  2

  9
$PUCSORG
 10
0.0
 20
0.0
 30
0.0
  9
$PUCSXDIR
 10
1.0
 20
0.0
 30
0.0
  9
$PUCSYDIR
 10
0.0
 20
1.0
 30
0.0
  9
$USERI1
 70
     0
  9
$USERI2
 70
     0
  9
$USERI3
 70
     0
  9
$USERI4
 70
     0
  9
$USERI5
 70
     0
  9
$USERR1
 40
0.0
  9
$USERR2
 40
0.0
  9
$USERR3
 40
0.0
  9
$USERR4
 40
0.0
  9
$USERR5
 40
0.0
  9
$WORLDVIEW
 70
     1
  9
$SHADEDGE
 70
     3
  9
$SHADEDIF
 70
    70
  9
$TILEMODE
 70
     1
  9
$MAXACTVP
 70
    16
  9
$PINSBASE
 10
0.0
 20
0.0
 30
0.0
  9
$PLIMCHECK
 70
     0
  9
$PEXTMIN
 10
1.000000000000000E+20
 20
1.000000000000000E+20
 30
1.000000000000000E+20
  9
$PEXTMAX
 10
-1.000000000000000E+20
 20
-1.000000000000000E+20
 30
-1.000000000000000E+20
  9
$PLIMMIN
 10
0.0
 20
0.0
  9
$PLIMMAX
 10
12.0
 20
9.0
  9
$UNITMODE
 70
     0
  9
$VISRETAIN
 70
     0
  9
$PLINEGEN
 70
     0
  9
$PSLTSCALE
 70
     0
  9
$TREEDEPTH
 70
  3020
  9
$PICKSTYLE
 70
     1
  9
$CMLSTYLE
  2
STANDARD
  9
$CMLJUST
 70
     0
  9
$CMLSCALE
 40
1.0
  9
$PROXYGRAPHICS
 70
     1
  9
$MEASUREMENT
 70
     0
  0
ENDSEC
  0
SECTION
  2
CLASSES
  0
CLASS
  1
ACDBDICTIONARYWDFLT
  2
AcDbDictionaryWithDefault
  3
AutoCAD 2000
 90
        0
280
     1
281
     0
  0
CLASS
  1
ACDBPLACEHOLDER
  2
AcDbPlaceHolder
  3
AutoCAD 2000
 90
        0
280
     1
281
     0
  0
CLASS
  1
LAYOUT
  2
AcDbLayout
  3
AutoCAD 2000
 90
        0
280
     1
281
     0
  0
CLASS
  1
LONG_TRANSACTION
  2
AcDbLongTransaction
  3
AutoCAD 2000
 90
        0
280
     1
281
     0
  0
CLASS
  1
LWPOLYLINE
  2
AcDbPolyline
  3
"AutoCAD"
 90
        0
280
     1
281
     1
  0
CLASS
  1
HATCH
  2
AcDbHatch
  3
"ACAD_SEDONA"
 90
        0
280
     1
281
     1
  0
CLASS
  1
XRECORD
  2
AcDbXrecord
  3
"<Built In>"
 90
        0
280
     0
281
     0
  0
CLASS
  1
LONG_TRANSACTION
  2
AcDbLongTransaction
  3
AutoCAD 2000
 90
        0
280
     1
281
     0
  0
CLASS
  1
LWPOLYLINE
  2
AcDbPolyline
  3
"AutoCAD"
 90
        0
280
     1
281
     1
  0
CLASS
  1
HATCH
  2
AcDbHatch
  3
"ACAD_SEDONA"
 90
        0
280
     1
281
     1
  0
CLASS
  1
XRECORD
  2
AcDbXrecord
  3
"<Built In>"
 90
        0
280
     0
281
     0
  0
CLASS
  1
LONG_TRANSACTION
  2
AcDbLongTransaction
  3
AutoCAD 2000
 90
        0
280
     1
281
     0
  0
CLASS
  1
LWPOLYLINE
  2
AcDbPolyline
  3
"AutoCAD"
 90
        0
280
     1
281
     1
  0
CLASS
  1
HATCH
  2
AcDbHatch
  3
"ACAD_SEDONA"
 90
        0
280
     1
281
     1
  0
CLASS
  1
XRECORD
  2
AcDbXrecord
  3
"<Built In>"
 90
        0
280
     0
281
     0
  0
CLASS
  1
DICTIONARYVAR
  2
AcDbDictionaryVar
  3
"AutoCAD"
 90
        0
280
     0
281
     0
  0
CLASS
  1
LONG_TRANSACTION
  2
AcDbLongTransaction
  3
AutoCAD 2000
 90
        0
280
     0
281
     0
  0
CLASS
  1
LWPOLYLINE
  2
AcDbPolyline
  3
"AutoCAD"
 90
        0
280
     0
281
     1
  0
CLASS
  1
HATCH
  2
AcDbHatch
  3
"ACAD_SEDONA"
 90
        0
280
     0
281
     1
  0
CLASS
  1
XRECORD
  2
AcDbXrecord
  3
"<Built In>"
 90
        0
280
     0
281
     0
  0
CLASS
  1
LONG_TRANSACTION
  2
AcDbLongTransaction
  3
AutoCAD 2000
 90
        0
280
     0
281
     0
  0
CLASS
  1
LWPOLYLINE
  2
AcDbPolyline
  3
"AutoCAD"
 90
        0
280
     0
281
     1
  0
CLASS
  1
HATCH
  2
AcDbHatch
  3
"ACAD_SEDONA"
 90
        0
280
     0
281
     1
  0
CLASS
  1
XRECORD
  2
AcDbXrecord
  3
"<Built In>"
 90
        0
280
     0
281
     0
  0
ENDSEC
  0
SECTION
  2
TABLES
  0
TABLE
  2
VPORT
  5
172
100
AcDbSymbolTable
 70
     1
  0
VPORT
  5
18E
100
AcDbSymbolTableRecord
100
AcDbViewportTableRecord
  2
*ACTIVE
 70
     0
 10
0.0
 20
0.0
 11
1.0
 21
1.0
 12
4.438337402373889
 22
12.84493485959697
 13
0.0
 23
0.0
 14
1.0
 24
1.0
 15
0.0
 25
0.0
 16
0.0
 26
0.0
 36
1.0
 17
0.0
 27
0.0
 37
0.0
 40
25.87300333353468
 41
1.457627118644067
 42
50.0
 43
0.0
 44
0.0
 50
0.0
 51
0.0
 71
     0
 72
   100
 73
     1
 74
     0
 75
     0
 76
     0
 77
     0
 78
     0
  0
ENDTAB
  0
TABLE
  2
LTYPE
  5
16B
100
AcDbSymbolTable
 70
     2
  0
LTYPE
  5
16C
102
{ACAD_XDICTIONARY
360
16D
102
}
100
AcDbSymbolTableRecord
100
AcDbLinetypeTableRecord
  2
BYBLOCK
 70
     0
  3

 72
    65
 73
     0
 40
0.0
  0
LTYPE
  5
16E
102
{ACAD_XDICTIONARY
360
16F
102
}
100
AcDbSymbolTableRecord
100
AcDbLinetypeTableRecord
  2
BYLAYER
 70
     0
  3

 72
    65
 73
     0
 40
0.0
  0
LTYPE
  5
5
100
AcDbSymbolTableRecord
100
AcDbLinetypeTableRecord
  2
CONTINUOUS
 70
     0
  3
Solid line
 72
    65
 73
     0
 40
0.0
  0
LTYPE
  5
22
100
AcDbSymbolTableRecord
100
AcDbLinetypeTableRecord
  2
CENTER
 70
     0
  3
____ _ ____ _ ____ _ ____ _ ____ _ ____ _ ____ 
 72
    65
 73
     4
 40
2.0
 49
1.25
 74
     0
 49
-0.25
 74
     0
 49
0.25
 74
     0
 49
-0.25
 74
     0
  0
ENDTAB
  0
TABLE
  2
LAYER
  5
169
100
AcDbSymbolTable
 70
     6
  0
LAYER
  5
18
100
AcDbSymbolTableRecord
100
AcDbLayerTableRecord
  2
0
 70
     0
 62
     7
  6
CONTINUOUS
  0
LAYER
  5
4
100
AcDbSymbolTableRecord
100
AcDbLayerTableRecord
  2
USP
 70
     0
 62
     7
  6
CONTINUOUS
  0
LAYER
  5
21
100
AcDbSymbolTableRecord
100
AcDbLayerTableRecord
  2
USP-CEN
 70
     0
 62
     7
  6
CENTER
  0
LAYER
  5
B
100
AcDbSymbolTableRecord
100
AcDbLayerTableRecord
  2
USP-GEO
 70
     0
 62
     7
  6
CONTINUOUS
  0
LAYER
  5
8
100
AcDbSymbolTableRecord
100
AcDbLayerTableRecord
  2
USP-TXT
 70
     0
 62
     7
  6
CONTINUOUS
  0
LAYER
  5
1D
100
AcDbSymbolTableRecord
100
AcDbLayerTableRecord
  2
USP-DIM
 70
     0
 62
     7
  6
CONTINUOUS
  0
ENDTAB
  0
TABLE
  2
STYLE
  5
16A
100
AcDbSymbolTable
 70
     1
  0
STYLE
  5
9
100
AcDbSymbolTableRecord
100
AcDbTextStyleTableRecord
  2
STANDARD
 70
     0
 40
0.0
 41
1.0
 50
0.0
 71
     0
 42
0.375
  3
txt
  4

  0
ENDTAB
  0
TABLE
  2
VIEW
  5
170
100
AcDbSymbolTable
 70
     0
  0
ENDTAB
  0
TABLE
  2
UCS
  5
171
100
AcDbSymbolTable
 70
     0
  0
ENDTAB
  0
TABLE
  2
APPID
  5
174
100
AcDbSymbolTable
 70
     1
  0
APPID
  5
175
100
AcDbSymbolTableRecord
100
AcDbRegAppTableRecord
  2
ACAD
 70
     0
  0
ENDTAB
  0
TABLE
  2
DIMSTYLE
  5
176
100
AcDbSymbolTable
 70
     1
  0
DIMSTYLE
105
17F
102
{ACAD_XDICTIONARY
360
180
102
}
100
AcDbSymbolTableRecord
100
AcDbDimStyleTableRecord
  2
STANDARD
 70
     0
  3

  4

  5

  6

  7

 40
1.0
 41
0.18
 42
0.0625
 43
0.38
 44
0.18
 45
0.0
 46
0.0
 47
0.0
 48
0.0
140
0.18
141
0.09
142
0.0
143
25.4
144
1.0
145
0.0
146
1.0
147
0.09
 71
     0
 72
     0
 73
     1
 74
     1
 75
     0
 76
     0
 77
     0
 78
     0
170
     0
171
     2
172
     0
173
     0
174
     0
175
     0
176
     0
177
     0
178
     0
270
     2
271
     4
272
     4
273
     2
274
     2
340
9
275
     0
280
     0
281
     0
282
     0
283
     1
284
     0
285
     0
286
     0
287
     3
288
     0
  0
ENDTAB
  0
TABLE
  2
BLOCK_RECORD
  5
1
100
AcDbSymbolTable
 70
     2
  0
BLOCK_RECORD
  5
2
102
{ACAD_XDICTIONARY
360
160
102
}
100
AcDbSymbolTableRecord
100
AcDbBlockTableRecord
  2
*MODEL_SPACE
  0
BLOCK_RECORD
  5
164
102
{ACAD_XDICTIONARY
360
165
102
}
100
AcDbSymbolTableRecord
100
AcDbBlockTableRecord
  2
*PAPER_SPACE
  0
BLOCK_RECORD
  5
6
100
AcDbSymbolTableRecord
100
AcDbBlockTableRecord
  2
STB20_T
  0
BLOCK_RECORD
  5
1B
100
AcDbSymbolTableRecord
100
AcDbBlockTableRecord
  2
STB20_S
  0
ENDTAB
  0
ENDSEC
  0
SECTION
  2
BLOCKS
  0
BLOCK
  5
162
100
AcDbEntity
  8
0
100
AcDbBlockBegin
  2
*MODEL_SPACE
 70
     0
 10
0.0
 20
0.0
 30
0.0
  3
*MODEL_SPACE
  1

  0
ENDBLK
  5
163
100
AcDbEntity
  8
0
100
AcDbBlockEnd
  0
BLOCK
  5
167
100
AcDbEntity
 67
     1
  8
0
100
AcDbBlockBegin
  2
*PAPER_SPACE
 70
     0
 10
0.0
 20
0.0
 30
0.0
  3
*PAPER_SPACE
  1

  0
ENDBLK
  5
168
100
AcDbEntity
 67
     1
  8
0
100
AcDbBlockEnd
  0
BLOCK
  5
17
100
AcDbEntity
  8
0
100
AcDbBlockBegin
  2
STB20_T
 70
     0
 10
0.0
 20
0.0
 30
0.0
  3
STB20_T
  1

  0
TEXT
  5
7
100
AcDbEntity
  8
USP-TXT
100
AcDbText
 10
-0.5153644791314802
 20
-0.7907508631317342
 30
0.0
 40
0.25
  1
STB20 - TOP VIEW
 72
     1
 11
1.463802187535186
 21
-0.7907508631317342
 31
0.0
100
AcDbText
  0
LINE
  5
A
100
AcDbEntity
  8
USP-GEO
100
AcDbLine
 10
0.3124999999999964
 20
0.625
 30
0.0
 11
2.874999999999996
 21
0.625
 31
0.0
  0
LINE
  5
C
100
AcDbEntity
  8
USP-GEO
100
AcDbLine
 10
0.3124999999999964
 20
0.0
 30
0.0
 11
2.874999999999996
 21
0.0
 31
0.0
  0
ARC
  5
D
100
AcDbEntity
  8
USP-GEO
100
AcDbCircle
 10
0.270961548550531
 20
0.2468801158929175
 30
0.0
 40
0.0917945536235113
100
AcDbArc
 50
2.700639296551189
 51
86.42225290831403
  0
LINE
  5
E
100
AcDbEntity
  8
USP-GEO
100
AcDbLine
 10
0.0526043750703735
 20
0.338495765616571
 30
0.0
 11
0.2933604522494022
 21
0.0977396884375352
 31
0.0
  0
CIRCLE
  5
F
100
AcDbEntity
  8
USP-GEO
100
AcDbCircle
 10
0.3125
 20
0.3125000000000035
 30
0.0
 40
0.3125
  0
ARC
  5
10
100
AcDbEntity
  8
USP-GEO
100
AcDbCircle
 10
0.4719256336191507
 20
0.2666287767007525
 30
0.0
 40
0.1103546195663747
100
AcDbArc
 50
188.0341477349642
 51
325.7948827715896
  0
LINE
  5
11
100
AcDbEntity
  8
USP-GEO
100
AcDbLine
 10
0.0526043750703735
 20
0.338495765616571
 30
0.0
 11
0.2766897944122313
 21
0.338495765616571
 31
0.0
  0
LINE
  5
12
100
AcDbEntity
  8
USP-GEO
100
AcDbLine
 10
0.0526043750703735
 20
0.338495765616571
 30
0.0
 11
0.2933604522494022
 21
0.5792518427956069
 31
0.0
  0
TEXT
  5
13
100
AcDbEntity
  8
USP-TXT
100
AcDbText
 10
0.4422778409626318
 20
0.4233594004675787
 30
0.0
 40
0.1252667904795466
  1
U
 50
225.0
100
AcDbText
  0
TEXT
  5
14
100
AcDbEntity
  8
USP-TXT
100
AcDbText
 10
0.3370317601592774
 20
0.5685929922979192
 30
0.0
 40
0.1252667904795466
  1
20
 50
225.0
100
AcDbText
  0
ARC
  5
15
100
AcDbEntity
  8
USP-GEO
100
AcDbCircle
 10
2.543399999999998
 20
0.3125000000000035
 30
0.0
 40
0.3125
100
AcDbArc
 50
270.0
 51
90.0
  0
LINE
  5
16
100
AcDbEntity
  8
USP-GEO
100
AcDbLine
 10
2.874999999999996
 20
0.0
 30
0.0
 11
2.874999999999996
 21
0.625
 31
0.0
  0
ENDBLK
  5
19
100
AcDbEntity
  8
0
100
AcDbBlockEnd
  0
BLOCK
  5
15E
100
AcDbEntity
  8
0
100
AcDbBlockBegin
  2
STB20_S
 70
     0
 10
0.0
 20
0.0
 30
0.0
  3
STB20_S
  1

  0
TEXT
  5
1C
100
AcDbEntity
  8
USP-DIM
100
AcDbText
 10
-5.386906235774742
 20
16.74364233880004
 30
0.0
 40
0.2277
  1
Embedment Line
 72
     4
 11
-3.906856235774743
 21
16.85749233880004
 31
0.0
100
AcDbText
  0
LINE
  5
1E
100
AcDbEntity
  8
USP-GEO
100
AcDbLine
 10
0.625
 20
16.78119402361081
 30
0.0
 11
0.625
 21
6.062194023610818
 31
0.0
  0
LINE
  5
1F
100
AcDbEntity
  8
USP-GEO
100
AcDbLine
 10
0.0
 20
16.78119402361081
 30
0.0
 11
0.0
 21
6.062194023610818
 31
0.0
  0
LINE
  5
20
100
AcDbEntity
  8
USP-CEN
100
AcDbLine
 10
0.3125
 20
18.06219402361081
 30
0.0
 11
0.3125
 21
6.062194023610818
 31
0.0
  0
ARC
  5
23
100
AcDbEntity
  8
USP-GEO
100
AcDbCircle
 10
2.87343672442271
 20
1.562347709536805
 30
0.0
 40
0.9375
100
AcDbArc
 50
129.200041424262
 51
269.200041424261
  0
ARC
  5
24
100
AcDbEntity
  8
USP-GEO
100
AcDbCircle
 10
2.87343672442271
 20
1.562347709536805
 30
0.0
 40
1.5625
100
AcDbArc
 50
129.2000414242615
 51
269.2000414242613
  0
ARC
  5
25
100
AcDbEntity
  8
USP-CEN
100
AcDbCircle
 10
2.87343672442271
 20
1.562347709536805
 30
0.0
 40
1.25
100
AcDbArc
 50
129.2000414242618
 51
269.2000414242612
  0
TEXT
  5
26
100
AcDbEntity
  8
USP-TXT
100
AcDbText
 10
-0.6366890263979146
 20
-0.79075086313172
 30
0.0
 40
0.25
  1
STB20 - SIDE VIEW
 72
     1
 11
1.425810973602086
 21
-0.79075086313172
 31
0.0
100
AcDbText
  0
LINE
  5
27
100
AcDbEntity
  8
USP-GEO
100
AcDbLine
 10
2.851621947204158
 20
0.0000000000000142
 30
0.0
 11
2.860347858091571
 21
0.6249390838147307
 31
0.0
  0
POINT
  5
28
100
AcDbEntity
  8
USP-GEO
100
AcDbPoint
 10
2.851621947204158
 20
0.0000000000000071
 30
0.0
  0
LINE
  5
29
100
AcDbEntity
  8
USP-GEO
100
AcDbLine
 10
1.241856115632181
 20
5.18123219162403
 30
0.0
 11
1.827768541015039
 21
4.967977508897948
 31
0.0
  0
LINE
  5
2A
100
AcDbEntity
  8
USP-GEO
100
AcDbLine
 10
1.028093526053638
 20
4.593924303632835
 30
0.0
 11
1.614005951436499
 21
4.380669620906754
 31
0.0
  0
LINE
  5
2B
100
AcDbEntity
  8
USP-CEN
100
AcDbLine
 10
1.134974820842913
 20
4.887578247628432
 30
0.0
 11
1.720887246225771
 21
4.674323564902355
 31
0.0
  0
ARC
  5
2C
100
AcDbEntity
  8
USP-GEO
100
AcDbCircle
 10
1.562499999999996
 20
6.062194023610818
 30
0.0
 40
0.9375
100
AcDbArc
 50
180.0
 51
249.9999999999999
  0
ARC
  5
2D
100
AcDbEntity
  8
USP-GEO
100
AcDbCircle
 10
1.562499999999996
 20
6.062194023610818
 30
0.0
 40
1.5625
100
AcDbArc
 50
180.0
 51
249.9999999999999
  0
ARC
  5
2E
100
AcDbEntity
  8
USP-CEN
100
AcDbCircle
 10
1.562499999999996
 20
6.062194023610818
 30
0.0
 40
1.25
100
AcDbArc
 50
179.9999999999998
 51
249.9999999999999
  0
POINT
  5
2F
100
AcDbEntity
  8
USP-GEO
100
AcDbPoint
 10
0.625
 20
6.062194023610818
 30
0.0
  0
ARC
  5
30
100
AcDbEntity
  8
USP-GEO
100
AcDbCircle
 10
1.29336206706867
 20
3.499707788919966
 30
0.0
 40
1.5625
100
AcDbArc
 50
309.2000414242614
 51
69.99999999999976
  0
ARC
  5
31
100
AcDbEntity
  8
USP-GEO
100
AcDbCircle
 10
1.29336206706867
 20
3.499707788919966
 30
0.0
 40
0.9375
100
AcDbArc
 50
309.2000414242618
 51
69.99999999999953
  0
ARC
  5
32
100
AcDbEntity
  8
USP-CEN
100
AcDbCircle
 10
1.29336206706867
 20
3.499707788919966
 30
0.0
 40
1.25
100
AcDbArc
 50
309.2000414242614
 51
69.99999999999975
  0
LINE
  5
33
100
AcDbEntity
  8
USP-GEO
100
AcDbLine
 10
0.625
 20
18.06219402361081
 30
0.0
 11
0.625
 21
16.84319402361081
 31
0.0
  0
LINE
  5
34
100
AcDbEntity
  8
USP-GEO
100
AcDbLine
 10
0.0
 20
18.06219402361081
 30
0.0
 11
0.0
 21
16.84319402361081
 31
0.0
  0
LINE
  5
35
100
AcDbEntity
  8
USP-DIM
100
AcDbLine
 10
-0.2699999999999996
 20
16.81219402361081
 30
0.0
 11
-2.17635715434968
 21
16.81219402361081
 31
0.0
  0
SOLID
  5
36
100
AcDbEntity
  8
USP-DIM
100
AcDbTrace
 10
-0.2699999999999996
 20
16.85719402361081
 30
0.0
 11
-0.2699999999999996
 21
16.76719402361082
 31
0.0
 12
0.0
 22
16.81219402361081
 32
0.0
 13
0.0
 23
16.81219402361081
 33
0.0
  0
LINE
  5
37
100
AcDbEntity
  8
USP-GEO
100
AcDbLine
 10
0.625
 20
16.81219402361081
 30
0.0
 11
0.0
 21
16.81219402361081
 31
0.0
  0
LINE
  5
38
100
AcDbEntity
  8
USP-GEO
100
AcDbLine
 10
0.615000000000002
 20
16.82781902361081
 30
0.0
 11
0.0100000000000016
 21
16.82781902361081
 31
0.0
  0
LINE
  5
39
100
AcDbEntity
  8
USP-GEO
100
AcDbLine
 10
0.615000000000002
 20
16.79656902361081
 30
0.0
 11
0.009999999999998
 21
16.79656902361081
 31
0.0
  0
LINE
  5
3A
100
AcDbEntity
  8
USP-GEO
100
AcDbLine
 10
0.0
 20
16.84319402361081
 30
0.0
 11
0.009999999999998
 21
16.82781902361081
 31
0.0
  0
LINE
  5
3B
100
AcDbEntity
  8
USP-GEO
100
AcDbLine
 10
0.009999999999998
 20
16.82781902361081
 30
0.0
 11
0.009999999999998
 21
16.79656902361081
 31
0.0
  0
LINE
  5
3C
100
AcDbEntity
  8
USP-GEO
100
AcDbLine
 10
0.009999999999998
 20
16.79656902361081
 30
0.0
 11
0.0
 21
16.78119402361081
 31
0.0
  0
LINE
  5
3D
100
AcDbEntity
  8
USP-GEO
100
AcDbLine
 10
0.615000000000002
 20
16.79656902361081
 30
0.0
 11
0.625
 21
16.78119402361081
 31
0.0
  0
LINE
  5
3E
100
AcDbEntity
  8
USP-GEO
100
AcDbLine
 10
0.615000000000002
 20
16.82781902361081
 30
0.0
 11
0.615000000000002
 21
16.79656902361081
 31
0.0
  0
LINE
  5
3F
100
AcDbEntity
  8
USP-GEO
100
AcDbLine
 10
0.625
 20
16.84319402361081
 30
0.0
 11
0.615000000000002
 21
16.82781902361081
 31
0.0
  0
LINE
  5
40
100
AcDbEntity
  8
USP-GEO
100
AcDbLine
 10
0.5625
 20
21.06801600224132
 30
0.0
 11
0.625
 21
21.02426600224132
 31
0.0
  0
LINE
  5
41
100
AcDbEntity
  8
USP-GEO
100
AcDbLine
 10
0.0
 20
21.08676600224132
 30
0.0
 11
0.0625
 21
21.04301600224132
 31
0.0
  0
LINE
  5
42
100
AcDbEntity
  8
USP-GEO
100
AcDbLine
 10
0.5625
 20
21.06801600224132
 30
0.0
 11
0.0625
 21
21.04301600224132
 31
0.0
  0
LINE
  5
43
100
AcDbEntity
  8
USP-GEO
100
AcDbLine
 10
0.625
 20
19.14926600224131
 30
0.0
 11
0.5625
 21
19.09926600224132
 31
0.0
  0
LINE
  5
44
100
AcDbEntity
  8
USP-GEO
100
AcDbLine
 10
0.0625
 20
19.16801600224132
 30
0.0
 11
0.0
 21
19.11801600224131
 31
0.0
  0
LINE
  5
45
100
AcDbEntity
  8
USP-GEO
100
AcDbLine
 10
0.625
 20
19.14926600224131
 30
0.0
 11
0.0
 21
19.11801600224131
 31
0.0
  0
LINE
  5
46
100
AcDbEntity
  8
USP-GEO
100
AcDbLine
 10
0.625
 20
19.14926600224131
 30
0.0
 11
0.0
 21
19.11801600224131
 31
0.0
  0
LINE
  5
47
100
AcDbEntity
  8
USP-GEO
100
AcDbLine
 10
0.625
 20
18.21176600224131
 30
0.0
 11
0.5625
 21
18.16176600224132
 31
0.0
  0
LINE
  5
48
100
AcDbEntity
  8
USP-GEO
100
AcDbLine
 10
0.0
 20
18.18051600224131
 30
0.0
 11
0.0625
 21
18.13676600224131
 31
0.0
  0
LINE
  5
49
100
AcDbEntity
  8
USP-GEO
100
AcDbLine
 10
0.5625
 20
18.06801600224131
 30
0.0
 11
0.4460604273899805
 21
18.06219402361081
 31
0.0
  0
LINE
  5
4A
100
AcDbEntity
  8
USP-GEO
100
AcDbLine
 10
0.625
 20
18.11801600224131
 30
0.0
 11
0.0
 21
18.08676600224131
 31
0.0
  0
LINE
  5
4B
100
AcDbEntity
  8
USP-GEO
100
AcDbLine
 10
0.625
 20
18.11801600224131
 30
0.0
 11
0.0
 21
18.08676600224131
 31
0.0
  0
LINE
  5
4C
100
AcDbEntity
  8
USP-GEO
100
AcDbLine
 10
0.5625
 20
18.16176600224132
 30
0.0
 11
0.0625
 21
18.13676600224131
 31
0.0
  0
LINE
  5
4D
100
AcDbEntity
  8
USP-GEO
100
AcDbLine
 10
0.0
 20
18.06219402361081
 30
0.0
 11
0.625
 21
18.06219402361081
 31
0.0
  0
LINE
  5
4E
100
AcDbEntity
  8
USP-GEO
100
AcDbLine
 10
0.0
 20
18.08676600224131
 30
0.0
 11
0.0351028266150024
 21
18.06219402361081
 31
0.0
  0
LINE
  5
4F
100
AcDbEntity
  8
USP-GEO
100
AcDbLine
 10
0.0625
 20
18.13676600224131
 30
0.0
 11
0.0
 21
18.08676600224131
 31
0.0
  0
POINT
  5
50
100
AcDbEntity
  8
USP-GEO
100
AcDbPoint
 10
0.625
 20
18.06219402361081
 30
0.0
  0
LINE
  5
51
100
AcDbEntity
  8
USP-GEO
100
AcDbLine
 10
0.5625
 20
18.06801600224131
 30
0.0
 11
0.5708171123292872
 21
18.06219402361081
 31
0.0
  0
LINE
  5
52
100
AcDbEntity
  8
USP-GEO
100
AcDbLine
 10
0.625
 20
18.11801600224131
 30
0.0
 11
0.5625
 21
18.06801600224131
 31
0.0
  0
LINE
  5
53
100
AcDbEntity
  8
USP-GEO
100
AcDbLine
 10
0.5625
 20
18.16176600224132
 30
0.0
 11
0.625
 21
18.11801600224131
 31
0.0
  0
LINE
  5
54
100
AcDbEntity
  8
USP-GEO
100
AcDbLine
 10
0.625
 20
18.21176600224131
 30
0.0
 11
0.0
 21
18.18051600224131
 31
0.0
  0
LINE
  5
55
100
AcDbEntity
  8
USP-GEO
100
AcDbLine
 10
0.625
 20
18.30551600224131
 30
0.0
 11
0.0
 21
18.27426600224131
 31
0.0
  0
LINE
  5
56
100
AcDbEntity
  8
USP-GEO
100
AcDbLine
 10
0.625
 20
18.21176600224131
 30
0.0
 11
0.0
 21
18.18051600224131
 31
0.0
  0
LINE
  5
57
100
AcDbEntity
  8
USP-GEO
100
AcDbLine
 10
0.5625
 20
18.25551600224131
 30
0.0
 11
0.0625
 21
18.23051600224132
 31
0.0
  0
LINE
  5
58
100
AcDbEntity
  8
USP-GEO
100
AcDbLine
 10
0.625
 20
18.39926600224131
 30
0.0
 11
0.0
 21
18.36801600224131
 31
0.0
  0
LINE
  5
59
100
AcDbEntity
  8
USP-GEO
100
AcDbLine
 10
0.625
 20
18.30551600224131
 30
0.0
 11
0.0
 21
18.27426600224131
 31
0.0
  0
LINE
  5
5A
100
AcDbEntity
  8
USP-GEO
100
AcDbLine
 10
0.5625
 20
18.34926600224132
 30
0.0
 11
0.0625
 21
18.32426600224131
 31
0.0
  0
LINE
  5
5B
100
AcDbEntity
  8
USP-GEO
100
AcDbLine
 10
0.625
 20
18.49301600224131
 30
0.0
 11
0.0
 21
18.46176600224131
 31
0.0
  0
LINE
  5
5C
100
AcDbEntity
  8
USP-GEO
100
AcDbLine
 10
0.625
 20
18.39926600224131
 30
0.0
 11
0.0
 21
18.36801600224131
 31
0.0
  0
LINE
  5
5D
100
AcDbEntity
  8
USP-GEO
100
AcDbLine
 10
0.5625
 20
18.44301600224131
 30
0.0
 11
0.0625
 21
18.41801600224131
 31
0.0
  0
LINE
  5
5E
100
AcDbEntity
  8
USP-GEO
100
AcDbLine
 10
0.625
 20
18.58676600224131
 30
0.0
 11
0.0
 21
18.55551600224131
 31
0.0
  0
LINE
  5
5F
100
AcDbEntity
  8
USP-GEO
100
AcDbLine
 10
0.625
 20
18.49301600224131
 30
0.0
 11
0.0
 21
18.46176600224131
 31
0.0
  0
LINE
  5
60
100
AcDbEntity
  8
USP-GEO
100
AcDbLine
 10
0.5625
 20
18.53676600224131
 30
0.0
 11
0.0625
 21
18.51176600224132
 31
0.0
  0
LINE
  5
61
100
AcDbEntity
  8
USP-GEO
100
AcDbLine
 10
0.625
 20
18.68051600224131
 30
0.0
 11
0.0
 21
18.64926600224131
 31
0.0
  0
LINE
  5
62
100
AcDbEntity
  8
USP-GEO
100
AcDbLine
 10
0.625
 20
18.58676600224131
 30
0.0
 11
0.0
 21
18.55551600224131
 31
0.0
  0
LINE
  5
63
100
AcDbEntity
  8
USP-GEO
100
AcDbLine
 10
0.5625
 20
18.63051600224132
 30
0.0
 11
0.0625
 21
18.60551600224131
 31
0.0
  0
LINE
  5
64
100
AcDbEntity
  8
USP-GEO
100
AcDbLine
 10
0.625
 20
18.77426600224131
 30
0.0
 11
0.0
 21
18.74301600224131
 31
0.0
  0
LINE
  5
65
100
AcDbEntity
  8
USP-GEO
100
AcDbLine
 10
0.625
 20
18.68051600224131
 30
0.0
 11
0.0
 21
18.64926600224131
 31
0.0
  0
LINE
  5
66
100
AcDbEntity
  8
USP-GEO
100
AcDbLine
 10
0.5625
 20
18.72426600224131
 30
0.0
 11
0.0625
 21
18.69926600224132
 31
0.0
  0
LINE
  5
67
100
AcDbEntity
  8
USP-GEO
100
AcDbLine
 10
0.625
 20
18.86801600224131
 30
0.0
 11
0.0
 21
18.83676600224131
 31
0.0
  0
LINE
  5
68
100
AcDbEntity
  8
USP-GEO
100
AcDbLine
 10
0.625
 20
18.77426600224131
 30
0.0
 11
0.0
 21
18.74301600224131
 31
0.0
  0
LINE
  5
69
100
AcDbEntity
  8
USP-GEO
100
AcDbLine
 10
0.5625
 20
18.81801600224132
 30
0.0
 11
0.0625
 21
18.79301600224131
 31
0.0
  0
LINE
  5
6A
100
AcDbEntity
  8
USP-GEO
100
AcDbLine
 10
0.625
 20
18.96176600224131
 30
0.0
 11
0.0
 21
18.93051600224131
 31
0.0
  0
LINE
  5
6B
100
AcDbEntity
  8
USP-GEO
100
AcDbLine
 10
0.625
 20
18.86801600224131
 30
0.0
 11
0.0
 21
18.83676600224131
 31
0.0
  0
LINE
  5
6C
100
AcDbEntity
  8
USP-GEO
100
AcDbLine
 10
0.5625
 20
18.91176600224131
 30
0.0
 11
0.0625
 21
18.88676600224131
 31
0.0
  0
LINE
  5
6D
100
AcDbEntity
  8
USP-GEO
100
AcDbLine
 10
0.625
 20
19.05551600224131
 30
0.0
 11
0.0
 21
19.02426600224131
 31
0.0
  0
LINE
  5
6E
100
AcDbEntity
  8
USP-GEO
100
AcDbLine
 10
0.625
 20
18.96176600224131
 30
0.0
 11
0.0
 21
18.93051600224131
 31
0.0
  0
LINE
  5
6F
100
AcDbEntity
  8
USP-GEO
100
AcDbLine
 10
0.5625
 20
19.00551600224131
 30
0.0
 11
0.0625
 21
18.98051600224132
 31
0.0
  0
LINE
  5
70
100
AcDbEntity
  8
USP-GEO
100
AcDbLine
 10
0.625
 20
19.05551600224131
 30
0.0
 11
0.0
 21
19.02426600224131
 31
0.0
  0
LINE
  5
71
100
AcDbEntity
  8
USP-GEO
100
AcDbLine
 10
0.5625
 20
19.09926600224132
 30
0.0
 11
0.0625
 21
19.07426600224131
 31
0.0
  0
LINE
  5
72
100
AcDbEntity
  8
USP-GEO
100
AcDbLine
 10
0.0
 20
18.64926600224131
 30
0.0
 11
0.0625
 21
18.60551600224131
 31
0.0
  0
LINE
  5
73
100
AcDbEntity
  8
USP-GEO
100
AcDbLine
 10
0.0
 20
18.55551600224131
 30
0.0
 11
0.0625
 21
18.51176600224132
 31
0.0
  0
LINE
  5
74
100
AcDbEntity
  8
USP-GEO
100
AcDbLine
 10
0.0625
 20
18.60551600224131
 30
0.0
 11
0.0
 21
18.55551600224131
 31
0.0
  0
LINE
  5
75
100
AcDbEntity
  8
USP-GEO
100
AcDbLine
 10
0.0
 20
18.27426600224131
 30
0.0
 11
0.0625
 21
18.23051600224132
 31
0.0
  0
LINE
  5
76
100
AcDbEntity
  8
USP-GEO
100
AcDbLine
 10
0.0625
 20
18.23051600224132
 30
0.0
 11
0.0
 21
18.18051600224131
 31
0.0
  0
LINE
  5
77
100
AcDbEntity
  8
USP-GEO
100
AcDbLine
 10
0.0
 20
18.36801600224131
 30
0.0
 11
0.0625
 21
18.32426600224131
 31
0.0
  0
LINE
  5
78
100
AcDbEntity
  8
USP-GEO
100
AcDbLine
 10
0.0625
 20
18.32426600224131
 30
0.0
 11
0.0
 21
18.27426600224131
 31
0.0
  0
LINE
  5
79
100
AcDbEntity
  8
USP-GEO
100
AcDbLine
 10
0.0
 20
18.46176600224131
 30
0.0
 11
0.0625
 21
18.41801600224131
 31
0.0
  0
LINE
  5
7A
100
AcDbEntity
  8
USP-GEO
100
AcDbLine
 10
0.0625
 20
18.41801600224131
 30
0.0
 11
0.0
 21
18.36801600224131
 31
0.0
  0
LINE
  5
7B
100
AcDbEntity
  8
USP-GEO
100
AcDbLine
 10
0.0625
 20
18.51176600224132
 30
0.0
 11
0.0
 21
18.46176600224131
 31
0.0
  0
LINE
  5
7C
100
AcDbEntity
  8
USP-GEO
100
AcDbLine
 10
0.0
 20
19.11801600224131
 30
0.0
 11
0.0625
 21
19.07426600224131
 31
0.0
  0
LINE
  5
7D
100
AcDbEntity
  8
USP-GEO
100
AcDbLine
 10
0.0
 20
18.74301600224131
 30
0.0
 11
0.0625
 21
18.69926600224132
 31
0.0
  0
LINE
  5
7E
100
AcDbEntity
  8
USP-GEO
100
AcDbLine
 10
0.0625
 20
18.69926600224132
 30
0.0
 11
0.0
 21
18.64926600224131
 31
0.0
  0
LINE
  5
7F
100
AcDbEntity
  8
USP-GEO
100
AcDbLine
 10
0.0
 20
18.83676600224131
 30
0.0
 11
0.0625
 21
18.79301600224131
 31
0.0
  0
LINE
  5
80
100
AcDbEntity
  8
USP-GEO
100
AcDbLine
 10
0.0625
 20
18.79301600224131
 30
0.0
 11
0.0
 21
18.74301600224131
 31
0.0
  0
LINE
  5
81
100
AcDbEntity
  8
USP-GEO
100
AcDbLine
 10
0.0
 20
18.93051600224131
 30
0.0
 11
0.0625
 21
18.88676600224131
 31
0.0
  0
LINE
  5
82
100
AcDbEntity
  8
USP-GEO
100
AcDbLine
 10
0.0625
 20
18.88676600224131
 30
0.0
 11
0.0
 21
18.83676600224131
 31
0.0
  0
LINE
  5
83
100
AcDbEntity
  8
USP-GEO
100
AcDbLine
 10
0.0
 20
19.02426600224131
 30
0.0
 11
0.0625
 21
18.98051600224132
 31
0.0
  0
LINE
  5
84
100
AcDbEntity
  8
USP-GEO
100
AcDbLine
 10
0.0625
 20
18.98051600224132
 30
0.0
 11
0.0
 21
18.93051600224131
 31
0.0
  0
LINE
  5
85
100
AcDbEntity
  8
USP-GEO
100
AcDbLine
 10
0.0625
 20
19.07426600224131
 30
0.0
 11
0.0
 21
19.02426600224131
 31
0.0
  0
LINE
  5
86
100
AcDbEntity
  8
USP-GEO
100
AcDbLine
 10
0.625
 20
18.68051600224131
 30
0.0
 11
0.5625
 21
18.63051600224132
 31
0.0
  0
LINE
  5
87
100
AcDbEntity
  8
USP-GEO
100
AcDbLine
 10
0.625
 20
18.58676600224131
 30
0.0
 11
0.5625
 21
18.53676600224131
 31
0.0
  0
LINE
  5
88
100
AcDbEntity
  8
USP-GEO
100
AcDbLine
 10
0.5625
 20
18.63051600224132
 30
0.0
 11
0.625
 21
18.58676600224131
 31
0.0
  0
LINE
  5
89
100
AcDbEntity
  8
USP-GEO
100
AcDbLine
 10
0.625
 20
18.30551600224131
 30
0.0
 11
0.5625
 21
18.25551600224131
 31
0.0
  0
LINE
  5
8A
100
AcDbEntity
  8
USP-GEO
100
AcDbLine
 10
0.5625
 20
18.25551600224131
 30
0.0
 11
0.625
 21
18.21176600224131
 31
0.0
  0
LINE
  5
8B
100
AcDbEntity
  8
USP-GEO
100
AcDbLine
 10
0.625
 20
18.39926600224131
 30
0.0
 11
0.5625
 21
18.34926600224132
 31
0.0
  0
LINE
  5
8C
100
AcDbEntity
  8
USP-GEO
100
AcDbLine
 10
0.5625
 20
18.34926600224132
 30
0.0
 11
0.625
 21
18.30551600224131
 31
0.0
  0
LINE
  5
8D
100
AcDbEntity
  8
USP-GEO
100
AcDbLine
 10
0.625
 20
18.49301600224131
 30
0.0
 11
0.5625
 21
18.44301600224131
 31
0.0
  0
LINE
  5
8E
100
AcDbEntity
  8
USP-GEO
100
AcDbLine
 10
0.5625
 20
18.44301600224131
 30
0.0
 11
0.625
 21
18.39926600224131
 31
0.0
  0
LINE
  5
8F
100
AcDbEntity
  8
USP-GEO
100
AcDbLine
 10
0.5625
 20
18.53676600224131
 30
0.0
 11
0.625
 21
18.49301600224131
 31
0.0
  0
LINE
  5
90
100
AcDbEntity
  8
USP-GEO
100
AcDbLine
 10
0.5625
 20
19.09926600224132
 30
0.0
 11
0.625
 21
19.05551600224131
 31
0.0
  0
LINE
  5
91
100
AcDbEntity
  8
USP-GEO
100
AcDbLine
 10
0.625
 20
18.77426600224131
 30
0.0
 11
0.5625
 21
18.72426600224131
 31
0.0
  0
LINE
  5
92
100
AcDbEntity
  8
USP-GEO
100
AcDbLine
 10
0.5625
 20
18.72426600224131
 30
0.0
 11
0.625
 21
18.68051600224131
 31
0.0
  0
LINE
  5
93
100
AcDbEntity
  8
USP-GEO
100
AcDbLine
 10
0.625
 20
18.86801600224131
 30
0.0
 11
0.5625
 21
18.81801600224132
 31
0.0
  0
LINE
  5
94
100
AcDbEntity
  8
USP-GEO
100
AcDbLine
 10
0.5625
 20
18.81801600224132
 30
0.0
 11
0.625
 21
18.77426600224131
 31
0.0
  0
LINE
  5
95
100
AcDbEntity
  8
USP-GEO
100
AcDbLine
 10
0.625
 20
18.96176600224131
 30
0.0
 11
0.5625
 21
18.91176600224131
 31
0.0
  0
LINE
  5
96
100
AcDbEntity
  8
USP-GEO
100
AcDbLine
 10
0.5625
 20
18.91176600224131
 30
0.0
 11
0.625
 21
18.86801600224131
 31
0.0
  0
LINE
  5
97
100
AcDbEntity
  8
USP-GEO
100
AcDbLine
 10
0.5625
 20
19.00551600224131
 30
0.0
 11
0.625
 21
18.96176600224131
 31
0.0
  0
LINE
  5
98
100
AcDbEntity
  8
USP-GEO
100
AcDbLine
 10
0.625
 20
19.05551600224131
 30
0.0
 11
0.5625
 21
19.00551600224131
 31
0.0
  0
LINE
  5
99
100
AcDbEntity
  8
USP-GEO
100
AcDbLine
 10
0.625
 20
20.08676600224132
 30
0.0
 11
0.5625
 21
20.03676600224131
 31
0.0
  0
LINE
  5
9A
100
AcDbEntity
  8
USP-GEO
100
AcDbLine
 10
0.0625
 20
20.10551600224132
 30
0.0
 11
0.0
 21
20.05551600224131
 31
0.0
  0
LINE
  5
9B
100
AcDbEntity
  8
USP-GEO
100
AcDbLine
 10
0.625
 20
20.08676600224132
 30
0.0
 11
0.0
 21
20.05551600224131
 31
0.0
  0
LINE
  5
9C
100
AcDbEntity
  8
USP-GEO
100
AcDbLine
 10
0.625
 20
20.08676600224132
 30
0.0
 11
0.0
 21
20.05551600224131
 31
0.0
  0
LINE
  5
9D
100
AcDbEntity
  8
USP-GEO
100
AcDbLine
 10
0.625
 20
19.61801600224131
 30
0.0
 11
0.0
 21
19.58676600224131
 31
0.0
  0
LINE
  5
9E
100
AcDbEntity
  8
USP-GEO
100
AcDbLine
 10
0.625
 20
19.71176600224131
 30
0.0
 11
0.0
 21
19.68051600224131
 31
0.0
  0
LINE
  5
9F
100
AcDbEntity
  8
USP-GEO
100
AcDbLine
 10
0.625
 20
19.61801600224131
 30
0.0
 11
0.0
 21
19.58676600224131
 31
0.0
  0
LINE
  5
A0
100
AcDbEntity
  8
USP-GEO
100
AcDbLine
 10
0.5625
 20
19.66176600224131
 30
0.0
 11
0.0625
 21
19.63676600224132
 31
0.0
  0
LINE
  5
A1
100
AcDbEntity
  8
USP-GEO
100
AcDbLine
 10
0.625
 20
19.80551600224131
 30
0.0
 11
0.0
 21
19.77426600224132
 31
0.0
  0
LINE
  5
A2
100
AcDbEntity
  8
USP-GEO
100
AcDbLine
 10
0.625
 20
19.71176600224131
 30
0.0
 11
0.0
 21
19.68051600224131
 31
0.0
  0
LINE
  5
A3
100
AcDbEntity
  8
USP-GEO
100
AcDbLine
 10
0.5625
 20
19.75551600224132
 30
0.0
 11
0.0625
 21
19.73051600224131
 31
0.0
  0
LINE
  5
A4
100
AcDbEntity
  8
USP-GEO
100
AcDbLine
 10
0.625
 20
19.89926600224132
 30
0.0
 11
0.0
 21
19.86801600224131
 31
0.0
  0
LINE
  5
A5
100
AcDbEntity
  8
USP-GEO
100
AcDbLine
 10
0.625
 20
19.80551600224131
 30
0.0
 11
0.0
 21
19.77426600224132
 31
0.0
  0
LINE
  5
A6
100
AcDbEntity
  8
USP-GEO
100
AcDbLine
 10
0.5625
 20
19.84926600224131
 30
0.0
 11
0.0625
 21
19.82426600224131
 31
0.0
  0
LINE
  5
A7
100
AcDbEntity
  8
USP-GEO
100
AcDbLine
 10
0.625
 20
19.99301600224131
 30
0.0
 11
0.0
 21
19.96176600224131
 31
0.0
  0
LINE
  5
A8
100
AcDbEntity
  8
USP-GEO
100
AcDbLine
 10
0.625
 20
19.89926600224132
 30
0.0
 11
0.0
 21
19.86801600224131
 31
0.0
  0
LINE
  5
A9
100
AcDbEntity
  8
USP-GEO
100
AcDbLine
 10
0.5625
 20
19.94301600224131
 30
0.0
 11
0.0625
 21
19.91801600224132
 31
0.0
  0
LINE
  5
AA
100
AcDbEntity
  8
USP-GEO
100
AcDbLine
 10
0.625
 20
19.99301600224131
 30
0.0
 11
0.0
 21
19.96176600224131
 31
0.0
  0
LINE
  5
AB
100
AcDbEntity
  8
USP-GEO
100
AcDbLine
 10
0.5625
 20
20.03676600224131
 30
0.0
 11
0.0625
 21
20.01176600224132
 31
0.0
  0
LINE
  5
AC
100
AcDbEntity
  8
USP-GEO
100
AcDbLine
 10
0.625
 20
19.24301600224131
 30
0.0
 11
0.0
 21
19.21176600224131
 31
0.0
  0
LINE
  5
AD
100
AcDbEntity
  8
USP-GEO
100
AcDbLine
 10
0.5625
 20
19.19301600224131
 30
0.0
 11
0.0625
 21
19.16801600224132
 31
0.0
  0
LINE
  5
AE
100
AcDbEntity
  8
USP-GEO
100
AcDbLine
 10
0.625
 20
19.33676600224131
 30
0.0
 11
0.0
 21
19.30551600224131
 31
0.0
  0
LINE
  5
AF
100
AcDbEntity
  8
USP-GEO
100
AcDbLine
 10
0.625
 20
19.24301600224131
 30
0.0
 11
0.0
 21
19.21176600224131
 31
0.0
  0
LINE
  5
B0
100
AcDbEntity
  8
USP-GEO
100
AcDbLine
 10
0.5625
 20
19.28676600224132
 30
0.0
 11
0.0625
 21
19.26176600224131
 31
0.0
  0
LINE
  5
B1
100
AcDbEntity
  8
USP-GEO
100
AcDbLine
 10
0.625
 20
19.43051600224131
 30
0.0
 11
0.0
 21
19.39926600224131
 31
0.0
  0
LINE
  5
B2
100
AcDbEntity
  8
USP-GEO
100
AcDbLine
 10
0.625
 20
19.33676600224131
 30
0.0
 11
0.0
 21
19.30551600224131
 31
0.0
  0
LINE
  5
B3
100
AcDbEntity
  8
USP-GEO
100
AcDbLine
 10
0.5625
 20
19.38051600224131
 30
0.0
 11
0.0625
 21
19.35551600224131
 31
0.0
  0
LINE
  5
B4
100
AcDbEntity
  8
USP-GEO
100
AcDbLine
 10
0.625
 20
19.52426600224131
 30
0.0
 11
0.0
 21
19.49301600224131
 31
0.0
  0
LINE
  5
B5
100
AcDbEntity
  8
USP-GEO
100
AcDbLine
 10
0.625
 20
19.43051600224131
 30
0.0
 11
0.0
 21
19.39926600224131
 31
0.0
  0
LINE
  5
B6
100
AcDbEntity
  8
USP-GEO
100
AcDbLine
 10
0.5625
 20
19.47426600224131
 30
0.0
 11
0.0625
 21
19.44926600224132
 31
0.0
  0
LINE
  5
B7
100
AcDbEntity
  8
USP-GEO
100
AcDbLine
 10
0.625
 20
19.52426600224131
 30
0.0
 11
0.0
 21
19.49301600224131
 31
0.0
  0
LINE
  5
B8
100
AcDbEntity
  8
USP-GEO
100
AcDbLine
 10
0.5625
 20
19.56801600224132
 30
0.0
 11
0.0625
 21
19.54301600224131
 31
0.0
  0
LINE
  5
B9
100
AcDbEntity
  8
USP-GEO
100
AcDbLine
 10
0.0625
 20
19.63676600224132
 30
0.0
 11
0.0
 21
19.58676600224131
 31
0.0
  0
LINE
  5
BA
100
AcDbEntity
  8
USP-GEO
100
AcDbLine
 10
0.0
 20
19.21176600224131
 30
0.0
 11
0.0625
 21
19.16801600224132
 31
0.0
  0
LINE
  5
BB
100
AcDbEntity
  8
USP-GEO
100
AcDbLine
 10
0.0
 20
19.30551600224131
 30
0.0
 11
0.0625
 21
19.26176600224131
 31
0.0
  0
LINE
  5
BC
100
AcDbEntity
  8
USP-GEO
100
AcDbLine
 10
0.0625
 20
19.26176600224131
 30
0.0
 11
0.0
 21
19.21176600224131
 31
0.0
  0
LINE
  5
BD
100
AcDbEntity
  8
USP-GEO
100
AcDbLine
 10
0.0
 20
19.39926600224131
 30
0.0
 11
0.0625
 21
19.35551600224131
 31
0.0
  0
LINE
  5
BE
100
AcDbEntity
  8
USP-GEO
100
AcDbLine
 10
0.0625
 20
19.35551600224131
 30
0.0
 11
0.0
 21
19.30551600224131
 31
0.0
  0
LINE
  5
BF
100
AcDbEntity
  8
USP-GEO
100
AcDbLine
 10
0.0
 20
19.49301600224131
 30
0.0
 11
0.0625
 21
19.44926600224132
 31
0.0
  0
LINE
  5
C0
100
AcDbEntity
  8
USP-GEO
100
AcDbLine
 10
0.0625
 20
19.44926600224132
 30
0.0
 11
0.0
 21
19.39926600224131
 31
0.0
  0
LINE
  5
C1
100
AcDbEntity
  8
USP-GEO
100
AcDbLine
 10
0.0625
 20
19.54301600224131
 30
0.0
 11
0.0
 21
19.49301600224131
 31
0.0
  0
LINE
  5
C2
100
AcDbEntity
  8
USP-GEO
100
AcDbLine
 10
0.0
 20
19.58676600224131
 30
0.0
 11
0.0625
 21
19.54301600224131
 31
0.0
  0
LINE
  5
C3
100
AcDbEntity
  8
USP-GEO
100
AcDbLine
 10
0.0
 20
19.68051600224131
 30
0.0
 11
0.0625
 21
19.63676600224132
 31
0.0
  0
LINE
  5
C4
100
AcDbEntity
  8
USP-GEO
100
AcDbLine
 10
0.0
 20
19.77426600224132
 30
0.0
 11
0.0625
 21
19.73051600224131
 31
0.0
  0
LINE
  5
C5
100
AcDbEntity
  8
USP-GEO
100
AcDbLine
 10
0.0625
 20
19.73051600224131
 30
0.0
 11
0.0
 21
19.68051600224131
 31
0.0
  0
LINE
  5
C6
100
AcDbEntity
  8
USP-GEO
100
AcDbLine
 10
0.0
 20
19.86801600224131
 30
0.0
 11
0.0625
 21
19.82426600224131
 31
0.0
  0
LINE
  5
C7
100
AcDbEntity
  8
USP-GEO
100
AcDbLine
 10
0.0625
 20
19.82426600224131
 30
0.0
 11
0.0
 21
19.77426600224132
 31
0.0
  0
LINE
  5
C8
100
AcDbEntity
  8
USP-GEO
100
AcDbLine
 10
0.0
 20
19.96176600224131
 30
0.0
 11
0.0625
 21
19.91801600224132
 31
0.0
  0
LINE
  5
C9
100
AcDbEntity
  8
USP-GEO
100
AcDbLine
 10
0.0625
 20
19.91801600224132
 30
0.0
 11
0.0
 21
19.86801600224131
 31
0.0
  0
LINE
  5
CA
100
AcDbEntity
  8
USP-GEO
100
AcDbLine
 10
0.0
 20
20.05551600224131
 30
0.0
 11
0.0625
 21
20.01176600224132
 31
0.0
  0
LINE
  5
CB
100
AcDbEntity
  8
USP-GEO
100
AcDbLine
 10
0.0625
 20
20.01176600224132
 30
0.0
 11
0.0
 21
19.96176600224131
 31
0.0
  0
LINE
  5
CC
100
AcDbEntity
  8
USP-GEO
100
AcDbLine
 10
0.625
 20
19.61801600224131
 30
0.0
 11
0.5625
 21
19.56801600224132
 31
0.0
  0
LINE
  5
CD
100
AcDbEntity
  8
USP-GEO
100
AcDbLine
 10
0.625
 20
19.24301600224131
 30
0.0
 11
0.5625
 21
19.19301600224131
 31
0.0
  0
LINE
  5
CE
100
AcDbEntity
  8
USP-GEO
100
AcDbLine
 10
0.5625
 20
19.19301600224131
 30
0.0
 11
0.625
 21
19.14926600224131
 31
0.0
  0
LINE
  5
CF
100
AcDbEntity
  8
USP-GEO
100
AcDbLine
 10
0.625
 20
19.33676600224131
 30
0.0
 11
0.5625
 21
19.28676600224132
 31
0.0
  0
LINE
  5
D0
100
AcDbEntity
  8
USP-GEO
100
AcDbLine
 10
0.5625
 20
19.28676600224132
 30
0.0
 11
0.625
 21
19.24301600224131
 31
0.0
  0
LINE
  5
D1
100
AcDbEntity
  8
USP-GEO
100
AcDbLine
 10
0.625
 20
19.43051600224131
 30
0.0
 11
0.5625
 21
19.38051600224131
 31
0.0
  0
LINE
  5
D2
100
AcDbEntity
  8
USP-GEO
100
AcDbLine
 10
0.5625
 20
19.38051600224131
 30
0.0
 11
0.625
 21
19.33676600224131
 31
0.0
  0
LINE
  5
D3
100
AcDbEntity
  8
USP-GEO
100
AcDbLine
 10
0.625
 20
19.52426600224131
 30
0.0
 11
0.5625
 21
19.47426600224131
 31
0.0
  0
LINE
  5
D4
100
AcDbEntity
  8
USP-GEO
100
AcDbLine
 10
0.5625
 20
19.47426600224131
 30
0.0
 11
0.625
 21
19.43051600224131
 31
0.0
  0
LINE
  5
D5
100
AcDbEntity
  8
USP-GEO
100
AcDbLine
 10
0.5625
 20
19.56801600224132
 30
0.0
 11
0.625
 21
19.52426600224131
 31
0.0
  0
LINE
  5
D6
100
AcDbEntity
  8
USP-GEO
100
AcDbLine
 10
0.625
 20
19.71176600224131
 30
0.0
 11
0.5625
 21
19.66176600224131
 31
0.0
  0
LINE
  5
D7
100
AcDbEntity
  8
USP-GEO
100
AcDbLine
 10
0.5625
 20
19.66176600224131
 30
0.0
 11
0.625
 21
19.61801600224131
 31
0.0
  0
LINE
  5
D8
100
AcDbEntity
  8
USP-GEO
100
AcDbLine
 10
0.625
 20
19.80551600224131
 30
0.0
 11
0.5625
 21
19.75551600224132
 31
0.0
  0
LINE
  5
D9
100
AcDbEntity
  8
USP-GEO
100
AcDbLine
 10
0.5625
 20
19.75551600224132
 30
0.0
 11
0.625
 21
19.71176600224131
 31
0.0
  0
LINE
  5
DA
100
AcDbEntity
  8
USP-GEO
100
AcDbLine
 10
0.625
 20
19.89926600224132
 30
0.0
 11
0.5625
 21
19.84926600224131
 31
0.0
  0
LINE
  5
DB
100
AcDbEntity
  8
USP-GEO
100
AcDbLine
 10
0.5625
 20
19.84926600224131
 30
0.0
 11
0.625
 21
19.80551600224131
 31
0.0
  0
LINE
  5
DC
100
AcDbEntity
  8
USP-GEO
100
AcDbLine
 10
0.625
 20
19.99301600224131
 30
0.0
 11
0.5625
 21
19.94301600224131
 31
0.0
  0
LINE
  5
DD
100
AcDbEntity
  8
USP-GEO
100
AcDbLine
 10
0.5625
 20
19.94301600224131
 30
0.0
 11
0.625
 21
19.89926600224132
 31
0.0
  0
LINE
  5
DE
100
AcDbEntity
  8
USP-GEO
100
AcDbLine
 10
0.5625
 20
20.03676600224131
 30
0.0
 11
0.625
 21
19.99301600224131
 31
0.0
  0
LINE
  5
DF
100
AcDbEntity
  8
USP-GEO
100
AcDbLine
 10
0.625
 20
20.18051600224131
 30
0.0
 11
0.0
 21
20.14926600224132
 31
0.0
  0
LINE
  5
E0
100
AcDbEntity
  8
USP-GEO
100
AcDbLine
 10
0.5625
 20
20.13051600224132
 30
0.0
 11
0.0625
 21
20.10551600224132
 31
0.0
  0
LINE
  5
E1
100
AcDbEntity
  8
USP-GEO
100
AcDbLine
 10
0.625
 20
20.27426600224131
 30
0.0
 11
0.0
 21
20.24301600224132
 31
0.0
  0
LINE
  5
E2
100
AcDbEntity
  8
USP-GEO
100
AcDbLine
 10
0.625
 20
20.18051600224131
 30
0.0
 11
0.0
 21
20.14926600224132
 31
0.0
  0
LINE
  5
E3
100
AcDbEntity
  8
USP-GEO
100
AcDbLine
 10
0.5625
 20
20.22426600224132
 30
0.0
 11
0.0625
 21
20.19926600224132
 31
0.0
  0
LINE
  5
E4
100
AcDbEntity
  8
USP-GEO
100
AcDbLine
 10
0.625
 20
20.36801600224131
 30
0.0
 11
0.0
 21
20.33676600224131
 31
0.0
  0
LINE
  5
E5
100
AcDbEntity
  8
USP-GEO
100
AcDbLine
 10
0.625
 20
20.27426600224131
 30
0.0
 11
0.0
 21
20.24301600224132
 31
0.0
  0
LINE
  5
E6
100
AcDbEntity
  8
USP-GEO
100
AcDbLine
 10
0.5625
 20
20.31801600224131
 30
0.0
 11
0.0625
 21
20.29301600224131
 31
0.0
  0
LINE
  5
E7
100
AcDbEntity
  8
USP-GEO
100
AcDbLine
 10
0.625
 20
20.46176600224132
 30
0.0
 11
0.0
 21
20.43051600224131
 31
0.0
  0
LINE
  5
E8
100
AcDbEntity
  8
USP-GEO
100
AcDbLine
 10
0.625
 20
20.36801600224131
 30
0.0
 11
0.0
 21
20.33676600224131
 31
0.0
  0
LINE
  5
E9
100
AcDbEntity
  8
USP-GEO
100
AcDbLine
 10
0.5625
 20
20.41176600224131
 30
0.0
 11
0.0625
 21
20.38676600224131
 31
0.0
  0
LINE
  5
EA
100
AcDbEntity
  8
USP-GEO
100
AcDbLine
 10
0.625
 20
20.55551600224132
 30
0.0
 11
0.0
 21
20.52426600224131
 31
0.0
  0
LINE
  5
EB
100
AcDbEntity
  8
USP-GEO
100
AcDbLine
 10
0.625
 20
20.46176600224132
 30
0.0
 11
0.0
 21
20.43051600224131
 31
0.0
  0
LINE
  5
EC
100
AcDbEntity
  8
USP-GEO
100
AcDbLine
 10
0.5625
 20
20.50551600224131
 30
0.0
 11
0.0625
 21
20.48051600224132
 31
0.0
  0
LINE
  5
ED
100
AcDbEntity
  8
USP-GEO
100
AcDbLine
 10
0.625
 20
20.64926600224131
 30
0.0
 11
0.0
 21
20.61801600224132
 31
0.0
  0
LINE
  5
EE
100
AcDbEntity
  8
USP-GEO
100
AcDbLine
 10
0.625
 20
20.55551600224132
 30
0.0
 11
0.0
 21
20.52426600224131
 31
0.0
  0
LINE
  5
EF
100
AcDbEntity
  8
USP-GEO
100
AcDbLine
 10
0.5625
 20
20.59926600224132
 30
0.0
 11
0.0625
 21
20.57426600224132
 31
0.0
  0
LINE
  5
F0
100
AcDbEntity
  8
USP-GEO
100
AcDbLine
 10
0.625
 20
20.74301600224131
 30
0.0
 11
0.0
 21
20.71176600224132
 31
0.0
  0
LINE
  5
F1
100
AcDbEntity
  8
USP-GEO
100
AcDbLine
 10
0.625
 20
20.64926600224131
 30
0.0
 11
0.0
 21
20.61801600224132
 31
0.0
  0
LINE
  5
F2
100
AcDbEntity
  8
USP-GEO
100
AcDbLine
 10
0.5625
 20
20.69301600224132
 30
0.0
 11
0.0625
 21
20.66801600224132
 31
0.0
  0
LINE
  5
F3
100
AcDbEntity
  8
USP-GEO
100
AcDbLine
 10
0.625
 20
20.83676600224131
 30
0.0
 11
0.0
 21
20.80551600224131
 31
0.0
  0
LINE
  5
F4
100
AcDbEntity
  8
USP-GEO
100
AcDbLine
 10
0.625
 20
20.74301600224131
 30
0.0
 11
0.0
 21
20.71176600224132
 31
0.0
  0
LINE
  5
F5
100
AcDbEntity
  8
USP-GEO
100
AcDbLine
 10
0.5625
 20
20.78676600224131
 30
0.0
 11
0.0625
 21
20.76176600224131
 31
0.0
  0
LINE
  5
F6
100
AcDbEntity
  8
USP-GEO
100
AcDbLine
 10
0.625
 20
20.93051600224132
 30
0.0
 11
0.0
 21
20.89926600224131
 31
0.0
  0
LINE
  5
F7
100
AcDbEntity
  8
USP-GEO
100
AcDbLine
 10
0.625
 20
20.83676600224131
 30
0.0
 11
0.0
 21
20.80551600224131
 31
0.0
  0
LINE
  5
F8
100
AcDbEntity
  8
USP-GEO
100
AcDbLine
 10
0.5625
 20
20.88051600224131
 30
0.0
 11
0.0625
 21
20.85551600224131
 31
0.0
  0
LINE
  5
F9
100
AcDbEntity
  8
USP-GEO
100
AcDbLine
 10
0.625
 20
21.02426600224132
 30
0.0
 11
0.0
 21
20.99301600224131
 31
0.0
  0
LINE
  5
FA
100
AcDbEntity
  8
USP-GEO
100
AcDbLine
 10
0.625
 20
20.93051600224132
 30
0.0
 11
0.0
 21
20.89926600224131
 31
0.0
  0
LINE
  5
FB
100
AcDbEntity
  8
USP-GEO
100
AcDbLine
 10
0.5625
 20
20.97426600224131
 30
0.0
 11
0.0625
 21
20.94926600224132
 31
0.0
  0
LINE
  5
FC
100
AcDbEntity
  8
USP-GEO
100
AcDbLine
 10
0.625
 20
21.02426600224132
 30
0.0
 11
0.0
 21
20.99301600224131
 31
0.0
  0
LINE
  5
FD
100
AcDbEntity
  8
USP-GEO
100
AcDbLine
 10
0.0625
 20
20.57426600224132
 30
0.0
 11
0.0
 21
20.52426600224131
 31
0.0
  0
LINE
  5
FE
100
AcDbEntity
  8
USP-GEO
100
AcDbLine
 10
0.0
 20
20.24301600224132
 30
0.0
 11
0.0625
 21
20.19926600224132
 31
0.0
  0
LINE
  5
FF
100
AcDbEntity
  8
USP-GEO
100
AcDbLine
 10
0.0625
 20
20.19926600224132
 30
0.0
 11
0.0
 21
20.14926600224132
 31
0.0
  0
LINE
  5
100
100
AcDbEntity
  8
USP-GEO
100
AcDbLine
 10
0.0
 20
20.33676600224131
 30
0.0
 11
0.0625
 21
20.29301600224131
 31
0.0
  0
LINE
  5
101
100
AcDbEntity
  8
USP-GEO
100
AcDbLine
 10
0.0625
 20
20.29301600224131
 30
0.0
 11
0.0
 21
20.24301600224132
 31
0.0
  0
LINE
  5
102
100
AcDbEntity
  8
USP-GEO
100
AcDbLine
 10
0.0
 20
20.43051600224131
 30
0.0
 11
0.0625
 21
20.38676600224131
 31
0.0
  0
LINE
  5
103
100
AcDbEntity
  8
USP-GEO
100
AcDbLine
 10
0.0625
 20
20.38676600224131
 30
0.0
 11
0.0
 21
20.33676600224131
 31
0.0
  0
LINE
  5
104
100
AcDbEntity
  8
USP-GEO
100
AcDbLine
 10
0.0
 20
20.52426600224131
 30
0.0
 11
0.0625
 21
20.48051600224132
 31
0.0
  0
LINE
  5
105
100
AcDbEntity
  8
USP-GEO
100
AcDbLine
 10
0.0625
 20
20.48051600224132
 30
0.0
 11
0.0
 21
20.43051600224131
 31
0.0
  0
LINE
  5
106
100
AcDbEntity
  8
USP-GEO
100
AcDbLine
 10
0.0
 20
20.14926600224132
 30
0.0
 11
0.0625
 21
20.10551600224132
 31
0.0
  0
LINE
  5
107
100
AcDbEntity
  8
USP-GEO
100
AcDbLine
 10
0.0
 20
20.71176600224132
 30
0.0
 11
0.0625
 21
20.66801600224132
 31
0.0
  0
LINE
  5
108
100
AcDbEntity
  8
USP-GEO
100
AcDbLine
 10
0.0
 20
20.80551600224131
 30
0.0
 11
0.0625
 21
20.76176600224131
 31
0.0
  0
LINE
  5
109
100
AcDbEntity
  8
USP-GEO
100
AcDbLine
 10
0.0625
 20
20.76176600224131
 30
0.0
 11
0.0
 21
20.71176600224132
 31
0.0
  0
LINE
  5
10A
100
AcDbEntity
  8
USP-GEO
100
AcDbLine
 10
0.0
 20
20.89926600224131
 30
0.0
 11
0.0625
 21
20.85551600224131
 31
0.0
  0
LINE
  5
10B
100
AcDbEntity
  8
USP-GEO
100
AcDbLine
 10
0.0625
 20
20.85551600224131
 30
0.0
 11
0.0
 21
20.80551600224131
 31
0.0
  0
LINE
  5
10C
100
AcDbEntity
  8
USP-GEO
100
AcDbLine
 10
0.0
 20
20.99301600224131
 30
0.0
 11
0.0625
 21
20.94926600224132
 31
0.0
  0
LINE
  5
10D
100
AcDbEntity
  8
USP-GEO
100
AcDbLine
 10
0.0625
 20
20.94926600224132
 30
0.0
 11
0.0
 21
20.89926600224131
 31
0.0
  0
LINE
  5
10E
100
AcDbEntity
  8
USP-GEO
100
AcDbLine
 10
0.0625
 20
21.04301600224132
 30
0.0
 11
0.0
 21
20.99301600224131
 31
0.0
  0
LINE
  5
10F
100
AcDbEntity
  8
USP-GEO
100
AcDbLine
 10
0.0
 20
20.61801600224132
 30
0.0
 11
0.0625
 21
20.57426600224132
 31
0.0
  0
LINE
  5
110
100
AcDbEntity
  8
USP-GEO
100
AcDbLine
 10
0.0625
 20
20.66801600224132
 30
0.0
 11
0.0
 21
20.61801600224132
 31
0.0
  0
LINE
  5
111
100
AcDbEntity
  8
USP-GEO
100
AcDbLine
 10
0.5625
 20
20.59926600224132
 30
0.0
 11
0.625
 21
20.55551600224132
 31
0.0
  0
LINE
  5
112
100
AcDbEntity
  8
USP-GEO
100
AcDbLine
 10
0.625
 20
20.18051600224131
 30
0.0
 11
0.5625
 21
20.13051600224132
 31
0.0
  0
LINE
  5
113
100
AcDbEntity
  8
USP-GEO
100
AcDbLine
 10
0.625
 20
20.27426600224131
 30
0.0
 11
0.5625
 21
20.22426600224132
 31
0.0
  0
LINE
  5
114
100
AcDbEntity
  8
USP-GEO
100
AcDbLine
 10
0.5625
 20
20.22426600224132
 30
0.0
 11
0.625
 21
20.18051600224131
 31
0.0
  0
LINE
  5
115
100
AcDbEntity
  8
USP-GEO
100
AcDbLine
 10
0.625
 20
20.36801600224131
 30
0.0
 11
0.5625
 21
20.31801600224131
 31
0.0
  0
LINE
  5
116
100
AcDbEntity
  8
USP-GEO
100
AcDbLine
 10
0.5625
 20
20.31801600224131
 30
0.0
 11
0.625
 21
20.27426600224131
 31
0.0
  0
LINE
  5
117
100
AcDbEntity
  8
USP-GEO
100
AcDbLine
 10
0.625
 20
20.46176600224132
 30
0.0
 11
0.5625
 21
20.41176600224131
 31
0.0
  0
LINE
  5
118
100
AcDbEntity
  8
USP-GEO
100
AcDbLine
 10
0.5625
 20
20.41176600224131
 30
0.0
 11
0.625
 21
20.36801600224131
 31
0.0
  0
LINE
  5
119
100
AcDbEntity
  8
USP-GEO
100
AcDbLine
 10
0.625
 20
20.55551600224132
 30
0.0
 11
0.5625
 21
20.50551600224131
 31
0.0
  0
LINE
  5
11A
100
AcDbEntity
  8
USP-GEO
100
AcDbLine
 10
0.5625
 20
20.50551600224131
 30
0.0
 11
0.625
 21
20.46176600224132
 31
0.0
  0
LINE
  5
11B
100
AcDbEntity
  8
USP-GEO
100
AcDbLine
 10
0.5625
 20
20.13051600224132
 30
0.0
 11
0.625
 21
20.08676600224132
 31
0.0
  0
LINE
  5
11C
100
AcDbEntity
  8
USP-GEO
100
AcDbLine
 10
0.625
 20
20.74301600224131
 30
0.0
 11
0.5625
 21
20.69301600224132
 31
0.0
  0
LINE
  5
11D
100
AcDbEntity
  8
USP-GEO
100
AcDbLine
 10
0.5625
 20
20.69301600224132
 30
0.0
 11
0.625
 21
20.64926600224131
 31
0.0
  0
LINE
  5
11E
100
AcDbEntity
  8
USP-GEO
100
AcDbLine
 10
0.625
 20
20.83676600224131
 30
0.0
 11
0.5625
 21
20.78676600224131
 31
0.0
  0
LINE
  5
11F
100
AcDbEntity
  8
USP-GEO
100
AcDbLine
 10
0.5625
 20
20.78676600224131
 30
0.0
 11
0.625
 21
20.74301600224131
 31
0.0
  0
LINE
  5
120
100
AcDbEntity
  8
USP-GEO
100
AcDbLine
 10
0.625
 20
20.93051600224132
 30
0.0
 11
0.5625
 21
20.88051600224131
 31
0.0
  0
LINE
  5
121
100
AcDbEntity
  8
USP-GEO
100
AcDbLine
 10
0.5625
 20
20.88051600224131
 30
0.0
 11
0.625
 21
20.83676600224131
 31
0.0
  0
LINE
  5
122
100
AcDbEntity
  8
USP-GEO
100
AcDbLine
 10
0.625
 20
21.02426600224132
 30
0.0
 11
0.5625
 21
20.97426600224131
 31
0.0
  0
LINE
  5
123
100
AcDbEntity
  8
USP-GEO
100
AcDbLine
 10
0.5625
 20
20.97426600224131
 30
0.0
 11
0.625
 21
20.93051600224132
 31
0.0
  0
LINE
  5
124
100
AcDbEntity
  8
USP-GEO
100
AcDbLine
 10
0.625
 20
20.64926600224131
 30
0.0
 11
0.5625
 21
20.59926600224132
 31
0.0
  0
LINE
  5
125
100
AcDbEntity
  8
USP-GEO
100
AcDbLine
 10
0.625
 20
21.77426600224131
 30
0.0
 11
0.0
 21
21.74301600224131
 31
0.0
  0
LINE
  5
126
100
AcDbEntity
  8
USP-GEO
100
AcDbLine
 10
0.625
 20
21.77426600224131
 30
0.0
 11
0.0
 21
21.74301600224131
 31
0.0
  0
LINE
  5
127
100
AcDbEntity
  8
USP-GEO
100
AcDbLine
 10
0.5625
 20
21.72426600224131
 30
0.0
 11
0.0625
 21
21.69926600224131
 31
0.0
  0
LINE
  5
128
100
AcDbEntity
  8
USP-GEO
100
AcDbLine
 10
0.625
 20
21.68051600224131
 30
0.0
 11
0.0
 21
21.64926600224132
 31
0.0
  0
LINE
  5
129
100
AcDbEntity
  8
USP-GEO
100
AcDbLine
 10
0.625
 20
21.68051600224131
 30
0.0
 11
0.0
 21
21.64926600224132
 31
0.0
  0
LINE
  5
12A
100
AcDbEntity
  8
USP-GEO
100
AcDbLine
 10
0.5625
 20
21.63051600224132
 30
0.0
 11
0.0625
 21
21.60551600224132
 31
0.0
  0
LINE
  5
12B
100
AcDbEntity
  8
USP-GEO
100
AcDbLine
 10
0.625
 20
21.58676600224131
 30
0.0
 11
0.0
 21
21.55551600224132
 31
0.0
  0
LINE
  5
12C
100
AcDbEntity
  8
USP-GEO
100
AcDbLine
 10
0.625
 20
21.58676600224131
 30
0.0
 11
0.0
 21
21.55551600224132
 31
0.0
  0
LINE
  5
12D
100
AcDbEntity
  8
USP-GEO
100
AcDbLine
 10
0.5625
 20
21.53676600224132
 30
0.0
 11
0.0625
 21
21.51176600224132
 31
0.0
  0
LINE
  5
12E
100
AcDbEntity
  8
USP-GEO
100
AcDbLine
 10
0.625
 20
21.49301600224132
 30
0.0
 11
0.0
 21
21.46176600224131
 31
0.0
  0
LINE
  5
12F
100
AcDbEntity
  8
USP-GEO
100
AcDbLine
 10
0.625
 20
21.49301600224132
 30
0.0
 11
0.0
 21
21.46176600224131
 31
0.0
  0
LINE
  5
130
100
AcDbEntity
  8
USP-GEO
100
AcDbLine
 10
0.5625
 20
21.44301600224131
 30
0.0
 11
0.0625
 21
21.41801600224132
 31
0.0
  0
LINE
  5
131
100
AcDbEntity
  8
USP-GEO
100
AcDbLine
 10
0.625
 20
21.39926600224132
 30
0.0
 11
0.0
 21
21.36801600224131
 31
0.0
  0
LINE
  5
132
100
AcDbEntity
  8
USP-GEO
100
AcDbLine
 10
0.625
 20
21.39926600224132
 30
0.0
 11
0.0
 21
21.36801600224131
 31
0.0
  0
LINE
  5
133
100
AcDbEntity
  8
USP-GEO
100
AcDbLine
 10
0.5625
 20
21.34926600224131
 30
0.0
 11
0.0625
 21
21.32426600224131
 31
0.0
  0
LINE
  5
134
100
AcDbEntity
  8
USP-GEO
100
AcDbLine
 10
0.625
 20
21.30551600224131
 30
0.0
 11
0.0
 21
21.27426600224131
 31
0.0
  0
LINE
  5
135
100
AcDbEntity
  8
USP-GEO
100
AcDbLine
 10
0.625
 20
21.11801600224131
 30
0.0
 11
0.0
 21
21.08676600224132
 31
0.0
  0
LINE
  5
136
100
AcDbEntity
  8
USP-GEO
100
AcDbLine
 10
0.625
 20
21.21176600224131
 30
0.0
 11
0.0
 21
21.18051600224132
 31
0.0
  0
LINE
  5
137
100
AcDbEntity
  8
USP-GEO
100
AcDbLine
 10
0.625
 20
21.11801600224131
 30
0.0
 11
0.0
 21
21.08676600224132
 31
0.0
  0
LINE
  5
138
100
AcDbEntity
  8
USP-GEO
100
AcDbLine
 10
0.5625
 20
21.16176600224132
 30
0.0
 11
0.0625
 21
21.13676600224132
 31
0.0
  0
LINE
  5
139
100
AcDbEntity
  8
USP-GEO
100
AcDbLine
 10
0.5625
 20
21.25551600224131
 30
0.0
 11
0.0625
 21
21.23051600224131
 31
0.0
  0
LINE
  5
13A
100
AcDbEntity
  8
USP-GEO
100
AcDbLine
 10
0.625
 20
21.21176600224131
 30
0.0
 11
0.0
 21
21.18051600224132
 31
0.0
  0
LINE
  5
13B
100
AcDbEntity
  8
USP-GEO
100
AcDbLine
 10
0.625
 20
21.30551600224131
 30
0.0
 11
0.0
 21
21.27426600224131
 31
0.0
  0
LINE
  5
13C
100
AcDbEntity
  8
USP-GEO
100
AcDbLine
 10
0.5708171123292872
 20
21.81219402361081
 30
0.0
 11
0.0351028266150024
 21
21.81219402361081
 31
0.0
  0
LINE
  5
13D
100
AcDbEntity
  8
USP-GEO
100
AcDbLine
 10
0.0
 20
21.55551600224132
 30
0.0
 11
0.0625
 21
21.51176600224132
 31
0.0
  0
LINE
  5
13E
100
AcDbEntity
  8
USP-GEO
100
AcDbLine
 10
0.0625
 20
21.51176600224132
 30
0.0
 11
0.0
 21
21.46176600224131
 31
0.0
  0
LINE
  5
13F
100
AcDbEntity
  8
USP-GEO
100
AcDbLine
 10
0.0625
 20
21.41801600224132
 30
0.0
 11
0.0
 21
21.36801600224131
 31
0.0
  0
LINE
  5
140
100
AcDbEntity
  8
USP-GEO
100
AcDbLine
 10
0.0
 20
21.46176600224131
 30
0.0
 11
0.0625
 21
21.41801600224132
 31
0.0
  0
LINE
  5
141
100
AcDbEntity
  8
USP-GEO
100
AcDbLine
 10
0.0625
 20
21.32426600224131
 30
0.0
 11
0.0
 21
21.27426600224131
 31
0.0
  0
LINE
  5
142
100
AcDbEntity
  8
USP-GEO
100
AcDbLine
 10
0.0
 20
21.36801600224131
 30
0.0
 11
0.0625
 21
21.32426600224131
 31
0.0
  0
LINE
  5
143
100
AcDbEntity
  8
USP-GEO
100
AcDbLine
 10
0.0
 20
21.27426600224131
 30
0.0
 11
0.0625
 21
21.23051600224131
 31
0.0
  0
LINE
  5
144
100
AcDbEntity
  8
USP-GEO
100
AcDbLine
 10
0.0
 20
21.18051600224132
 30
0.0
 11
0.0625
 21
21.13676600224132
 31
0.0
  0
LINE
  5
145
100
AcDbEntity
  8
USP-GEO
100
AcDbLine
 10
0.0625
 20
21.13676600224132
 30
0.0
 11
0.0
 21
21.08676600224132
 31
0.0
  0
LINE
  5
146
100
AcDbEntity
  8
USP-GEO
100
AcDbLine
 10
0.0625
 20
21.23051600224131
 30
0.0
 11
0.0
 21
21.18051600224132
 31
0.0
  0
LINE
  5
147
100
AcDbEntity
  8
USP-GEO
100
AcDbLine
 10
0.4460604273899591
 20
21.81219402361081
 30
0.0
 11
0.0625
 21
21.79301600224131
 31
0.0
  0
LINE
  5
148
100
AcDbEntity
  8
USP-GEO
100
AcDbLine
 10
0.0625
 20
21.79301600224131
 30
0.0
 11
0.0
 21
21.74301600224131
 31
0.0
  0
LINE
  5
149
100
AcDbEntity
  8
USP-GEO
100
AcDbLine
 10
0.0351028266150024
 20
21.81219402361081
 30
0.0
 11
0.0625
 21
21.79301600224131
 31
0.0
  0
LINE
  5
14A
100
AcDbEntity
  8
USP-GEO
100
AcDbLine
 10
0.0625
 20
21.69926600224131
 30
0.0
 11
0.0
 21
21.64926600224132
 31
0.0
  0
LINE
  5
14B
100
AcDbEntity
  8
USP-GEO
100
AcDbLine
 10
0.0625
 20
21.60551600224132
 30
0.0
 11
0.0
 21
21.55551600224132
 31
0.0
  0
LINE
  5
14C
100
AcDbEntity
  8
USP-GEO
100
AcDbLine
 10
0.0
 20
21.64926600224132
 30
0.0
 11
0.0625
 21
21.60551600224132
 31
0.0
  0
LINE
  5
14D
100
AcDbEntity
  8
USP-GEO
100
AcDbLine
 10
0.0
 20
21.74301600224131
 30
0.0
 11
0.0625
 21
21.69926600224131
 31
0.0
  0
LINE
  5
14E
100
AcDbEntity
  8
USP-GEO
100
AcDbLine
 10
0.5625
 20
21.53676600224132
 30
0.0
 11
0.625
 21
21.49301600224132
 31
0.0
  0
LINE
  5
14F
100
AcDbEntity
  8
USP-GEO
100
AcDbLine
 10
0.5625
 20
21.44301600224131
 30
0.0
 11
0.625
 21
21.39926600224132
 31
0.0
  0
LINE
  5
150
100
AcDbEntity
  8
USP-GEO
100
AcDbLine
 10
0.625
 20
21.49301600224132
 30
0.0
 11
0.5625
 21
21.44301600224131
 31
0.0
  0
LINE
  5
151
100
AcDbEntity
  8
USP-GEO
100
AcDbLine
 10
0.5625
 20
21.34926600224131
 30
0.0
 11
0.625
 21
21.30551600224131
 31
0.0
  0
LINE
  5
152
100
AcDbEntity
  8
USP-GEO
100
AcDbLine
 10
0.625
 20
21.39926600224132
 30
0.0
 11
0.5625
 21
21.34926600224131
 31
0.0
  0
LINE
  5
153
100
AcDbEntity
  8
USP-GEO
100
AcDbLine
 10
0.5625
 20
21.25551600224131
 30
0.0
 11
0.625
 21
21.21176600224131
 31
0.0
  0
LINE
  5
154
100
AcDbEntity
  8
USP-GEO
100
AcDbLine
 10
0.625
 20
21.30551600224131
 30
0.0
 11
0.5625
 21
21.25551600224131
 31
0.0
  0
LINE
  5
155
100
AcDbEntity
  8
USP-GEO
100
AcDbLine
 10
0.625
 20
21.11801600224131
 30
0.0
 11
0.5625
 21
21.06801600224132
 31
0.0
  0
LINE
  5
156
100
AcDbEntity
  8
USP-GEO
100
AcDbLine
 10
0.5625
 20
21.16176600224132
 30
0.0
 11
0.625
 21
21.11801600224131
 31
0.0
  0
LINE
  5
157
100
AcDbEntity
  8
USP-GEO
100
AcDbLine
 10
0.625
 20
21.21176600224131
 30
0.0
 11
0.5625
 21
21.16176600224132
 31
0.0
  0
LINE
  5
158
100
AcDbEntity
  8
USP-GEO
100
AcDbLine
 10
0.5708171123292872
 20
21.81219402361081
 30
0.0
 11
0.625
 21
21.77426600224131
 31
0.0
  0
LINE
  5
159
100
AcDbEntity
  8
USP-GEO
100
AcDbLine
 10
0.625
 20
21.77426600224131
 30
0.0
 11
0.5625
 21
21.72426600224131
 31
0.0
  0
LINE
  5
15A
100
AcDbEntity
  8
USP-GEO
100
AcDbLine
 10
0.5625
 20
21.63051600224132
 30
0.0
 11
0.625
 21
21.58676600224131
 31
0.0
  0
LINE
  5
15B
100
AcDbEntity
  8
USP-GEO
100
AcDbLine
 10
0.625
 20
21.68051600224131
 30
0.0
 11
0.5625
 21
21.63051600224132
 31
0.0
  0
LINE
  5
15C
100
AcDbEntity
  8
USP-GEO
100
AcDbLine
 10
0.625
 20
21.58676600224131
 30
0.0
 11
0.5625
 21
21.53676600224132
 31
0.0
  0
LINE
  5
15D
100
AcDbEntity
  8
USP-GEO
100
AcDbLine
 10
0.5625
 20
21.72426600224131
 30
0.0
 11
0.625
 21
21.68051600224131
 31
0.0
  0
ENDBLK
  5
15F
100
AcDbEntity
  8
0
100
AcDbBlockEnd
  0
ENDSEC
  0
SECTION
  2
ENTITIES
  0
INSERT
  5
3
100
AcDbEntity
  8
USP
100
AcDbBlockReference
  2
STB20_T
 10
5.363894365977153
 20
24.44542650373554
 30
0.0
  0
INSERT
  5
1A
100
AcDbEntity
  8
USP
100
AcDbBlockReference
  2
STB20_S
 10
5.387272418772991
 20
0.791515881574
 30
0.0
  0
ENDSEC
  0
SECTION
  2
OBJECTS
  0
DICTIONARY
  5
17B
102
{ACAD_XDICTIONARY
360
17C
102
}
100
AcDbDictionary
  3
ACAD_GROUP
350
178
  3
ACAD_MLINESTYLE
350
179
  0
DICTIONARY
  5
16D
100
AcDbDictionary
280
     1
  0
DICTIONARY
  5
16F
100
AcDbDictionary
280
     1
  0
DICTIONARY
  5
180
100
AcDbDictionary
280
     1
  0
DICTIONARY
  5
160
100
AcDbDictionary
280
     1
  3
ACAD_LAYOUTSELFREF
360
161
  0
DICTIONARY
  5
165
100
AcDbDictionary
280
     1
  3
ACAD_LAYOUTSELFREF
360
166
  0
DICTIONARY
  5
17C
100
AcDbDictionary
280
     1
  3
ACAD_XREC_ROUNDTRIP
360
17D
  0
DICTIONARY
  5
178
102
{ACAD_REACTORS
330
17B
102
}
100
AcDbDictionary
  0
DICTIONARY
  5
179
102
{ACAD_XDICTIONARY
360
17A
102
}
102
{ACAD_REACTORS
330
17B
102
}
100
AcDbDictionary
  3
STANDARD
350
17E
  0
XRECORD
  5
161
102
{ACAD_REACTORS
330
160
102
}
100
AcDbXrecord
340
2
  0
XRECORD
  5
166
102
{ACAD_REACTORS
330
165
102
}
100
AcDbXrecord
340
166
  0
XRECORD
  5
17D
102
{ACAD_REACTORS
330
17C
102
}
100
AcDbXrecord
102
EXTNAMES
  1
ACDBVARIABLEDICTIONARY
  2
AcDbVariableDictionary
  0
DICTIONARY
  5
17A
100
AcDbDictionary
280
     1
  0
MLINESTYLE
  5
17E
102
{ACAD_REACTORS
330
179
102
}
100
AcDbMlineStyle
  2
STANDARD
 70
     0
  3

 62
   256
 51
90.0
 52
90.0
 71
     2
 49
0.5
 62
   256
  6
BYLAYER
 49
-0.5
 62
   256
  6
BYLAYER
  0
ENDSEC
  0
EOF
