  0
SECTION
  2
HEADER
  9
$ACADVER
  1
AC1014
  9
$ACADMAINTVER
 70
     9
  9
$DWGCODEPAGE
  3
ANSI_1252
  9
$INSBASE
 10
0.0
 20
0.0
 30
0.0
  9
$EXTMIN
 10
0.0945438356159576
 20
0.0007290378802054
 30
0.0
  9
$EXTMAX
 10
23.47338610039321
 20
43.8710386777698
 30
0.0
  9
$LIMMIN
 10
0.0
 20
0.0
  9
$LIMMAX
 10
12.0
 20
9.0
  9
$ORTHOMODE
 70
     1
  9
$REGENMODE
 70
     1
  9
$FILLMODE
 70
     1
  9
$QTEXTMODE
 70
     0
  9
$MIRRTEXT
 70
     0
  9
$DRAGMODE
 70
     2
  9
$LTSCALE
 40
1.5
  9
$OSMODE
 70
     0
  9
$ATTMODE
 70
     1
  9
$TEXTSIZE
 40
0.75
  9
$TRACEWID
 40
0.05
  9
$TEXTSTYLE
  7
STANDARD
  9
$CLAYER
  8
USP
  9
$CELTYPE
  6
BYLAYER
  9
$CECOLOR
 62
   256
  9
$CELTSCALE
 40
1.0
  9
$DELOBJ
 70
     1
  9
$DISPSILH
 70
     1
  9
$DIMSCALE
 40
3.0
  9
$DIMASZ
 40
0.125
  9
$DIMEXO
 40
0.0625
  9
$DIMDLI
 40
0.37890625
  9
$DIMRND
 40
0.0
  9
$DIMDLE
 40
0.0
  9
$DIMEXE
 40
0.09375
  9
$DIMTP
 40
0.0
  9
$DIMTM
 40
0.0
  9
$DIMTXT
 40
0.109375
  9
$DIMCEN
 40
0.0
  9
$DIMTSZ
 40
0.0
  9
$DIMTOL
 70
     0
  9
$DIMLIM
 70
     0
  9
$DIMTIH
 70
     1
  9
$DIMTOH
 70
     1
  9
$DIMSE1
 70
     0
  9
$DIMSE2
 70
     0
  9
$DIMTAD
 70
     0
  9
$DIMZIN
 70
     8
  9
$DIMBLK
  1

  9
$DIMASO
 70
     1
  9
$DIMSHO
 70
     1
  9
$DIMPOST
  1

  9
$DIMAPOST
  1

  9
$DIMALT
 70
     0
  9
$DIMALTD
 70
     2
  9
$DIMALTF
 40
25.4
  9
$DIMLFAC
 40
1.0
  9
$DIMTOFL
 70
     0
  9
$DIMTVP
 40
0.0
  9
$DIMTIX
 70
     0
  9
$DIMSOXD
 70
     0
  9
$DIMSAH
 70
     0
  9
$DIMBLK1
  1

  9
$DIMBLK2
  1

  9
$DIMSTYLE
  2
STANDARD
  9
$DIMCLRD
 70
     0
  9
$DIMCLRE
 70
     0
  9
$DIMCLRT
 70
   256
  9
$DIMTFAC
 40
1.0
  9
$DIMGAP
 40
0.08984375
  9
$DIMJUST
 70
     0
  9
$DIMSD1
 70
     0
  9
$DIMSD2
 70
     0
  9
$DIMTOLJ
 70
     1
  9
$DIMTZIN
 70
     0
  9
$DIMALTZ
 70
     0
  9
$DIMALTTZ
 70
     0
  9
$DIMFIT
 70
     3
  9
$DIMUPT
 70
     1
  9
$DIMUNIT
 70
     7
  9
$DIMDEC
 70
     4
  9
$DIMTDEC
 70
     4
  9
$DIMALTU
 70
     2
  9
$DIMALTTD
 70
     2
  9
$DIMTXSTY
  7
STANDARD
  9
$DIMAUNIT
 70
     0
  9
$LUNITS
 70
     5
  9
$LUPREC
 70
     6
  9
$SKETCHINC
 40
0.1
  9
$FILLETRAD
 40
0.0
  9
$AUNITS
 70
     0
  9
$AUPREC
 70
     1
  9
$MENU
  1
CUSTOM
  9
$ELEVATION
 40
0.0
  9
$PELEVATION
 40
0.0
  9
$THICKNESS
 40
0.0
  9
$LIMCHECK
 70
     0
  9
$BLIPMODE
 70
     0
  9
$CHAMFERA
 40
0.0
  9
$CHAMFERB
 40
0.0
  9
$CHAMFERC
 40
0.0
  9
$CHAMFERD
 40
0.0
  9
$SKPOLY
 70
     0
  9
$TDCREATE
 40
2451263.663231366
  9
$TDUPDATE
 40
2452768.670544155
  9
$TDINDWG
 40
0.6234811458
  9
$TDUSRTIMER
 40
0.6234811458
  9
$USRTIMER
 70
     1
  9
$ANGBASE
 50
0.0
  9
$ANGDIR
 70
     0
  9
$PDMODE
 70
     0
  9
$PDSIZE
 40
0.0
  9
$PLINEWID
 40
0.0
  9
$COORDS
 70
     2
  9
$SPLFRAME
 70
     0
  9
$SPLINETYPE
 70
     6
  9
$SPLINESEGS
 70
     8
  9
$ATTDIA
 70
     0
  9
$ATTREQ
 70
     0
  9
$HANDLING
 70
     1
  9
$HANDSEED
  5
13D
  9
$SURFTAB1
 70
     6
  9
$SURFTAB2
 70
     6
  9
$SURFTYPE
 70
     6
  9
$SURFU
 70
     6
  9
$SURFV
 70
     6
  9
$UCSNAME
  2

  9
$UCSORG
 10
0.0
 20
0.0
 30
0.0
  9
$UCSXDIR
 10
1.0
 20
0.0
 30
0.0
  9
$UCSYDIR
 10
0.0
 20
1.0
 30
0.0
  9
$PUCSNAME
  2

  9
$PUCSORG
 10
0.0
 20
0.0
 30
0.0
  9
$PUCSXDIR
 10
1.0
 20
0.0
 30
0.0
  9
$PUCSYDIR
 10
0.0
 20
1.0
 30
0.0
  9
$USERI1
 70
     0
  9
$USERI2
 70
     0
  9
$USERI3
 70
     0
  9
$USERI4
 70
     0
  9
$USERI5
 70
     0
  9
$USERR1
 40
0.0
  9
$USERR2
 40
0.0
  9
$USERR3
 40
0.0
  9
$USERR4
 40
0.0
  9
$USERR5
 40
0.0
  9
$WORLDVIEW
 70
     1
  9
$SHADEDGE
 70
     3
  9
$SHADEDIF
 70
    70
  9
$TILEMODE
 70
     1
  9
$MAXACTVP
 70
    16
  9
$PINSBASE
 10
0.0
 20
0.0
 30
0.0
  9
$PLIMCHECK
 70
     0
  9
$PEXTMIN
 10
1.000000000000000E+20
 20
1.000000000000000E+20
 30
1.000000000000000E+20
  9
$PEXTMAX
 10
-1.000000000000000E+20
 20
-1.000000000000000E+20
 30
-1.000000000000000E+20
  9
$PLIMMIN
 10
0.0
 20
0.0
  9
$PLIMMAX
 10
12.0
 20
9.0
  9
$UNITMODE
 70
     0
  9
$VISRETAIN
 70
     0
  9
$PLINEGEN
 70
     0
  9
$PSLTSCALE
 70
     0
  9
$TREEDEPTH
 70
  3020
  9
$PICKSTYLE
 70
     0
  9
$CMLSTYLE
  2
STANDARD
  9
$CMLJUST
 70
     0
  9
$CMLSCALE
 40
1.0
  9
$PROXYGRAPHICS
 70
     1
  9
$MEASUREMENT
 70
     0
  0
ENDSEC
  0
SECTION
  2
CLASSES
  0
CLASS
  1
ACDBDICTIONARYWDFLT
  2
AcDbDictionaryWithDefault
  3
AutoCAD 2000
 90
        0
280
     0
281
     0
  0
CLASS
  1
ACDBPLACEHOLDER
  2
AcDbPlaceHolder
  3
AutoCAD 2000
 90
        0
280
     0
281
     0
  0
CLASS
  1
LAYOUT
  2
AcDbLayout
  3
AutoCAD 2000
 90
        0
280
     0
281
     0
  0
CLASS
  1
DICTIONARYVAR
  2
AcDbDictionaryVar
  3
"AutoCAD"
 90
        0
280
     0
281
     0
  0
CLASS
  1
LONG_TRANSACTION
  2
AcDbLongTransaction
  3
AutoCAD 2000
 90
        0
280
     0
281
     0
  0
CLASS
  1
LWPOLYLINE
  2
AcDbPolyline
  3
"AutoCAD"
 90
        0
280
     0
281
     1
  0
CLASS
  1
HATCH
  2
AcDbHatch
  3
"ACAD_SEDONA"
 90
        0
280
     0
281
     1
  0
CLASS
  1
XRECORD
  2
AcDbXrecord
  3
"<Built In>"
 90
        0
280
     0
281
     0
  0
CLASS
  1
LONG_TRANSACTION
  2
AcDbLongTransaction
  3
AutoCAD 2000
 90
        0
280
     0
281
     0
  0
CLASS
  1
LWPOLYLINE
  2
AcDbPolyline
  3
"AutoCAD"
 90
        0
280
     0
281
     1
  0
CLASS
  1
HATCH
  2
AcDbHatch
  3
"ACAD_SEDONA"
 90
        0
280
     0
281
     1
  0
CLASS
  1
XRECORD
  2
AcDbXrecord
  3
"<Built In>"
 90
        0
280
     0
281
     0
  0
ENDSEC
  0
SECTION
  2
TABLES
  0
TABLE
  2
VPORT
  5
12D
100
AcDbSymbolTable
 70
     1
  0
VPORT
  5
12E
100
AcDbSymbolTableRecord
100
AcDbViewportTableRecord
  2
*ACTIVE
 70
     0
 10
0.0
 20
0.0
 11
1.0
 21
1.0
 12
-6.986668925733752
 22
10.66601592497477
 13
0.0
 23
0.0
 14
1.0
 24
1.0
 15
0.0
 25
0.0
 16
0.0
 26
0.0
 36
1.0
 17
18.06596660309899
 27
8.119903606830565
 37
5.823974399722915
 40
47.47615729025928
 41
1.457627118644067
 42
50.0
 43
10.55307667737539
 44
10.55307667737539
 50
0.0
 51
0.0
 71
     0
 72
   100
 73
     1
 74
     1
 75
     0
 76
     0
 77
     0
 78
     0
  0
ENDTAB
  0
TABLE
  2
LTYPE
  5
128
100
AcDbSymbolTable
 70
     1
  0
LTYPE
  5
129
100
AcDbSymbolTableRecord
100
AcDbLinetypeTableRecord
  2
BYBLOCK
 70
     0
  3

 72
    65
 73
     0
 40
0.0
  0
LTYPE
  5
12A
100
AcDbSymbolTableRecord
100
AcDbLinetypeTableRecord
  2
BYLAYER
 70
     0
  3

 72
    65
 73
     0
 40
0.0
  0
LTYPE
  5
5
100
AcDbSymbolTableRecord
100
AcDbLinetypeTableRecord
  2
CONTINUOUS
 70
     0
  3
Solid line
 72
    65
 73
     0
 40
0.0
  0
ENDTAB
  0
TABLE
  2
LAYER
  5
126
100
AcDbSymbolTable
 70
     4
  0
LAYER
  5
4B
100
AcDbSymbolTableRecord
100
AcDbLayerTableRecord
  2
0
 70
     0
 62
     7
  6
CONTINUOUS
  0
LAYER
  5
D
102
{ACAD_XDICTIONARY
360
E
102
}
100
AcDbSymbolTableRecord
100
AcDbLayerTableRecord
  2
USP-GEO
 70
     0
 62
     7
  6
CONTINUOUS
  0
LAYER
  5
8
102
{ACAD_XDICTIONARY
360
9
102
}
100
AcDbSymbolTableRecord
100
AcDbLayerTableRecord
  2
USP-TXT
 70
     0
 62
     7
  6
CONTINUOUS
  0
LAYER
  5
4
100
AcDbSymbolTableRecord
100
AcDbLayerTableRecord
  2
USP
 70
     0
 62
     7
  6
CONTINUOUS
  0
ENDTAB
  0
TABLE
  2
STYLE
  5
127
100
AcDbSymbolTable
 70
     1
  0
STYLE
  5
B
100
AcDbSymbolTableRecord
100
AcDbTextStyleTableRecord
  2
STANDARD
 70
     0
 40
0.0
 41
1.0
 50
0.0
 71
     0
 42
0.75
  3
txt
  4

  0
ENDTAB
  0
TABLE
  2
VIEW
  5
12B
100
AcDbSymbolTable
 70
     0
  0
ENDTAB
  0
TABLE
  2
UCS
  5
12C
100
AcDbSymbolTable
 70
     0
  0
ENDTAB
  0
TABLE
  2
APPID
  5
12F
100
AcDbSymbolTable
 70
     1
  0
APPID
  5
130
100
AcDbSymbolTableRecord
100
AcDbRegAppTableRecord
  2
ACAD
 70
     0
  0
ENDTAB
  0
TABLE
  2
DIMSTYLE
  5
131
100
AcDbSymbolTable
 70
     1
  0
DIMSTYLE
105
139
100
AcDbSymbolTableRecord
100
AcDbDimStyleTableRecord
  2
STANDARD
 70
     0
  3

  4

  5

  6

  7

 40
1.0
 41
0.18
 42
0.0625
 43
0.38
 44
0.18
 45
0.0
 46
0.0
 47
0.0
 48
0.0
140
0.18
141
0.09
142
0.0
143
25.4
144
1.0
145
0.0
146
1.0
147
0.09
 71
     0
 72
     0
 73
     1
 74
     1
 75
     0
 76
     0
 77
     0
 78
     0
170
     0
171
     2
172
     0
173
     0
174
     0
175
     0
176
     0
177
     0
178
     0
270
     2
271
     4
272
     4
273
     2
274
     2
340
B
275
     0
280
     0
281
     0
282
     0
283
     1
284
     0
285
     0
286
     0
287
     3
288
     0
  0
ENDTAB
  0
TABLE
  2
BLOCK_RECORD
  5
1
100
AcDbSymbolTable
 70
     3
  0
BLOCK_RECORD
  5
2
102
{ACAD_XDICTIONARY
360
11D
102
}
100
AcDbSymbolTableRecord
100
AcDbBlockTableRecord
  2
*MODEL_SPACE
  0
BLOCK_RECORD
  5
121
102
{ACAD_XDICTIONARY
360
122
102
}
100
AcDbSymbolTableRecord
100
AcDbBlockTableRecord
  2
*PAPER_SPACE
  0
BLOCK_RECORD
  5
6
100
AcDbSymbolTableRecord
100
AcDbBlockTableRecord
  2
STAD8_T
  0
BLOCK_RECORD
  5
4E
100
AcDbSymbolTableRecord
100
AcDbBlockTableRecord
  2
STAD8_F
  0
BLOCK_RECORD
  5
E0
100
AcDbSymbolTableRecord
100
AcDbBlockTableRecord
  2
STAD8_S
  0
ENDTAB
  0
ENDSEC
  0
SECTION
  2
BLOCKS
  0
BLOCK
  5
11F
100
AcDbEntity
  8
0
100
AcDbBlockBegin
  2
*MODEL_SPACE
 70
     0
 10
0.0
 20
0.0
 30
0.0
  3
*MODEL_SPACE
  1

  0
ENDBLK
  5
120
100
AcDbEntity
  8
0
100
AcDbBlockEnd
  0
BLOCK
  5
124
100
AcDbEntity
 67
     1
  8
0
100
AcDbBlockBegin
  2
*PAPER_SPACE
 70
     0
 10
0.0
 20
0.0
 30
0.0
  3
*PAPER_SPACE
  1

  0
ENDBLK
  5
125
100
AcDbEntity
 67
     1
  8
0
100
AcDbBlockEnd
  0
BLOCK
  5
4A
100
AcDbEntity
  8
0
100
AcDbBlockBegin
  2
STAD8_T
 70
     0
 10
0.0
 20
0.0
 30
0.0
  3
STAD8_T
  1

  0
TEXT
  5
7
100
AcDbEntity
  8
USP-TXT
100
AcDbText
 10
-2.488380465944919
 20
-3.265822541746643
 30
0.0
 40
0.5
  1
STAD8 - TOP VIEW
 72
     1
 11
1.51161953405508
 21
-3.265822541746643
 31
0.0
100
AcDbText
  0
LWPOLYLINE
  5
C
100
AcDbEntity
  8
USP-GEO
100
AcDbPolyline
 90
        3
 70
   128
 43
0.0
 10
0.3940499871541121
 20
4.951894838570019
 10
2.629189080956049
 20
4.951894838570019
 10
2.629189080956049
 20
5.083244834288052
  0
LWPOLYLINE
  5
10
100
AcDbEntity
  8
USP-GEO
100
AcDbPolyline
 90
        7
 70
   128
 43
0.0
 10
3.023239068110161
 20
4.908111506664006
 10
3.023239068110161
 20
4.951894838570019
 10
2.629189080956049
 20
4.951894838570019
 10
0.3940499871541121
 20
4.951894838570019
 10
0.0
 20
4.951894838570019
 10
0.3940499871541121
 20
4.951894838570019
 10
0.3940499871541121
 20
5.083244834288052
  0
LWPOLYLINE
  5
11
100
AcDbEntity
  8
USP-GEO
100
AcDbPolyline
 90
        5
 70
   128
 43
0.0
 10
1.972439102365861
 20
2.891889072392132
 10
1.797305774741811
 20
2.716755744768079
 10
1.490822451399726
 20
2.672972412862065
 10
1.225933293368349
 20
2.716755744768079
 10
1.007016633838286
 20
2.891889072392132
  0
LWPOLYLINE
  5
12
100
AcDbEntity
  8
USP-GEO
100
AcDbPolyline
 90
        3
 70
   129
 43
0.0
 10
1.490822451399726
 20
2.629189080956052
 10
1.269716625274362
 20
2.672972412862065
 10
1.357283289086385
 20
2.629189080956052
  0
LWPOLYLINE
  5
13
100
AcDbEntity
  8
USP-GEO
100
AcDbPolyline
 90
       11
 70
   128
 43
0.0
 10
1.753522442835798
 20
3.548639050982316
 10
1.928655770459847
 20
3.679989046700356
 10
1.972439102365861
 20
3.723772378606369
 10
2.060005766177887
 20
3.811339042418389
 10
2.1037890980839
 20
3.942689038136428
 10
2.1037890980839
 20
3.986472370042442
 10
2.060005766177887
 20
4.030255701948455
 10
1.797305774741811
 20
4.076228200449769
 10
1.490822451399726
 20
4.120011532355782
 10
1.225933293368349
 20
4.076228200449769
 10
0.9632333019322736
 20
4.030255701948455
  0
LWPOLYLINE
  5
14
100
AcDbEntity
  8
USP-GEO
100
AcDbPolyline
 90
        5
 70
   128
 43
0.0
 10
1.972439102365861
 20
3.723772378606369
 10
1.797305774741811
 20
3.592422382888329
 10
1.490822451399726
 20
3.504855719076303
 10
1.225933293368349
 20
3.592422382888329
 10
1.007016633838286
 20
3.723772378606369
  0
LWPOLYLINE
  5
15
100
AcDbEntity
  8
USP-GEO
100
AcDbPolyline
 90
       15
 70
   128
 43
0.0
 10
2.062194932773188
 20
4.030255701948455
 10
2.060005766177887
 20
4.030255701948455
 10
1.928655770459847
 20
3.855122374324402
 10
1.753522442835798
 20
3.679989046700356
 10
1.490822451399726
 20
3.636205714794343
 10
1.269716625274362
 20
3.679989046700356
 10
1.094583297650309
 20
3.855122374324402
 10
0.9632333019322736
 20
4.030255701948455
 10
0.9194499700262603
 20
4.030255701948455
 10
0.9194499700262603
 20
3.986472370042442
 10
0.9194499700262603
 20
3.942689038136428
 10
0.9632333019322736
 20
3.811339042418389
 10
1.007016633838286
 20
3.723772378606369
 10
1.094583297650309
 20
3.679989046700356
 10
1.269716625274362
 20
3.548639050982316
  0
LWPOLYLINE
  5
16
100
AcDbEntity
  8
USP-GEO
100
AcDbPolyline
 90
        6
 70
   129
 43
0.0
 10
1.269716625274362
 20
3.548639050982316
 10
1.357283289086385
 20
3.504855719076303
 10
1.490822451399726
 20
3.46107238717029
 10
1.665955779023775
 20
3.504855719076303
 10
1.753522442835798
 20
3.548639050982316
 10
1.490822451399726
 20
3.504855719076303
  0
LWPOLYLINE
  5
17
100
AcDbEntity
  8
USP-GEO
100
AcDbPolyline
 90
        2
 70
   128
 43
0.0
 10
1.138366629556323
 20
1.753522442835802
 10
1.490822451399726
 20
1.753522442835802
  0
LWPOLYLINE
  5
18
100
AcDbEntity
  8
USP-GEO
100
AcDbPolyline
 90
        2
 70
   128
 43
0.0
 10
1.007016633838286
 20
0.0
 10
2.016222434271874
 20
0.0
  0
LWPOLYLINE
  5
19
100
AcDbEntity
  8
USP-GEO
100
AcDbPolyline
 90
        6
 70
   128
 43
0.0
 10
0.0
 20
0.175133327624053
 10
1.138366629556323
 20
0.175133327624053
 10
1.138366629556323
 20
0.0875666638120265
 10
1.884872438553838
 20
0.0875666638120265
 10
1.884872438553838
 20
0.175133327624053
 10
1.884872438553838
 20
1.532416616710442
  0
LWPOLYLINE
  5
1A
100
AcDbEntity
  8
USP-GEO
100
AcDbPolyline
 90
       16
 70
   128
 43
0.0
 10
1.138366629556323
 20
0.175133327624053
 10
1.138366629556323
 20
1.532416616710442
 10
1.138366629556323
 20
2.060005766177887
 10
1.182149961462336
 20
2.147572429989914
 10
1.313499957180372
 20
2.191355761895927
 10
1.490822451399726
 20
2.23513909380194
 10
1.709739110929788
 20
2.191355761895927
 10
1.841089106647824
 20
2.147572429989914
 10
1.884872438553838
 20
2.060005766177887
 10
1.884872438553838
 20
1.532416616710442
 10
2.016222434271874
 20
1.532416616710442
 10
3.023239068110161
 20
1.532416616710442
 10
3.023239068110161
 20
2.060005766177887
 10
2.979455736204151
 20
2.1037890980839
 10
2.979455736204151
 20
2.147572429989914
 10
2.891889072392125
 20
2.191355761895927
  0
LWPOLYLINE
  5
1B
100
AcDbEntity
  8
USP-GEO
100
AcDbPolyline
 90
        2
 70
   128
 43
0.0
 10
1.884872438553838
 20
1.444849952898415
 10
1.138366629556323
 20
1.444849952898415
  0
LWPOLYLINE
  5
1C
100
AcDbEntity
  8
USP-GEO
100
AcDbPolyline
 90
       16
 70
   128
 43
0.0
 10
1.753522442835798
 20
2.672972412862065
 10
1.928655770459847
 20
2.804322408580105
 10
1.972439102365861
 20
2.891889072392132
 10
2.060005766177887
 20
2.979455736204151
 10
2.1037890980839
 20
3.110805731922191
 10
2.1037890980839
 20
3.154589063828204
 10
2.060005766177887
 20
3.154589063828204
 10
2.060005766177887
 20
3.198372395734217
 10
1.928655770459847
 20
2.979455736204151
 10
1.753522442835798
 20
2.848105740486118
 10
1.490822451399726
 20
2.804322408580105
 10
1.269716625274362
 20
2.848105740486118
 10
1.094583297650309
 20
2.979455736204151
 10
0.9632333019322736
 20
3.198372395734217
 10
0.9194499700262603
 20
3.154589063828204
 10
0.9194499700262603
 20
3.110805731922191
  0
LWPOLYLINE
  5
1D
100
AcDbEntity
  8
USP-GEO
100
AcDbPolyline
 90
        5
 70
   128
 43
0.0
 10
0.9632333019322736
 20
3.198372395734217
 10
1.225933293368349
 20
3.242155727640231
 10
1.490822451399726
 20
3.242155727640231
 10
1.797305774741811
 20
3.242155727640231
 10
2.060005766177887
 20
3.198372395734217
  0
LWPOLYLINE
  5
1E
100
AcDbEntity
  8
USP-GEO
100
AcDbPolyline
 90
       24
 70
   128
 43
0.0
 10
0.0
 20
4.908111506664006
 10
0.0
 20
4.951894838570019
 10
0.0
 20
5.083244834288052
 10
0.3940499871541121
 20
5.083244834288052
 10
2.629189080956049
 20
5.083244834288052
 10
3.023239068110161
 20
5.083244834288052
 10
2.629189080956049
 20
5.083244834288052
 10
0.3940499871541121
 20
5.083244834288052
 10
0.0
 20
5.083244834288052
 10
0.0
 20
4.951894838570019
 10
0.0
 20
4.908111506664006
 10
0.0
 20
4.864328174757993
 10
0.0437833319060097
 20
4.82054484285198
 10
0.087566663812023
 20
4.776761510945966
 10
0.2626999914360724
 20
4.68919484713394
 10
0.3940499871541121
 20
4.68919484713394
 10
0.5253999828721483
 20
4.645411515227927
 10
0.6129666466841748
 20
4.601628183321913
 10
0.6129666466841748
 20
4.557844851415907
 10
0.6567499785901845
 20
4.514061519509894
 10
0.6567499785901845
 20
4.163794864261788
 10
0.6567499785901845
 20
2.147572429989914
 10
0.6567499785901845
 20
4.163794864261788
 10
0.6567499785901845
 20
4.514061519509894
  0
LWPOLYLINE
  5
1F
100
AcDbEntity
  8
USP-GEO
100
AcDbPolyline
 90
        2
 70
   129
 43
0.0
 10
0.5253999828721483
 20
2.147572429989914
 10
0.5253999828721483
 20
4.163794864261788
  0
LWPOLYLINE
  5
20
100
AcDbEntity
  8
USP-GEO
100
AcDbPolyline
 90
        7
 70
   128
 43
0.0
 10
1.138366629556323
 20
1.532416616710442
 10
1.007016633838286
 20
1.532416616710442
 10
0.0
 20
1.532416616710442
 10
0.0
 20
0.175133327624053
 10
0.0
 20
0.1313499957180397
 10
0.0
 20
0.175133327624053
 10
0.0
 20
1.532416616710442
  0
LWPOLYLINE
  5
21
100
AcDbEntity
  8
USP-GEO
100
AcDbPolyline
 90
        4
 70
   128
 43
0.0
 10
1.138366629556323
 20
0.0875666638120265
 10
1.138366629556323
 20
0.175133327624053
 10
1.138366629556323
 20
1.532416616710442
 10
1.138366629556323
 20
2.060005766177887
  0
LWPOLYLINE
  5
22
100
AcDbEntity
  8
USP-GEO
100
AcDbPolyline
 90
        2
 70
   128
 43
0.0
 10
0.0
 20
0.1313499957180397
 10
1.007016633838286
 20
0.1313499957180397
  0
LWPOLYLINE
  5
23
100
AcDbEntity
  8
USP-GEO
100
AcDbPolyline
 90
        2
 70
   129
 43
0.0
 10
1.007016633838286
 20
0.0
 10
1.007016633838286
 20
0.1313499957180397
  0
LWPOLYLINE
  5
24
100
AcDbEntity
  8
USP-GEO
100
AcDbPolyline
 90
        5
 70
   128
 43
0.0
 10
0.1313499957180362
 20
2.23513909380194
 10
0.2626999914360724
 20
2.23513909380194
 10
0.4378333190601254
 20
2.23513909380194
 10
0.4378333190601254
 20
2.497839085238013
 10
0.1313499957180362
 20
2.36648908951998
  0
LWPOLYLINE
  5
25
100
AcDbEntity
  8
USP-GEO
100
AcDbPolyline
 90
        4
 70
   129
 43
0.0
 10
0.0
 20
1.532416616710442
 10
0.0
 20
2.060005766177887
 10
0.0
 20
2.191355761895927
 10
0.0
 20
2.060005766177887
  0
LWPOLYLINE
  5
26
100
AcDbEntity
  8
USP-GEO
100
AcDbPolyline
 90
        3
 70
   128
 43
0.0
 10
0.087566663812023
 20
2.23513909380194
 10
0.2189166595300627
 20
2.23513909380194
 10
0.087566663812023
 20
2.191355761895927
  0
LWPOLYLINE
  5
27
100
AcDbEntity
  8
USP-GEO
100
AcDbPolyline
 90
        2
 70
   128
 43
0.0
 10
0.0437833319060097
 20
2.23513909380194
 10
0.0
 20
2.191355761895927
  0
LWPOLYLINE
  5
28
100
AcDbEntity
  8
USP-GEO
100
AcDbPolyline
 90
        8
 70
   128
 43
0.0
 10
0.0
 20
2.060005766177887
 10
0.0
 20
2.1037890980839
 10
0.0437833319060097
 20
2.147572429989914
 10
0.087566663812023
 20
2.191355761895927
 10
0.087566663812023
 20
2.23513909380194
 10
0.0437833319060097
 20
2.23513909380194
 10
0.0
 20
2.191355761895927
 10
0.0437833319060097
 20
2.23513909380194
  0
LWPOLYLINE
  5
29
100
AcDbEntity
  8
USP-GEO
100
AcDbPolyline
 90
        2
 70
   128
 43
0.0
 10
0.0437833319060097
 20
2.23513909380194
 10
0.0459724985013104
 20
2.23513909380194
  0
LWPOLYLINE
  5
2A
100
AcDbEntity
  8
USP-GEO
100
AcDbPolyline
 90
        4
 70
   129
 43
0.0
 10
0.0437833319060097
 20
2.23513909380194
 10
0.0437833319060097
 20
2.322705757613967
 10
0.1313499957180362
 20
2.36648908951998
 10
0.1313499957180362
 20
2.23513909380194
  0
LWPOLYLINE
  5
2B
100
AcDbEntity
  8
USP-GEO
100
AcDbPolyline
 90
        4
 70
   128
 43
0.0
 10
0.4378333190601254
 20
2.23513909380194
 10
0.4816166509661351
 20
2.191355761895927
 10
0.5253999828721483
 20
2.147572429989914
 10
0.6567499785901845
 20
2.147572429989914
  0
LWPOLYLINE
  5
2C
100
AcDbEntity
  8
USP-GEO
100
AcDbPolyline
 90
        4
 70
   128
 43
0.0
 10
0.5253999828721483
 20
2.629189080956052
 10
0.4816166509661351
 20
2.585405749050039
 10
0.4816166509661351
 20
2.541622417144026
 10
0.4378333190601254
 20
2.497839085238013
  0
LWPOLYLINE
  5
2D
100
AcDbEntity
  8
USP-GEO
100
AcDbPolyline
 90
        6
 70
   128
 43
0.0
 10
0.921639136621561
 20
3.110805731922191
 10
0.9194499700262603
 20
3.110805731922191
 10
0.9632333019322736
 20
2.979455736204151
 10
1.007016633838286
 20
2.891889072392132
 10
1.094583297650309
 20
2.804322408580105
 10
1.269716625274362
 20
2.672972412862065
  0
LWPOLYLINE
  5
2E
100
AcDbEntity
  8
USP-GEO
100
AcDbPolyline
 90
        5
 70
   128
 43
0.0
 10
0.5253999828721483
 20
4.163794864261788
 10
0.4816166509661351
 20
4.338928191885841
 10
0.4378333190601254
 20
4.514061519509894
 10
0.3064833233420856
 20
4.601628183321913
 10
0.1751333276240494
 20
4.732978179039953
  0
LWPOLYLINE
  5
2F
100
AcDbEntity
  8
USP-GEO
100
AcDbPolyline
 90
        6
 70
   128
 43
0.0
 10
0.5253999828721483
 20
4.163794864261788
 10
0.6567499785901845
 20
4.163794864261788
 10
0.6129666466841748
 20
4.382711523791854
 10
0.5253999828721483
 20
4.557844851415907
 10
0.4816166509661351
 20
4.601628183321913
 10
0.3064833233420856
 20
4.601628183321913
  0
LWPOLYLINE
  5
30
100
AcDbEntity
  8
USP-GEO
100
AcDbPolyline
 90
        2
 70
   128
 43
0.0
 10
0.4816166509661351
 20
4.601628183321913
 10
0.3940499871541121
 20
4.68919484713394
  0
LWPOLYLINE
  5
31
100
AcDbEntity
  8
USP-GEO
100
AcDbPolyline
 90
        2
 70
   128
 43
0.0
 10
0.5253999828721483
 20
4.557844851415907
 10
0.5253999828721483
 20
4.645411515227927
  0
LWPOLYLINE
  5
32
100
AcDbEntity
  8
USP-GEO
100
AcDbPolyline
 90
        2
 70
   129
 43
0.0
 10
2.497839085238013
 20
4.163794864261788
 10
2.497839085238013
 20
2.147572429989914
  0
LWPOLYLINE
  5
33
100
AcDbEntity
  8
USP-GEO
100
AcDbPolyline
 90
        5
 70
   128
 43
0.0
 10
2.497839085238013
 20
4.163794864261788
 10
2.366489089519973
 20
4.163794864261788
 10
2.366489089519973
 20
2.147572429989914
 10
2.366489089519973
 20
4.163794864261788
 10
2.366489089519973
 20
4.514061519509894
  0
LWPOLYLINE
  5
34
100
AcDbEntity
  8
USP-GEO
100
AcDbPolyline
 90
        2
 70
   128
 43
0.0
 10
3.023239068110161
 20
0.175133327624053
 10
3.023239068110161
 20
1.532416616710442
  0
LWPOLYLINE
  5
35
100
AcDbEntity
  8
USP-GEO
100
AcDbPolyline
 90
        4
 70
   128
 43
0.0
 10
1.884872438553838
 20
0.0875666638120265
 10
1.884872438553838
 20
0.175133327624053
 10
1.884872438553838
 20
1.532416616710442
 10
1.884872438553838
 20
2.060005766177887
  0
LWPOLYLINE
  5
36
100
AcDbEntity
  8
USP-GEO
100
AcDbPolyline
 90
       14
 70
   128
 43
0.0
 10
1.884872438553838
 20
0.175133327624053
 10
3.023239068110161
 20
0.175133327624053
 10
3.023239068110161
 20
0.1313499957180397
 10
3.023239068110161
 20
0.175133327624053
 10
3.023239068110161
 20
1.532416616710442
 10
3.023239068110161
 20
2.060005766177887
 10
3.023239068110161
 20
2.191355761895927
 10
2.979455736204151
 20
2.23513909380194
 10
2.935672404298138
 20
2.322705757613967
 10
2.891889072392125
 20
2.36648908951998
 10
2.585405749050035
 20
2.497839085238013
 10
2.541622417144026
 20
2.541622417144026
 10
2.497839085238013
 20
2.585405749050039
 10
2.497839085238013
 20
2.629189080956052
  0
LWPOLYLINE
  5
37
100
AcDbEntity
  8
USP-GEO
100
AcDbPolyline
 90
        2
 70
   128
 43
0.0
 10
2.016222434271874
 20
0.1313499957180397
 10
3.023239068110161
 20
0.1313499957180397
  0
LWPOLYLINE
  5
38
100
AcDbEntity
  8
USP-GEO
100
AcDbPolyline
 90
        2
 70
   129
 43
0.0
 10
2.016222434271874
 20
0.1313499957180397
 10
2.016222434271874
 20
0.0
  0
LWPOLYLINE
  5
39
100
AcDbEntity
  8
USP-GEO
100
AcDbPolyline
 90
        2
 70
   129
 43
0.0
 10
1.490822451399726
 20
1.753522442835802
 10
1.490822451399726
 20
2.23513909380194
  0
LWPOLYLINE
  5
3A
100
AcDbEntity
  8
USP-GEO
100
AcDbPolyline
 90
        3
 70
   128
 43
0.0
 10
1.884872438553838
 20
1.753522442835802
 10
1.490822451399726
 20
1.753522442835802
 10
1.490822451399726
 20
2.23513909380194
  0
LWPOLYLINE
  5
3B
100
AcDbEntity
  8
USP-GEO
100
AcDbPolyline
 90
        3
 70
   129
 43
0.0
 10
1.753522442835798
 20
2.672972412862065
 10
1.490822451399726
 20
2.629189080956052
 10
1.665955779023775
 20
2.629189080956052
  0
LWPOLYLINE
  5
3C
100
AcDbEntity
  8
USP-GEO
100
AcDbPolyline
 90
        7
 70
   128
 43
0.0
 10
2.585405749050035
 20
2.23513909380194
 10
2.760539076674088
 20
2.23513909380194
 10
2.891889072392125
 20
2.23513909380194
 10
2.804322408580098
 20
2.23513909380194
 10
2.891889072392125
 20
2.191355761895927
 10
2.891889072392125
 20
2.23513909380194
 10
2.891889072392125
 20
2.36648908951998
  0
LWPOLYLINE
  5
3D
100
AcDbEntity
  8
USP-GEO
100
AcDbPolyline
 90
        5
 70
   128
 43
0.0
 10
2.366489089519973
 20
2.147572429989914
 10
2.497839085238013
 20
2.147572429989914
 10
2.541622417144026
 20
2.191355761895927
 10
2.585405749050035
 20
2.23513909380194
 10
2.585405749050035
 20
2.497839085238013
  0
LWPOLYLINE
  5
3E
100
AcDbEntity
  8
USP-GEO
100
AcDbPolyline
 90
        2
 70
   129
 43
0.0
 10
2.979455736204151
 20
2.23513909380194
 10
2.891889072392125
 20
2.23513909380194
  0
LWPOLYLINE
  5
3F
100
AcDbEntity
  8
USP-GEO
100
AcDbPolyline
 90
        2
 70
   128
 43
0.0
 10
3.023239068110161
 20
2.060005766177887
 10
3.023239068110161
 20
2.191355761895927
  0
LWPOLYLINE
  5
40
100
AcDbEntity
  8
USP-GEO
100
AcDbPolyline
 90
        2
 70
   128
 43
0.0
 10
2.979455736204151
 20
2.23513909380194
 10
2.981644902799452
 20
2.23513909380194
  0
LWPOLYLINE
  5
41
100
AcDbEntity
  8
USP-GEO
100
AcDbPolyline
 90
        2
 70
   129
 43
0.0
 10
2.979455736204151
 20
2.23513909380194
 10
3.023239068110161
 20
2.191355761895927
  0
LWPOLYLINE
  5
42
100
AcDbEntity
  8
USP-GEO
100
AcDbPolyline
 90
        2
 70
   128
 43
0.0
 10
2.1037890980839
 20
3.986472370042442
 10
2.105978264679201
 20
3.986472370042442
  0
LWPOLYLINE
  5
43
100
AcDbEntity
  8
USP-GEO
100
AcDbPolyline
 90
        2
 70
   128
 43
0.0
 10
2.629189080956049
 20
4.951894838570019
 10
3.023239068110161
 20
4.951894838570019
  0
LWPOLYLINE
  5
44
100
AcDbEntity
  8
USP-GEO
100
AcDbPolyline
 90
        7
 70
   128
 43
0.0
 10
3.023239068110161
 20
4.951894838570019
 10
3.023239068110161
 20
4.908111506664006
 10
2.979455736204151
 20
4.864328174757993
 10
2.979455736204151
 20
4.82054484285198
 10
2.891889072392125
 20
4.776761510945966
 10
2.760539076674088
 20
4.68919484713394
 10
2.629189080956049
 20
4.68919484713394
  0
LWPOLYLINE
  5
45
100
AcDbEntity
  8
USP-GEO
100
AcDbPolyline
 90
        2
 70
   128
 43
0.0
 10
2.672972412862062
 20
4.601628183321913
 10
2.848105740486111
 20
4.732978179039953
  0
LWPOLYLINE
  5
46
100
AcDbEntity
  8
USP-GEO
100
AcDbPolyline
 90
        7
 70
   129
 43
0.0
 10
2.366489089519973
 20
4.557844851415907
 10
2.410272421425986
 20
4.601628183321913
 10
2.454055753331999
 20
4.645411515227927
 10
2.454055753331999
 20
4.557844851415907
 10
2.410272421425986
 20
4.382711523791854
 10
2.366489089519973
 20
4.163794864261788
 10
2.366489089519973
 20
4.514061519509894
  0
LWPOLYLINE
  5
47
100
AcDbEntity
  8
USP-GEO
100
AcDbPolyline
 90
        7
 70
   128
 43
0.0
 10
2.497839085238013
 20
4.163794864261788
 10
2.541622417144026
 20
4.338928191885841
 10
2.585405749050035
 20
4.514061519509894
 10
2.672972412862062
 20
4.601628183321913
 10
2.541622417144026
 20
4.601628183321913
 10
2.629189080956049
 20
4.68919484713394
 10
2.454055753331999
 20
4.645411515227927
  0
LWPOLYLINE
  5
48
100
AcDbEntity
  8
USP-GEO
100
AcDbPolyline
 90
        2
 70
   128
 43
0.0
 10
2.541622417144026
 20
4.601628183321913
 10
2.454055753331999
 20
4.557844851415907
  0
LWPOLYLINE
  5
49
100
AcDbEntity
  8
USP-GEO
100
AcDbPolyline
 90
        2
 70
   129
 43
0.0
 10
3.023239068110161
 20
5.083244834288052
 10
3.023239068110161
 20
4.951894838570019
  0
ENDBLK
  5
4C
100
AcDbEntity
  8
0
100
AcDbBlockEnd
  0
BLOCK
  5
DD
100
AcDbEntity
  8
0
100
AcDbBlockBegin
  2
STAD8_F
 70
     0
 10
0.0
 20
0.0
 30
0.0
  3
STAD8_F
  1

  0
LWPOLYLINE
  5
4F
100
AcDbEntity
  8
USP-GEO
100
AcDbPolyline
 90
        6
 70
   128
 43
0.0
 10
3.023239068110161
 20
7.714623081839398
 10
3.023239068110161
 20
29.05680821942519
 10
2.629189080956049
 20
29.45085820657931
 10
0.3940499871541121
 20
29.45085820657931
 10
0.0
 20
29.05680821942519
 10
0.0
 20
7.714623081839398
  0
LWPOLYLINE
  5
50
100
AcDbEntity
  8
USP-GEO
100
AcDbPolyline
 90
       13
 70
   128
 43
0.0
 10
0.0
 20
7.714623081839398
 10
0.0
 20
29.05680821942519
 10
0.3940499871541121
 20
29.45085820657931
 10
2.629189080956049
 20
29.45085820657931
 10
3.023239068110161
 20
29.05680821942519
 10
3.023239068110161
 20
7.714623081839398
 10
3.023239068110161
 20
7.627056418027379
 10
3.023239068110161
 20
7.539489754215352
 10
3.023239068110161
 20
7.627056418027379
 10
2.979455736204151
 20
7.495706422309339
 10
2.979455736204151
 20
7.408139758497313
 10
2.935672404298138
 20
7.320573094685286
 10
2.891889072392125
 20
7.187033932371953
  0
TEXT
  5
51
100
AcDbEntity
  8
USP-TXT
100
AcDbText
 10
-2.988380465944918
 20
-3.112405968582557
 30
0.0
 40
0.5
  1
STAD8 - FRONT VIEW
 72
     1
 11
1.51161953405508
 21
-3.112405968582557
 31
0.0
100
AcDbText
  0
LWPOLYLINE
  5
52
100
AcDbEntity
  8
USP-GEO
100
AcDbPolyline
 90
       14
 70
   128
 43
0.0
 10
0.9194499700262603
 20
3.725961545201663
 10
0.9194499700262603
 20
3.769744877107676
 10
0.9194499700262603
 20
3.813528209013689
 10
0.9194499700262603
 20
3.857311540919695
 10
1.007016633838286
 20
3.901094872825709
 10
1.094583297650309
 20
3.988661536637735
 10
1.313499957180372
 20
4.076228200449762
 10
1.490822451399726
 20
4.076228200449762
 10
1.709739110929788
 20
4.076228200449762
 10
1.928655770459847
 20
3.988661536637735
 10
1.753522442835798
 20
4.032444868543748
 10
1.490822451399726
 20
4.076228200449762
 10
1.269716625274362
 20
4.032444868543748
 10
1.094583297650309
 20
3.988661536637735
  0
LWPOLYLINE
  5
53
100
AcDbEntity
  8
USP-GEO
100
AcDbPolyline
 90
        8
 70
   128
 43
0.0
 10
2.1037890980839
 20
3.725961545201663
 10
1.972439102365861
 20
3.813528209013689
 10
1.797305774741811
 20
3.901094872825709
 10
1.490822451399726
 20
3.944878204731722
 10
1.225933293368349
 20
3.901094872825709
 10
1.007016633838286
 20
3.813528209013689
 10
0.9194499700262603
 20
3.725961545201663
 10
0.9632333019322736
 20
3.507044885671597
  0
LWPOLYLINE
  5
54
100
AcDbEntity
  8
USP-GEO
100
AcDbPolyline
 90
       11
 70
   128
 43
0.0
 10
0.9194499700262603
 20
5.654617315661511
 10
1.007016633838286
 20
5.742183979473537
 10
1.094583297650309
 20
5.78596731137955
 10
1.313499957180372
 20
5.873533975191577
 10
1.490822451399726
 20
5.873533975191577
 10
1.709739110929788
 20
5.873533975191577
 10
1.928655770459847
 20
5.78596731137955
 10
1.753522442835798
 20
5.873533975191577
 10
1.490822451399726
 20
5.873533975191577
 10
1.269716625274362
 20
5.873533975191577
 10
1.094583297650309
 20
5.78596731137955
  0
LWPOLYLINE
  5
55
100
AcDbEntity
  8
USP-GEO
100
AcDbPolyline
 90
       12
 70
   128
 43
0.0
 10
2.1037890980839
 20
5.523267319943471
 10
1.972439102365861
 20
5.654617315661511
 10
1.797305774741811
 20
5.698400647567524
 10
1.490822451399726
 20
5.742183979473537
 10
1.225933293368349
 20
5.698400647567524
 10
1.007016633838286
 20
5.654617315661511
 10
0.9194499700262603
 20
5.523267319943471
 10
0.9194499700262603
 20
5.567050651849484
 10
0.9194499700262603
 20
5.610833983755497
 10
0.9194499700262603
 20
5.654617315661511
 10
0.9632333019322736
 20
5.698400647567524
 10
0.9654224685275742
 20
5.698400647567524
  0
LWPOLYLINE
  5
56
100
AcDbEntity
  8
USP-GEO
100
AcDbPolyline
 90
        7
 70
   128
 43
0.0
 10
1.138366629556323
 20
1.403255787587696
 10
1.182149961462336
 20
1.534605783305735
 10
1.313499957180372
 20
1.665955779023775
 10
1.490822451399726
 20
1.709739110929781
 10
1.709739110929788
 20
1.665955779023775
 10
1.841089106647824
 20
1.534605783305735
 10
1.884872438553838
 20
1.403255787587696
  0
LWPOLYLINE
  5
57
100
AcDbEntity
  8
USP-GEO
100
AcDbPolyline
 90
       11
 70
   129
 43
0.0
 10
1.138366629556323
 20
0.7465058089975117
 10
1.138366629556323
 20
1.009205800433583
 10
1.138366629556323
 20
1.490822451399722
 10
1.182149961462336
 20
1.665955779023775
 10
1.313499957180372
 20
1.797305774741808
 10
1.490822451399726
 20
1.841089106647821
 10
1.709739110929788
 20
1.797305774741808
 10
1.841089106647824
 20
1.665955779023775
 10
1.884872438553838
 20
1.490822451399722
 10
1.884872438553838
 20
1.009205800433583
 10
1.884872438553838
 20
0.7465058089975117
  0
LWPOLYLINE
  5
58
100
AcDbEntity
  8
USP-GEO
100
AcDbPolyline
 90
        2
 70
   128
 43
0.0
 10
2.016222434271874
 20
0.6589391451854852
 10
1.007016633838286
 20
0.6589391451854852
  0
LWPOLYLINE
  5
59
100
AcDbEntity
  8
USP-GEO
100
AcDbPolyline
 90
        2
 70
   128
 43
0.0
 10
1.007016633838286
 20
0.0
 10
2.016222434271874
 20
0.0
  0
LWPOLYLINE
  5
5A
100
AcDbEntity
  8
USP-GEO
100
AcDbPolyline
 90
        3
 70
   128
 43
0.0
 10
3.023239068110161
 20
7.627056418027379
 10
3.023239068110161
 20
7.714623081839398
 10
0.0
 20
7.714623081839398
  0
LWPOLYLINE
  5
5B
100
AcDbEntity
  8
USP-GEO
100
AcDbPolyline
 90
       14
 70
   128
 43
0.0
 10
1.928655770459847
 20
5.78596731137955
 10
2.016222434271874
 20
5.742183979473537
 10
2.060005766177887
 20
5.654617315661511
 10
2.1037890980839
 20
5.610833983755497
 10
2.1037890980839
 20
5.567050651849484
 10
2.1037890980839
 20
5.523267319943471
 10
2.060005766177887
 20
5.348133992319425
 10
1.928655770459847
 20
5.435700656131452
 10
1.753522442835798
 20
5.479483988037465
 10
1.490822451399726
 20
5.523267319943471
 10
1.269716625274362
 20
5.479483988037465
 10
1.094583297650309
 20
5.435700656131452
 10
0.9632333019322736
 20
5.348133992319425
 10
0.9194499700262603
 20
5.523267319943471
  0
LWPOLYLINE
  5
5C
100
AcDbEntity
  8
USP-GEO
100
AcDbPolyline
 90
       11
 70
   129
 43
0.0
 10
0.9632333019322736
 20
3.507044885671597
 10
1.094583297650309
 20
3.594611549483623
 10
1.269716625274362
 20
3.682178213295649
 10
1.490822451399726
 20
3.682178213295649
 10
1.753522442835798
 20
3.682178213295649
 10
1.928655770459847
 20
3.594611549483623
 10
2.060005766177887
 20
3.507044885671597
 10
1.884872438553838
 20
3.288128226141537
 10
1.665955779023775
 20
3.156778230423498
 10
1.357283289086385
 20
3.156778230423498
 10
1.094583297650309
 20
3.288128226141537
  0
LWPOLYLINE
  5
5D
100
AcDbEntity
  8
USP-GEO
100
AcDbPolyline
 90
        6
 70
   128
 43
0.0
 10
2.060005766177887
 20
5.348133992319425
 10
1.884872438553838
 20
5.129217332789359
 10
1.665955779023775
 20
4.997867337071326
 10
1.357283289086385
 20
4.997867337071326
 10
1.094583297650309
 20
5.129217332789359
 10
0.9632333019322736
 20
5.348133992319425
  0
LWPOLYLINE
  5
5E
100
AcDbEntity
  8
USP-GEO
100
AcDbPolyline
 90
        2
 70
   129
 43
0.0
 10
0.5253999828721483
 20
2.541622417144026
 10
0.5253999828721483
 20
6.836767277123847
  0
LWPOLYLINE
  5
5F
100
AcDbEntity
  8
USP-GEO
100
AcDbPolyline
 90
       10
 70
   128
 43
0.0
 10
0.6567499785901845
 20
2.410272421425986
 10
0.6567499785901845
 20
2.541622417144026
 10
0.6567499785901845
 20
6.836767277123847
 10
0.6567499785901845
 20
2.541622417144026
 10
0.5253999828721483
 20
2.541622417144026
 10
0.4816166509661351
 20
2.410272421425986
 10
0.4378333190601254
 20
2.278922425707946
 10
0.2626999914360724
 20
2.016222434271874
 10
0.1313499957180362
 20
1.841089106647821
 10
0.087566663812023
 20
1.709739110929781
  0
LWPOLYLINE
  5
60
100
AcDbEntity
  8
USP-GEO
100
AcDbPolyline
 90
       14
 70
   128
 43
0.0
 10
0.0
 20
1.490822451399722
 10
0.0
 20
1.578389115211749
 10
0.0437833319060097
 20
1.665955779023775
 10
0.087566663812023
 20
1.753522442835794
 10
0.2189166595300627
 20
1.884872438553834
 10
0.3502666552480989
 20
1.884872438553834
 10
0.5253999828721483
 20
2.1037890980839
 10
0.6129666466841748
 20
2.19135576189592
 10
0.6129666466841748
 20
2.278922425707946
 10
0.6567499785901845
 20
2.410272421425986
 10
0.6567499785901845
 20
2.541622417144026
 10
0.6129666466841748
 20
2.366489089519973
 10
0.5253999828721483
 20
2.19135576189592
 10
0.4378333190601254
 20
2.016222434271874
  0
LWPOLYLINE
  5
61
100
AcDbEntity
  8
USP-GEO
100
AcDbPolyline
 90
        4
 70
   128
 43
0.0
 10
1.138366629556323
 20
1.009205800433583
 10
0.0
 20
1.009205800433583
 10
0.0
 20
0.8778558047155442
 10
1.007016633838286
 20
0.8778558047155442
  0
LWPOLYLINE
  5
62
100
AcDbEntity
  8
USP-GEO
100
AcDbPolyline
 90
        2
 70
   128
 43
0.0
 10
0.0
 20
0.1751333276240459
 10
1.007016633838286
 20
0.1751333276240459
  0
LWPOLYLINE
  5
63
100
AcDbEntity
  8
USP-GEO
100
AcDbPolyline
 90
        4
 70
   128
 43
0.0
 10
0.0
 20
0.8778558047155442
 10
0.0
 20
0.1751333276240459
 10
0.0
 20
0.8778558047155442
 10
0.0
 20
1.009205800433583
  0
LWPOLYLINE
  5
64
100
AcDbEntity
  8
USP-GEO
100
AcDbPolyline
 90
        2
 70
   129
 43
0.0
 10
0.0
 20
1.009205800433583
 10
0.0
 20
1.490822451399722
  0
LWPOLYLINE
  5
65
100
AcDbEntity
  8
USP-GEO
100
AcDbPolyline
 90
        2
 70
   129
 43
0.0
 10
1.007016633838286
 20
0.6589391451854852
 10
1.007016633838286
 20
0.8778558047155442
  0
LWPOLYLINE
  5
66
100
AcDbEntity
  8
USP-GEO
100
AcDbPolyline
 90
        3
 70
   128
 43
0.0
 10
1.138366629556323
 20
0.7465058089975117
 10
1.138366629556323
 20
1.009205800433583
 10
1.138366629556323
 20
1.490822451399722
  0
LWPOLYLINE
  5
67
100
AcDbEntity
  8
USP-GEO
100
AcDbPolyline
 90
        2
 70
   129
 43
0.0
 10
1.007016633838286
 20
0.0
 10
1.007016633838286
 20
0.6589391451854852
  0
LWPOLYLINE
  5
68
100
AcDbEntity
  8
USP-GEO
100
AcDbPolyline
 90
        3
 70
   128
 43
0.0
 10
0.2626999914360724
 20
2.016222434271874
 10
0.4378333190601254
 20
2.016222434271874
 10
0.3502666552480989
 20
1.884872438553834
  0
LWPOLYLINE
  5
69
100
AcDbEntity
  8
USP-GEO
100
AcDbPolyline
 90
        2
 70
   128
 43
0.0
 10
0.5253999828721483
 20
2.1037890980839
 10
0.5253999828721483
 20
2.19135576189592
  0
LWPOLYLINE
  5
6A
100
AcDbEntity
  8
USP-GEO
100
AcDbPolyline
 90
       12
 70
   129
 43
0.0
 10
0.4378333190601254
 20
8.590289719959649
 10
0.4378333190601254
 20
8.546506388053636
 10
0.4378333190601254
 20
8.502723056147623
 10
0.4816166509661351
 20
8.458939724241616
 10
0.5253999828721483
 20
8.458939724241616
 10
0.5691833147781616
 20
8.458939724241616
 10
0.5691833147781616
 20
8.502723056147623
 10
0.6129666466841748
 20
8.546506388053636
 10
0.5691833147781616
 20
8.590289719959649
 10
0.5691833147781616
 20
8.634073051865662
 10
0.5253999828721483
 20
8.634073051865662
 10
0.4816166509661351
 20
8.634073051865662
  0
LWPOLYLINE
  5
6B
100
AcDbEntity
  8
USP-GEO
100
AcDbPolyline
 90
        4
 70
   128
 43
0.0
 10
0.087566663812023
 20
7.320573094685286
 10
0.2626999914360724
 20
7.14325060046594
 10
0.3940499871541121
 20
7.14325060046594
 10
0.4816166509661351
 20
7.055683936653913
  0
LWPOLYLINE
  5
6C
100
AcDbEntity
  8
USP-GEO
100
AcDbPolyline
 90
        9
 70
   128
 43
0.0
 10
0.0437833319060097
 20
7.408139758497313
 10
0.0
 20
7.539489754215352
 10
0.0437833319060097
 20
7.408139758497313
 10
0.0437833319060097
 20
7.320573094685286
 10
0.1313499957180362
 20
7.187033932371953
 10
0.4378333190601254
 20
6.836767277123847
 10
0.4816166509661351
 20
6.792983945217834
 10
0.4816166509661351
 20
6.705417281405814
 10
0.5253999828721483
 20
6.661633949499801
  0
LWPOLYLINE
  5
6D
100
AcDbEntity
  8
USP-GEO
100
AcDbPolyline
 90
        6
 70
   128
 43
0.0
 10
0.5253999828721483
 20
6.836767277123847
 10
0.6567499785901845
 20
6.836767277123847
 10
0.6129666466841748
 20
6.88055060902986
 10
0.5253999828721483
 20
7.0119006047479
 10
0.4816166509661351
 20
7.055683936653913
 10
0.3064833233420856
 20
7.055683936653913
  0
LWPOLYLINE
  5
6E
100
AcDbEntity
  8
USP-GEO
100
AcDbPolyline
 90
        4
 70
   128
 43
0.0
 10
0.1313499957180362
 20
7.23300643087326
 10
0.3064833233420856
 20
7.055683936653913
 10
0.4378333190601254
 20
6.924333940935873
 10
0.4378333190601254
 20
6.836767277123847
  0
LWPOLYLINE
  5
6F
100
AcDbEntity
  8
USP-GEO
100
AcDbPolyline
 90
        4
 70
   129
 43
0.0
 10
0.0
 20
7.539489754215352
 10
0.0
 20
7.627056418027379
 10
0.0
 20
7.714623081839398
 10
0.0
 20
7.627056418027379
  0
LWPOLYLINE
  5
70
100
AcDbEntity
  8
USP-GEO
100
AcDbPolyline
 90
        5
 70
   128
 43
0.0
 10
0.2626999914360724
 20
7.14325060046594
 10
0.087566663812023
 20
7.320573094685286
 10
0.0437833319060097
 20
7.408139758497313
 10
0.1313499957180362
 20
7.23300643087326
 10
0.1313499957180362
 20
7.187033932371953
  0
LWPOLYLINE
  5
71
100
AcDbEntity
  8
USP-GEO
100
AcDbPolyline
 90
        5
 70
   128
 43
0.0
 10
0.0897558304073236
 20
7.320573094685286
 10
0.087566663812023
 20
7.320573094685286
 10
0.0437833319060097
 20
7.408139758497313
 10
0.0
 20
7.495706422309339
 10
0.0
 20
7.627056418027379
  0
LWPOLYLINE
  5
72
100
AcDbEntity
  8
USP-GEO
100
AcDbPolyline
 90
        2
 70
   129
 43
0.0
 10
0.0459724985013104
 20
7.408139758497313
 10
0.0437833319060097
 20
7.408139758497313
  0
LWPOLYLINE
  5
73
100
AcDbEntity
  8
USP-GEO
100
AcDbPolyline
 90
        3
 70
   128
 43
0.0
 10
0.4378333190601254
 20
6.924333940935873
 10
0.4816166509661351
 20
6.88055060902986
 10
0.5253999828721483
 20
6.836767277123847
  0
LWPOLYLINE
  5
74
100
AcDbEntity
  8
USP-GEO
100
AcDbPolyline
 90
       16
 70
   128
 43
0.0
 10
0.9194499700262603
 20
12.40381792897333
 10
1.007016633838286
 20
12.40381792897333
 10
0.9194499700262603
 20
12.40381792897333
 10
0.8756666381202471
 20
12.40381792897333
 10
0.8756666381202471
 20
12.44760126087935
 10
0.8318833062142374
 20
12.49138459278536
 10
0.8756666381202471
 20
12.53516792469137
 10
0.8756666381202471
 20
12.57895125659739
 10
0.9194499700262603
 20
12.57895125659739
 10
1.007016633838286
 20
12.57895125659739
 10
1.0507999657443
 20
12.57895125659739
 10
1.094583297650309
 20
12.53516792469137
 10
1.094583297650309
 20
12.49138459278536
 10
1.094583297650309
 20
12.44760126087935
 10
1.0507999657443
 20
12.40381792897333
 10
1.007016633838286
 20
12.40381792897333
  0
LWPOLYLINE
  5
75
100
AcDbEntity
  8
USP-GEO
100
AcDbPolyline
 90
        2
 70
   128
 43
0.0
 10
0.9194499700262603
 20
12.57895125659739
 10
1.007016633838286
 20
12.57895125659739
  0
LWPOLYLINE
  5
76
100
AcDbEntity
  8
USP-GEO
100
AcDbPolyline
 90
       14
 70
   129
 43
0.0
 10
0.4378333190601254
 20
13.93623454568377
 10
0.4378333190601254
 20
13.98001787758979
 10
0.4378333190601254
 20
14.0238012094958
 10
0.4816166509661351
 20
14.06758454140181
 10
0.5253999828721483
 20
14.06758454140181
 10
0.5691833147781616
 20
14.06758454140181
 10
0.6129666466841748
 20
14.06758454140181
 10
0.6567499785901845
 20
14.0238012094958
 10
0.6567499785901845
 20
13.98001787758979
 10
0.6567499785901845
 20
13.93623454568377
 10
0.6129666466841748
 20
13.93623454568377
 10
0.5691833147781616
 20
13.89245121377776
 10
0.5253999828721483
 20
13.89245121377776
 10
0.4816166509661351
 20
13.93623454568377
  0
LWPOLYLINE
  5
77
100
AcDbEntity
  8
USP-GEO
100
AcDbPolyline
 90
        2
 70
   128
 43
0.0
 10
0.5253999828721483
 20
14.06758454140181
 10
0.5691833147781616
 20
14.06758454140181
  0
LWPOLYLINE
  5
78
100
AcDbEntity
  8
USP-GEO
100
AcDbPolyline
 90
        2
 70
   128
 43
0.0
 10
0.5691833147781616
 20
13.89245121377776
 10
0.5253999828721483
 20
13.89245121377776
  0
LWPOLYLINE
  5
79
100
AcDbEntity
  8
USP-GEO
100
AcDbPolyline
 90
       13
 70
   129
 43
0.0
 10
0.8756666381202471
 20
15.4270569970835
 10
0.8756666381202471
 20
15.47084032898951
 10
0.8318833062142374
 20
15.51462366089553
 10
0.8756666381202471
 20
15.55840699280154
 10
0.9194499700262603
 20
15.60219032470755
 10
1.007016633838286
 20
15.60219032470755
 10
1.0507999657443
 20
15.55840699280154
 10
1.094583297650309
 20
15.55840699280154
 10
1.094583297650309
 20
15.51462366089553
 10
1.094583297650309
 20
15.47084032898951
 10
1.0507999657443
 20
15.4270569970835
 10
1.007016633838286
 20
15.4270569970835
 10
0.9194499700262603
 20
15.4270569970835
  0
LWPOLYLINE
  5
7A
100
AcDbEntity
  8
USP-GEO
100
AcDbPolyline
 90
       14
 70
   129
 43
0.0
 10
0.4378333190601254
 20
16.96166278038924
 10
0.4378333190601254
 20
17.00544611229525
 10
0.4378333190601254
 20
17.04922944420126
 10
0.4816166509661351
 20
17.09301277610728
 10
0.5253999828721483
 20
17.09301277610728
 10
0.5691833147781616
 20
17.09301277610728
 10
0.6129666466841748
 20
17.09301277610728
 10
0.6567499785901845
 20
17.04922944420126
 10
0.6567499785901845
 20
17.00544611229525
 10
0.6567499785901845
 20
16.96166278038924
 10
0.6129666466841748
 20
16.91787944848323
 10
0.5691833147781616
 20
16.91787944848323
 10
0.5253999828721483
 20
16.91787944848323
 10
0.4816166509661351
 20
16.91787944848323
  0
LWPOLYLINE
  5
7B
100
AcDbEntity
  8
USP-GEO
100
AcDbPolyline
 90
        2
 70
   128
 43
0.0
 10
0.5253999828721483
 20
17.09301277610728
 10
0.5691833147781616
 20
17.09301277610728
  0
LWPOLYLINE
  5
7C
100
AcDbEntity
  8
USP-GEO
100
AcDbPolyline
 90
        2
 70
   128
 43
0.0
 10
0.5691833147781616
 20
16.91787944848323
 10
0.5253999828721483
 20
16.91787944848323
  0
LWPOLYLINE
  5
7D
100
AcDbEntity
  8
USP-GEO
100
AcDbPolyline
 90
        2
 70
   128
 43
0.0
 10
0.8756666381202471
 20
15.55840699280154
 10
0.8778558047155478
 20
15.55840699280154
  0
LWPOLYLINE
  5
7E
100
AcDbEntity
  8
USP-GEO
100
AcDbPolyline
 90
        2
 70
   128
 43
0.0
 10
0.9194499700262603
 20
15.60219032470755
 10
1.007016633838286
 20
15.60219032470755
  0
LWPOLYLINE
  5
7F
100
AcDbEntity
  8
USP-GEO
100
AcDbPolyline
 90
        2
 70
   128
 43
0.0
 10
1.007016633838286
 20
15.4270569970835
 10
0.9194499700262603
 20
15.4270569970835
  0
LWPOLYLINE
  5
80
100
AcDbEntity
  8
USP-GEO
100
AcDbPolyline
 90
       13
 70
   129
 43
0.0
 10
0.8756666381202471
 20
18.45029606519366
 10
0.8318833062142374
 20
18.49407939709968
 10
0.8756666381202471
 20
18.53786272900569
 10
0.8756666381202471
 20
18.5816460609117
 10
0.9194499700262603
 20
18.5816460609117
 10
1.007016633838286
 20
18.5816460609117
 10
1.0507999657443
 20
18.5816460609117
 10
1.094583297650309
 20
18.53786272900569
 10
1.094583297650309
 20
18.49407939709968
 10
1.094583297650309
 20
18.45029606519366
 10
1.0507999657443
 20
18.45029606519366
 10
1.007016633838286
 20
18.40651273328765
 10
0.9194499700262603
 20
18.40651273328765
  0
LWPOLYLINE
  5
81
100
AcDbEntity
  8
USP-GEO
100
AcDbPolyline
 90
        2
 70
   128
 43
0.0
 10
0.9194499700262603
 20
18.5816460609117
 10
1.007016633838286
 20
18.5816460609117
  0
LWPOLYLINE
  5
82
100
AcDbEntity
  8
USP-GEO
100
AcDbPolyline
 90
        2
 70
   128
 43
0.0
 10
1.007016633838286
 20
18.40651273328765
 10
0.9194499700262603
 20
18.40651273328765
  0
LWPOLYLINE
  5
83
100
AcDbEntity
  8
USP-GEO
100
AcDbPolyline
 90
        2
 70
   129
 43
0.0
 10
2.497839085238013
 20
6.836767277123847
 10
2.497839085238013
 20
2.541622417144026
  0
LWPOLYLINE
  5
84
100
AcDbEntity
  8
USP-GEO
100
AcDbPolyline
 90
        4
 70
   128
 43
0.0
 10
2.497839085238013
 20
6.836767277123847
 10
2.366489089519973
 20
6.836767277123847
 10
2.366489089519973
 20
2.541622417144026
 10
2.366489089519973
 20
2.410272421425986
  0
LWPOLYLINE
  5
85
100
AcDbEntity
  8
USP-GEO
100
AcDbPolyline
 90
       12
 70
   128
 43
0.0
 10
2.454055753331999
 20
2.19135576189592
 10
2.585405749050035
 20
2.016222434271874
 10
2.672972412862062
 20
1.884872438553834
 10
2.454055753331999
 20
2.1037890980839
 10
2.410272421425986
 20
2.19135576189592
 10
2.366489089519973
 20
2.278922425707946
 10
2.366489089519973
 20
2.410272421425986
 10
2.366489089519973
 20
2.541622417144026
 10
2.366489089519973
 20
6.836767277123847
 10
2.410272421425986
 20
6.88055060902986
 10
2.454055753331999
 20
7.0119006047479
 10
2.541622417144026
 20
7.055683936653913
  0
LWPOLYLINE
  5
86
100
AcDbEntity
  8
USP-GEO
100
AcDbPolyline
 90
        6
 70
   128
 43
0.0
 10
3.023239068110161
 20
1.490822451399722
 10
2.979455736204151
 20
1.578389115211749
 10
2.979455736204151
 20
1.665955779023775
 10
2.891889072392125
 20
1.753522442835794
 10
2.804322408580098
 20
1.884872438553834
 10
2.672972412862062
 20
1.884872438553834
  0
LWPOLYLINE
  5
87
100
AcDbEntity
  8
USP-GEO
100
AcDbPolyline
 90
        4
 70
   128
 43
0.0
 10
2.016222434271874
 20
0.1751333276240459
 10
3.023239068110161
 20
0.1751333276240459
 10
3.023239068110161
 20
0.8778558047155442
 10
3.023239068110161
 20
1.009205800433583
  0
LWPOLYLINE
  5
88
100
AcDbEntity
  8
USP-GEO
100
AcDbPolyline
 90
        2
 70
   128
 43
0.0
 10
3.023239068110161
 20
1.009205800433583
 10
1.884872438553838
 20
1.009205800433583
  0
LWPOLYLINE
  5
89
100
AcDbEntity
  8
USP-GEO
100
AcDbPolyline
 90
        3
 70
   128
 43
0.0
 10
3.023239068110161
 20
0.1751333276240459
 10
3.023239068110161
 20
0.8778558047155442
 10
2.016222434271874
 20
0.8778558047155442
  0
LWPOLYLINE
  5
8A
100
AcDbEntity
  8
USP-GEO
100
AcDbPolyline
 90
        2
 70
   129
 43
0.0
 10
1.490822451399726
 20
0.7465058089975117
 10
1.490822451399726
 20
1.403255787587696
  0
LWPOLYLINE
  5
8B
100
AcDbEntity
  8
USP-GEO
100
AcDbPolyline
 90
        2
 70
   128
 43
0.0
 10
1.490822451399726
 20
0.7465058089975117
 10
1.490822451399726
 20
1.403255787587696
  0
LWPOLYLINE
  5
8C
100
AcDbEntity
  8
USP-GEO
100
AcDbPolyline
 90
        2
 70
   129
 43
0.0
 10
2.016222434271874
 20
0.8778558047155442
 10
2.016222434271874
 20
0.6589391451854852
  0
LWPOLYLINE
  5
8D
100
AcDbEntity
  8
USP-GEO
100
AcDbPolyline
 90
        3
 70
   128
 43
0.0
 10
1.884872438553838
 20
1.490822451399722
 10
1.884872438553838
 20
1.009205800433583
 10
1.884872438553838
 20
0.7465058089975117
  0
LWPOLYLINE
  5
8E
100
AcDbEntity
  8
USP-GEO
100
AcDbPolyline
 90
        2
 70
   129
 43
0.0
 10
2.016222434271874
 20
0.6589391451854852
 10
2.016222434271874
 20
0.0
  0
LWPOLYLINE
  5
8F
100
AcDbEntity
  8
USP-GEO
100
AcDbPolyline
 90
        2
 70
   128
 43
0.0
 10
3.023239068110161
 20
0.8778558047155442
 10
3.023239068110161
 20
1.009205800433583
  0
LWPOLYLINE
  5
90
100
AcDbEntity
  8
USP-GEO
100
AcDbPolyline
 90
        2
 70
   129
 43
0.0
 10
3.023239068110161
 20
1.490822451399722
 10
3.023239068110161
 20
1.009205800433583
  0
LWPOLYLINE
  5
91
100
AcDbEntity
  8
USP-GEO
100
AcDbPolyline
 90
        7
 70
   128
 43
0.0
 10
2.060005766177887
 20
3.507044885671597
 10
2.1037890980839
 20
3.725961545201663
 10
2.1037890980839
 20
3.769744877107676
 10
2.1037890980839
 20
3.813528209013689
 10
2.060005766177887
 20
3.857311540919695
 10
2.016222434271874
 20
3.901094872825709
 10
1.928655770459847
 20
3.988661536637735
  0
LWPOLYLINE
  5
92
100
AcDbEntity
  8
USP-GEO
100
AcDbPolyline
 90
        4
 70
   128
 43
0.0
 10
2.935672404298138
 20
1.709739110929781
 10
2.891889072392125
 20
1.841089106647821
 10
2.760539076674088
 20
2.016222434271874
 10
2.585405749050035
 20
2.016222434271874
  0
LWPOLYLINE
  5
93
100
AcDbEntity
  8
USP-GEO
100
AcDbPolyline
 90
        8
 70
   128
 43
0.0
 10
2.760539076674088
 20
2.016222434271874
 10
2.585405749050035
 20
2.278922425707946
 10
2.541622417144026
 20
2.410272421425986
 10
2.497839085238013
 20
2.541622417144026
 10
2.366489089519973
 20
2.541622417144026
 10
2.410272421425986
 20
2.366489089519973
 10
2.454055753331999
 20
2.19135576189592
 10
2.454055753331999
 20
2.1037890980839
  0
LWPOLYLINE
  5
94
100
AcDbEntity
  8
USP-GEO
100
AcDbPolyline
 90
       12
 70
   129
 43
0.0
 10
2.410272421425986
 20
8.546506388053636
 10
2.410272421425986
 20
8.590289719959649
 10
2.454055753331999
 20
8.634073051865662
 10
2.497839085238013
 20
8.634073051865662
 10
2.541622417144026
 20
8.634073051865662
 10
2.585405749050035
 20
8.590289719959649
 10
2.585405749050035
 20
8.546506388053636
 10
2.585405749050035
 20
8.502723056147623
 10
2.541622417144026
 20
8.458939724241616
 10
2.497839085238013
 20
8.458939724241616
 10
2.454055753331999
 20
8.458939724241616
 10
2.410272421425986
 20
8.502723056147623
  0
LWPOLYLINE
  5
95
100
AcDbEntity
  8
USP-GEO
100
AcDbPolyline
 90
        7
 70
   128
 43
0.0
 10
2.497839085238013
 20
6.836767277123847
 10
2.541622417144026
 20
6.88055060902986
 10
2.585405749050035
 20
6.924333940935873
 10
2.585405749050035
 20
6.836767277123847
 10
2.541622417144026
 20
6.792983945217834
 10
2.497839085238013
 20
6.705417281405814
 10
2.497839085238013
 20
6.661633949499801
  0
LWPOLYLINE
  5
96
100
AcDbEntity
  8
USP-GEO
100
AcDbPolyline
 90
        7
 70
   128
 43
0.0
 10
2.585405749050035
 20
6.924333940935873
 10
2.672972412862062
 20
7.055683936653913
 10
2.541622417144026
 20
7.055683936653913
 10
2.629189080956049
 20
7.14325060046594
 10
2.760539076674088
 20
7.14325060046594
 10
2.891889072392125
 20
7.320573094685286
 10
2.894078238987425
 20
7.320573094685286
  0
LWPOLYLINE
  5
97
100
AcDbEntity
  8
USP-GEO
100
AcDbPolyline
 90
        4
 70
   128
 43
0.0
 10
2.672972412862062
 20
7.055683936653913
 10
2.891889072392125
 20
7.23300643087326
 10
2.891889072392125
 20
7.187033932371953
 10
2.585405749050035
 20
6.836767277123847
  0
LWPOLYLINE
  5
98
100
AcDbEntity
  8
USP-GEO
100
AcDbPolyline
 90
        3
 70
   128
 43
0.0
 10
2.891889072392125
 20
7.320573094685286
 10
2.979455736204151
 20
7.408139758497313
 10
3.023239068110161
 20
7.539489754215352
  0
LWPOLYLINE
  5
99
100
AcDbEntity
  8
USP-GEO
100
AcDbPolyline
 90
        3
 70
   128
 43
0.0
 10
2.979455736204151
 20
7.408139758497313
 10
2.891889072392125
 20
7.320573094685286
 10
2.760539076674088
 20
7.14325060046594
  0
LWPOLYLINE
  5
9A
100
AcDbEntity
  8
USP-GEO
100
AcDbPolyline
 90
        2
 70
   128
 43
0.0
 10
2.891889072392125
 20
7.23300643087326
 10
2.979455736204151
 20
7.408139758497313
  0
LWPOLYLINE
  5
9B
100
AcDbEntity
  8
USP-GEO
100
AcDbPolyline
 90
        2
 70
   129
 43
0.0
 10
2.979455736204151
 20
7.408139758497313
 10
3.023239068110161
 20
7.539489754215352
  0
LWPOLYLINE
  5
9C
100
AcDbEntity
  8
USP-GEO
100
AcDbPolyline
 90
       15
 70
   128
 43
0.0
 10
2.14757242998991
 20
13.93623454568377
 10
2.191355761895923
 20
13.98001787758979
 10
2.14757242998991
 20
14.0238012094958
 10
2.14757242998991
 20
14.06758454140181
 10
2.1037890980839
 20
14.06758454140181
 10
2.016222434271874
 20
14.06758454140181
 10
1.972439102365861
 20
14.06758454140181
 10
1.928655770459847
 20
14.0238012094958
 10
1.928655770459847
 20
13.98001787758979
 10
1.928655770459847
 20
13.93623454568377
 10
1.972439102365861
 20
13.93623454568377
 10
2.016222434271874
 20
13.89245121377776
 10
2.1037890980839
 20
13.89245121377776
 10
2.14757242998991
 20
13.93623454568377
 10
2.149761596585211
 20
13.93623454568377
  0
LWPOLYLINE
  5
9D
100
AcDbEntity
  8
USP-GEO
100
AcDbPolyline
 90
        2
 70
   128
 43
0.0
 10
2.016222434271874
 20
14.06758454140181
 10
2.1037890980839
 20
14.06758454140181
  0
LWPOLYLINE
  5
9E
100
AcDbEntity
  8
USP-GEO
100
AcDbPolyline
 90
        2
 70
   128
 43
0.0
 10
2.1037890980839
 20
13.89245121377776
 10
2.016222434271874
 20
13.89245121377776
  0
LWPOLYLINE
  5
9F
100
AcDbEntity
  8
USP-GEO
100
AcDbPolyline
 90
       14
 70
   129
 43
0.0
 10
2.366489089519973
 20
12.49138459278536
 10
2.366489089519973
 20
12.53516792469137
 10
2.366489089519973
 20
12.57895125659739
 10
2.410272421425986
 20
12.57895125659739
 10
2.497839085238013
 20
12.57895125659739
 10
2.541622417144026
 20
12.57895125659739
 10
2.585405749050035
 20
12.53516792469137
 10
2.585405749050035
 20
12.49138459278536
 10
2.585405749050035
 20
12.44760126087935
 10
2.541622417144026
 20
12.40381792897333
 10
2.497839085238013
 20
12.40381792897333
 10
2.410272421425986
 20
12.40381792897333
 10
2.366489089519973
 20
12.40381792897333
 10
2.366489089519973
 20
12.44760126087935
  0
LWPOLYLINE
  5
A0
100
AcDbEntity
  8
USP-GEO
100
AcDbPolyline
 90
        2
 70
   128
 43
0.0
 10
2.410272421425986
 20
12.57895125659739
 10
2.497839085238013
 20
12.57895125659739
  0
LWPOLYLINE
  5
A1
100
AcDbEntity
  8
USP-GEO
100
AcDbPolyline
 90
        2
 70
   128
 43
0.0
 10
2.497839085238013
 20
12.40381792897333
 10
2.410272421425986
 20
12.40381792897333
  0
LWPOLYLINE
  5
A2
100
AcDbEntity
  8
USP-GEO
100
AcDbPolyline
 90
       14
 70
   129
 43
0.0
 10
1.928655770459847
 20
16.96166278038924
 10
1.928655770459847
 20
17.00544611229525
 10
1.928655770459847
 20
17.04922944420126
 10
1.972439102365861
 20
17.09301277610728
 10
2.016222434271874
 20
17.09301277610728
 10
2.1037890980839
 20
17.09301277610728
 10
2.14757242998991
 20
17.09301277610728
 10
2.14757242998991
 20
17.04922944420126
 10
2.191355761895923
 20
17.00544611229525
 10
2.14757242998991
 20
16.96166278038924
 10
2.14757242998991
 20
16.91787944848323
 10
2.1037890980839
 20
16.91787944848323
 10
2.016222434271874
 20
16.91787944848323
 10
1.972439102365861
 20
16.91787944848323
  0
LWPOLYLINE
  5
A3
100
AcDbEntity
  8
USP-GEO
100
AcDbPolyline
 90
        2
 70
   128
 43
0.0
 10
2.016222434271874
 20
17.09301277610728
 10
2.1037890980839
 20
17.09301277610728
  0
LWPOLYLINE
  5
A4
100
AcDbEntity
  8
USP-GEO
100
AcDbPolyline
 90
        2
 70
   128
 43
0.0
 10
2.1037890980839
 20
16.91787944848323
 10
2.016222434271874
 20
16.91787944848323
  0
LWPOLYLINE
  5
A5
100
AcDbEntity
  8
USP-GEO
100
AcDbPolyline
 90
       13
 70
   129
 43
0.0
 10
2.366489089519973
 20
15.4270569970835
 10
2.366489089519973
 20
15.47084032898951
 10
2.366489089519973
 20
15.51462366089553
 10
2.366489089519973
 20
15.55840699280154
 10
2.410272421425986
 20
15.60219032470755
 10
2.497839085238013
 20
15.60219032470755
 10
2.541622417144026
 20
15.55840699280154
 10
2.585405749050035
 20
15.55840699280154
 10
2.585405749050035
 20
15.51462366089553
 10
2.585405749050035
 20
15.47084032898951
 10
2.541622417144026
 20
15.4270569970835
 10
2.497839085238013
 20
15.4270569970835
 10
2.410272421425986
 20
15.4270569970835
  0
LWPOLYLINE
  5
A6
100
AcDbEntity
  8
USP-GEO
100
AcDbPolyline
 90
        2
 70
   128
 43
0.0
 10
2.410272421425986
 20
15.60219032470755
 10
2.497839085238013
 20
15.60219032470755
  0
LWPOLYLINE
  5
A7
100
AcDbEntity
  8
USP-GEO
100
AcDbPolyline
 90
        2
 70
   128
 43
0.0
 10
2.497839085238013
 20
15.4270569970835
 10
2.410272421425986
 20
15.4270569970835
  0
LWPOLYLINE
  5
A8
100
AcDbEntity
  8
USP-GEO
100
AcDbPolyline
 90
        2
 70
   128
 43
0.0
 10
2.366489089519973
 20
15.55840699280154
 10
2.368678256115273
 20
15.55840699280154
  0
LWPOLYLINE
  5
A9
100
AcDbEntity
  8
USP-GEO
100
AcDbPolyline
 90
       13
 70
   129
 43
0.0
 10
2.366489089519973
 20
18.45029606519366
 10
2.366489089519973
 20
18.49407939709968
 10
2.366489089519973
 20
18.53786272900569
 10
2.366489089519973
 20
18.5816460609117
 10
2.410272421425986
 20
18.5816460609117
 10
2.497839085238013
 20
18.5816460609117
 10
2.541622417144026
 20
18.5816460609117
 10
2.585405749050035
 20
18.53786272900569
 10
2.585405749050035
 20
18.49407939709968
 10
2.585405749050035
 20
18.45029606519366
 10
2.541622417144026
 20
18.45029606519366
 10
2.497839085238013
 20
18.40651273328765
 10
2.410272421425986
 20
18.40651273328765
  0
LWPOLYLINE
  5
AA
100
AcDbEntity
  8
USP-GEO
100
AcDbPolyline
 90
        2
 70
   128
 43
0.0
 10
2.410272421425986
 20
18.5816460609117
 10
2.497839085238013
 20
18.5816460609117
  0
LWPOLYLINE
  5
AB
100
AcDbEntity
  8
USP-GEO
100
AcDbPolyline
 90
        2
 70
   128
 43
0.0
 10
2.497839085238013
 20
18.40651273328765
 10
2.410272421425986
 20
18.40651273328765
  0
LWPOLYLINE
  5
AC
100
AcDbEntity
  8
USP-GEO
100
AcDbPolyline
 90
       14
 70
   129
 43
0.0
 10
0.4378333190601254
 20
19.94111851659339
 10
0.4378333190601254
 20
19.98490184849941
 10
0.4378333190601254
 20
20.02868518040541
 10
0.4816166509661351
 20
20.07246851231143
 10
0.5253999828721483
 20
20.07246851231143
 10
0.5691833147781616
 20
20.07246851231143
 10
0.6129666466841748
 20
20.07246851231143
 10
0.6567499785901845
 20
20.02868518040541
 10
0.6567499785901845
 20
19.98490184849941
 10
0.6567499785901845
 20
19.94111851659339
 10
0.6129666466841748
 20
19.94111851659339
 10
0.5691833147781616
 20
19.94111851659339
 10
0.5253999828721483
 20
19.94111851659339
 10
0.4816166509661351
 20
19.94111851659339
  0
LWPOLYLINE
  5
AD
100
AcDbEntity
  8
USP-GEO
100
AcDbPolyline
 90
        2
 70
   128
 43
0.0
 10
0.5253999828721483
 20
20.07246851231143
 10
0.5691833147781616
 20
20.07246851231143
  0
LWPOLYLINE
  5
AE
100
AcDbEntity
  8
USP-GEO
100
AcDbPolyline
 90
        2
 70
   128
 43
0.0
 10
0.5691833147781616
 20
19.94111851659339
 10
0.5253999828721483
 20
19.94111851659339
  0
LWPOLYLINE
  5
AF
100
AcDbEntity
  8
USP-GEO
100
AcDbPolyline
 90
       13
 70
   129
 43
0.0
 10
0.8756666381202471
 20
21.43194096799312
 10
0.8756666381202471
 20
21.47572429989913
 10
0.8318833062142374
 20
21.51950763180514
 10
0.8756666381202471
 20
21.56329096371115
 10
0.9194499700262603
 20
21.60707429561717
 10
1.007016633838286
 20
21.60707429561717
 10
1.0507999657443
 20
21.56329096371115
 10
1.094583297650309
 20
21.56329096371115
 10
1.094583297650309
 20
21.51950763180514
 10
1.094583297650309
 20
21.47572429989913
 10
1.0507999657443
 20
21.43194096799312
 10
1.007016633838286
 20
21.43194096799312
 10
0.9194499700262603
 20
21.43194096799312
  0
LWPOLYLINE
  5
B0
100
AcDbEntity
  8
USP-GEO
100
AcDbPolyline
 90
        2
 70
   128
 43
0.0
 10
0.8756666381202471
 20
21.56329096371115
 10
0.8778558047155478
 20
21.56329096371115
  0
LWPOLYLINE
  5
B1
100
AcDbEntity
  8
USP-GEO
100
AcDbPolyline
 90
        2
 70
   128
 43
0.0
 10
0.9194499700262603
 20
21.60707429561717
 10
1.007016633838286
 20
21.60707429561717
  0
LWPOLYLINE
  5
B2
100
AcDbEntity
  8
USP-GEO
100
AcDbPolyline
 90
        2
 70
   128
 43
0.0
 10
1.007016633838286
 20
21.43194096799312
 10
0.9194499700262603
 20
21.43194096799312
  0
LWPOLYLINE
  5
B3
100
AcDbEntity
  8
USP-GEO
100
AcDbPolyline
 90
       14
 70
   129
 43
0.0
 10
0.4378333190601254
 20
22.96435758470356
 10
0.4378333190601254
 20
23.00814091660956
 10
0.4378333190601254
 20
23.05192424851558
 10
0.4816166509661351
 20
23.09570758042159
 10
0.5253999828721483
 20
23.09570758042159
 10
0.5691833147781616
 20
23.09570758042159
 10
0.6129666466841748
 20
23.09570758042159
 10
0.6567499785901845
 20
23.05192424851558
 10
0.6567499785901845
 20
23.00814091660956
 10
0.6567499785901845
 20
22.96435758470356
 10
0.6129666466841748
 20
22.92057425279754
 10
0.5691833147781616
 20
22.92057425279754
 10
0.5253999828721483
 20
22.92057425279754
 10
0.4816166509661351
 20
22.92057425279754
  0
LWPOLYLINE
  5
B4
100
AcDbEntity
  8
USP-GEO
100
AcDbPolyline
 90
        2
 70
   128
 43
0.0
 10
0.5253999828721483
 20
23.09570758042159
 10
0.5691833147781616
 20
23.09570758042159
  0
LWPOLYLINE
  5
B5
100
AcDbEntity
  8
USP-GEO
100
AcDbPolyline
 90
        2
 70
   128
 43
0.0
 10
0.5691833147781616
 20
22.92057425279754
 10
0.5253999828721483
 20
22.92057425279754
  0
LWPOLYLINE
  5
B6
100
AcDbEntity
  8
USP-GEO
100
AcDbPolyline
 90
       13
 70
   129
 43
0.0
 10
0.8756666381202471
 20
24.45518003610328
 10
0.8318833062142374
 20
24.49896336800929
 10
0.8756666381202471
 20
24.5427466999153
 10
0.8756666381202471
 20
24.58653003182132
 10
0.9194499700262603
 20
24.58653003182132
 10
1.007016633838286
 20
24.58653003182132
 10
1.0507999657443
 20
24.58653003182132
 10
1.094583297650309
 20
24.5427466999153
 10
1.094583297650309
 20
24.49896336800929
 10
1.094583297650309
 20
24.45518003610328
 10
1.0507999657443
 20
24.45518003610328
 10
1.007016633838286
 20
24.41139670419727
 10
0.9194499700262603
 20
24.41139670419727
  0
LWPOLYLINE
  5
B7
100
AcDbEntity
  8
USP-GEO
100
AcDbPolyline
 90
        2
 70
   128
 43
0.0
 10
0.9194499700262603
 20
24.58653003182132
 10
1.007016633838286
 20
24.58653003182132
  0
LWPOLYLINE
  5
B8
100
AcDbEntity
  8
USP-GEO
100
AcDbPolyline
 90
        2
 70
   128
 43
0.0
 10
1.007016633838286
 20
24.41139670419727
 10
0.9194499700262603
 20
24.41139670419727
  0
LWPOLYLINE
  5
B9
100
AcDbEntity
  8
USP-GEO
100
AcDbPolyline
 90
       12
 70
   129
 43
0.0
 10
0.4378333190601254
 20
26.03356915131503
 10
0.4816166509661351
 20
26.07735248322105
 10
0.5253999828721483
 20
26.07735248322105
 10
0.5691833147781616
 20
26.07735248322105
 10
0.6129666466841748
 20
26.07735248322105
 10
0.6567499785901845
 20
26.03356915131503
 10
0.6567499785901845
 20
25.98978581940902
 10
0.6129666466841748
 20
25.94600248750301
 10
0.5691833147781616
 20
25.94600248750301
 10
0.5253999828721483
 20
25.94600248750301
 10
0.4816166509661351
 20
25.94600248750301
 10
0.4378333190601254
 20
25.98978581940902
  0
LWPOLYLINE
  5
BA
100
AcDbEntity
  8
USP-GEO
100
AcDbPolyline
 90
        2
 70
   128
 43
0.0
 10
0.4378333190601254
 20
26.03356915131503
 10
0.4400224856554225
 20
26.03356915131503
  0
LWPOLYLINE
  5
BB
100
AcDbEntity
  8
USP-GEO
100
AcDbPolyline
 90
        2
 70
   128
 43
0.0
 10
0.5253999828721483
 20
26.07735248322105
 10
0.5691833147781616
 20
26.07735248322105
  0
LWPOLYLINE
  5
BC
100
AcDbEntity
  8
USP-GEO
100
AcDbPolyline
 90
        2
 70
   128
 43
0.0
 10
0.5691833147781616
 20
25.94600248750301
 10
0.5253999828721483
 20
25.94600248750301
  0
LWPOLYLINE
  5
BD
100
AcDbEntity
  8
USP-GEO
100
AcDbPolyline
 90
        2
 70
   128
 43
0.0
 10
0.6567499785901845
 20
26.03356915131503
 10
0.6589391451854852
 20
26.03356915131503
  0
LWPOLYLINE
  5
BE
100
AcDbEntity
  8
USP-GEO
100
AcDbPolyline
 90
       13
 70
   129
 43
0.0
 10
1.007016633838286
 20
27.60976909993148
 10
1.0507999657443
 20
27.56598576802547
 10
1.094583297650309
 20
27.56598576802547
 10
1.094583297650309
 20
27.52220243611946
 10
1.094583297650309
 20
27.47841910421345
 10
1.0507999657443
 20
27.43463577230743
 10
1.007016633838286
 20
27.43463577230743
 10
0.9194499700262603
 20
27.43463577230743
 10
0.8756666381202471
 20
27.43463577230743
 10
0.8756666381202471
 20
27.47841910421345
 10
0.8318833062142374
 20
27.52220243611946
 10
0.8756666381202471
 20
27.56598576802547
 10
0.9194499700262603
 20
27.60976909993148
  0
LWPOLYLINE
  5
BF
100
AcDbEntity
  8
USP-GEO
100
AcDbPolyline
 90
       14
 70
   129
 43
0.0
 10
0.5691833147781616
 20
29.10059155133121
 10
0.6129666466841748
 20
29.10059155133121
 10
0.6567499785901845
 20
29.05680821942519
 10
0.6567499785901845
 20
29.01302488751918
 10
0.6567499785901845
 20
28.96924155561317
 10
0.6129666466841748
 20
28.92545822370716
 10
0.5691833147781616
 20
28.92545822370716
 10
0.5253999828721483
 20
28.92545822370716
 10
0.4816166509661351
 20
28.92545822370716
 10
0.4378333190601254
 20
28.96924155561317
 10
0.4378333190601254
 20
29.01302488751918
 10
0.4378333190601254
 20
29.05680821942519
 10
0.4816166509661351
 20
29.10059155133121
 10
0.5253999828721483
 20
29.10059155133121
  0
LWPOLYLINE
  5
C0
100
AcDbEntity
  8
USP-GEO
100
AcDbPolyline
 90
        2
 70
   128
 43
0.0
 10
0.5253999828721483
 20
29.10059155133121
 10
0.5691833147781616
 20
29.10059155133121
  0
LWPOLYLINE
  5
C1
100
AcDbEntity
  8
USP-GEO
100
AcDbPolyline
 90
        2
 70
   128
 43
0.0
 10
0.5691833147781616
 20
28.92545822370716
 10
0.5253999828721483
 20
28.92545822370716
  0
LWPOLYLINE
  5
C2
100
AcDbEntity
  8
USP-GEO
100
AcDbPolyline
 90
        2
 70
   128
 43
0.0
 10
0.8756666381202471
 20
27.56598576802547
 10
0.8778558047155478
 20
27.56598576802547
  0
LWPOLYLINE
  5
C3
100
AcDbEntity
  8
USP-GEO
100
AcDbPolyline
 90
        2
 70
   128
 43
0.0
 10
0.9194499700262603
 20
27.60976909993148
 10
1.007016633838286
 20
27.60976909993148
  0
LWPOLYLINE
  5
C4
100
AcDbEntity
  8
USP-GEO
100
AcDbPolyline
 90
        2
 70
   128
 43
0.0
 10
1.007016633838286
 20
27.43463577230743
 10
0.9194499700262603
 20
27.43463577230743
  0
LWPOLYLINE
  5
C5
100
AcDbEntity
  8
USP-GEO
100
AcDbPolyline
 90
       15
 70
   128
 43
0.0
 10
2.14757242998991
 20
19.94111851659339
 10
2.191355761895923
 20
19.98490184849941
 10
2.14757242998991
 20
20.02868518040541
 10
2.14757242998991
 20
20.07246851231143
 10
2.1037890980839
 20
20.07246851231143
 10
2.016222434271874
 20
20.07246851231143
 10
1.972439102365861
 20
20.07246851231143
 10
1.928655770459847
 20
20.02868518040541
 10
1.928655770459847
 20
19.98490184849941
 10
1.928655770459847
 20
19.94111851659339
 10
1.972439102365861
 20
19.94111851659339
 10
2.016222434271874
 20
19.94111851659339
 10
2.1037890980839
 20
19.94111851659339
 10
2.14757242998991
 20
19.94111851659339
 10
2.149761596585211
 20
19.94111851659339
  0
LWPOLYLINE
  5
C6
100
AcDbEntity
  8
USP-GEO
100
AcDbPolyline
 90
        2
 70
   128
 43
0.0
 10
2.016222434271874
 20
20.07246851231143
 10
2.1037890980839
 20
20.07246851231143
  0
LWPOLYLINE
  5
C7
100
AcDbEntity
  8
USP-GEO
100
AcDbPolyline
 90
        2
 70
   128
 43
0.0
 10
2.1037890980839
 20
19.94111851659339
 10
2.016222434271874
 20
19.94111851659339
  0
LWPOLYLINE
  5
C8
100
AcDbEntity
  8
USP-GEO
100
AcDbPolyline
 90
       13
 70
   129
 43
0.0
 10
2.366489089519973
 20
21.43194096799312
 10
2.366489089519973
 20
21.47572429989913
 10
2.366489089519973
 20
21.51950763180514
 10
2.366489089519973
 20
21.56329096371115
 10
2.410272421425986
 20
21.60707429561717
 10
2.497839085238013
 20
21.60707429561717
 10
2.541622417144026
 20
21.56329096371115
 10
2.585405749050035
 20
21.56329096371115
 10
2.585405749050035
 20
21.51950763180514
 10
2.585405749050035
 20
21.47572429989913
 10
2.541622417144026
 20
21.43194096799312
 10
2.497839085238013
 20
21.43194096799312
 10
2.410272421425986
 20
21.43194096799312
  0
LWPOLYLINE
  5
C9
100
AcDbEntity
  8
USP-GEO
100
AcDbPolyline
 90
        2
 70
   128
 43
0.0
 10
2.410272421425986
 20
21.60707429561717
 10
2.497839085238013
 20
21.60707429561717
  0
LWPOLYLINE
  5
CA
100
AcDbEntity
  8
USP-GEO
100
AcDbPolyline
 90
        2
 70
   128
 43
0.0
 10
2.497839085238013
 20
21.43194096799312
 10
2.410272421425986
 20
21.43194096799312
  0
LWPOLYLINE
  5
CB
100
AcDbEntity
  8
USP-GEO
100
AcDbPolyline
 90
        2
 70
   128
 43
0.0
 10
2.366489089519973
 20
21.56329096371115
 10
2.368678256115273
 20
21.56329096371115
  0
LWPOLYLINE
  5
CC
100
AcDbEntity
  8
USP-GEO
100
AcDbPolyline
 90
       14
 70
   129
 43
0.0
 10
1.928655770459847
 20
22.96435758470356
 10
1.928655770459847
 20
23.00814091660956
 10
1.928655770459847
 20
23.05192424851558
 10
1.972439102365861
 20
23.09570758042159
 10
2.016222434271874
 20
23.09570758042159
 10
2.1037890980839
 20
23.09570758042159
 10
2.14757242998991
 20
23.09570758042159
 10
2.14757242998991
 20
23.05192424851558
 10
2.191355761895923
 20
23.00814091660956
 10
2.14757242998991
 20
22.96435758470356
 10
2.14757242998991
 20
22.92057425279754
 10
2.1037890980839
 20
22.92057425279754
 10
2.016222434271874
 20
22.92057425279754
 10
1.972439102365861
 20
22.92057425279754
  0
LWPOLYLINE
  5
CD
100
AcDbEntity
  8
USP-GEO
100
AcDbPolyline
 90
        2
 70
   128
 43
0.0
 10
2.016222434271874
 20
23.09570758042159
 10
2.1037890980839
 20
23.09570758042159
  0
LWPOLYLINE
  5
CE
100
AcDbEntity
  8
USP-GEO
100
AcDbPolyline
 90
        2
 70
   128
 43
0.0
 10
2.1037890980839
 20
22.92057425279754
 10
2.016222434271874
 20
22.92057425279754
  0
LWPOLYLINE
  5
CF
100
AcDbEntity
  8
USP-GEO
100
AcDbPolyline
 90
       13
 70
   129
 43
0.0
 10
2.366489089519973
 20
24.45518003610328
 10
2.366489089519973
 20
24.49896336800929
 10
2.366489089519973
 20
24.5427466999153
 10
2.366489089519973
 20
24.58653003182132
 10
2.410272421425986
 20
24.58653003182132
 10
2.497839085238013
 20
24.58653003182132
 10
2.541622417144026
 20
24.58653003182132
 10
2.585405749050035
 20
24.5427466999153
 10
2.585405749050035
 20
24.49896336800929
 10
2.585405749050035
 20
24.45518003610328
 10
2.541622417144026
 20
24.45518003610328
 10
2.497839085238013
 20
24.41139670419727
 10
2.410272421425986
 20
24.41139670419727
  0
LWPOLYLINE
  5
D0
100
AcDbEntity
  8
USP-GEO
100
AcDbPolyline
 90
        2
 70
   128
 43
0.0
 10
2.410272421425986
 20
24.58653003182132
 10
2.497839085238013
 20
24.58653003182132
  0
LWPOLYLINE
  5
D1
100
AcDbEntity
  8
USP-GEO
100
AcDbPolyline
 90
        2
 70
   128
 43
0.0
 10
2.497839085238013
 20
24.41139670419727
 10
2.410272421425986
 20
24.41139670419727
  0
LWPOLYLINE
  5
D2
100
AcDbEntity
  8
USP-GEO
100
AcDbPolyline
 90
       13
 70
   129
 43
0.0
 10
1.928655770459847
 20
26.03356915131503
 10
1.972439102365861
 20
26.07735248322105
 10
2.016222434271874
 20
26.07735248322105
 10
2.1037890980839
 20
26.07735248322105
 10
2.14757242998991
 20
26.07735248322105
 10
2.14757242998991
 20
26.03356915131503
 10
2.191355761895923
 20
26.03356915131503
 10
2.14757242998991
 20
25.98978581940902
 10
2.14757242998991
 20
25.94600248750301
 10
2.1037890980839
 20
25.94600248750301
 10
2.016222434271874
 20
25.94600248750301
 10
1.972439102365861
 20
25.94600248750301
 10
1.928655770459847
 20
25.98978581940902
  0
LWPOLYLINE
  5
D3
100
AcDbEntity
  8
USP-GEO
100
AcDbPolyline
 90
        2
 70
   128
 43
0.0
 10
1.928655770459847
 20
26.03356915131503
 10
1.930844937055148
 20
26.03356915131503
  0
LWPOLYLINE
  5
D4
100
AcDbEntity
  8
USP-GEO
100
AcDbPolyline
 90
        2
 70
   128
 43
0.0
 10
2.016222434271874
 20
26.07735248322105
 10
2.1037890980839
 20
26.07735248322105
  0
LWPOLYLINE
  5
D5
100
AcDbEntity
  8
USP-GEO
100
AcDbPolyline
 90
        2
 70
   128
 43
0.0
 10
2.1037890980839
 20
25.94600248750301
 10
2.016222434271874
 20
25.94600248750301
  0
LWPOLYLINE
  5
D6
100
AcDbEntity
  8
USP-GEO
100
AcDbPolyline
 90
       14
 70
   129
 43
0.0
 10
1.928655770459847
 20
29.05680821942519
 10
1.972439102365861
 20
29.10059155133121
 10
2.016222434271874
 20
29.10059155133121
 10
2.1037890980839
 20
29.10059155133121
 10
2.14757242998991
 20
29.10059155133121
 10
2.14757242998991
 20
29.05680821942519
 10
2.191355761895923
 20
29.01302488751918
 10
2.14757242998991
 20
28.96924155561317
 10
2.14757242998991
 20
28.92545822370716
 10
2.1037890980839
 20
28.92545822370716
 10
2.016222434271874
 20
28.92545822370716
 10
1.972439102365861
 20
28.92545822370716
 10
1.928655770459847
 20
28.96924155561317
 10
1.928655770459847
 20
29.01302488751918
  0
LWPOLYLINE
  5
D7
100
AcDbEntity
  8
USP-GEO
100
AcDbPolyline
 90
        2
 70
   128
 43
0.0
 10
2.016222434271874
 20
29.10059155133121
 10
2.1037890980839
 20
29.10059155133121
  0
LWPOLYLINE
  5
D8
100
AcDbEntity
  8
USP-GEO
100
AcDbPolyline
 90
        2
 70
   128
 43
0.0
 10
2.1037890980839
 20
28.92545822370716
 10
2.016222434271874
 20
28.92545822370716
  0
LWPOLYLINE
  5
D9
100
AcDbEntity
  8
USP-GEO
100
AcDbPolyline
 90
       13
 70
   129
 43
0.0
 10
2.366489089519973
 20
27.43463577230743
 10
2.366489089519973
 20
27.47841910421345
 10
2.366489089519973
 20
27.52220243611946
 10
2.366489089519973
 20
27.56598576802547
 10
2.410272421425986
 20
27.60976909993148
 10
2.497839085238013
 20
27.60976909993148
 10
2.541622417144026
 20
27.56598576802547
 10
2.585405749050035
 20
27.56598576802547
 10
2.585405749050035
 20
27.52220243611946
 10
2.585405749050035
 20
27.47841910421345
 10
2.541622417144026
 20
27.43463577230743
 10
2.497839085238013
 20
27.43463577230743
 10
2.410272421425986
 20
27.43463577230743
  0
LWPOLYLINE
  5
DA
100
AcDbEntity
  8
USP-GEO
100
AcDbPolyline
 90
        2
 70
   128
 43
0.0
 10
2.410272421425986
 20
27.60976909993148
 10
2.497839085238013
 20
27.60976909993148
  0
LWPOLYLINE
  5
DB
100
AcDbEntity
  8
USP-GEO
100
AcDbPolyline
 90
        2
 70
   128
 43
0.0
 10
2.497839085238013
 20
27.43463577230743
 10
2.410272421425986
 20
27.43463577230743
  0
LWPOLYLINE
  5
DC
100
AcDbEntity
  8
USP-GEO
100
AcDbPolyline
 90
        2
 70
   128
 43
0.0
 10
2.366489089519973
 20
27.56598576802547
 10
2.368678256115273
 20
27.56598576802547
  0
ENDBLK
  5
DE
100
AcDbEntity
  8
0
100
AcDbBlockEnd
  0
BLOCK
  5
11B
100
AcDbEntity
  8
0
100
AcDbBlockBegin
  2
STAD8_S
 70
     0
 10
0.0
 20
0.0
 30
0.0
  3
STAD8_S
  1

  0
LWPOLYLINE
  5
E1
100
AcDbEntity
  8
USP-GEO
100
AcDbPolyline
 90
        6
 70
   128
 43
0.0
 10
5.081055667692751
 20
29.05680821942519
 10
4.949705671974712
 20
29.05680821942519
 10
4.949705671974712
 20
7.714623081839398
 10
4.905922340068698
 20
7.627056418027379
 10
5.037272335786738
 20
7.539489754215352
 10
4.905922340068698
 20
7.408139758497313
  0
LWPOLYLINE
  5
E2
100
AcDbEntity
  8
USP-GEO
100
AcDbPolyline
 90
       13
 70
   128
 43
0.0
 10
4.949705671974712
 20
29.05680821942519
 10
4.949705671974712
 20
29.45085820657931
 10
4.949705671974712
 20
29.05680821942519
 10
4.949705671974712
 20
7.714623081839398
 10
4.905922340068698
 20
7.627056418027379
 10
4.862139008162685
 20
7.495706422309339
 10
4.818355676256672
 20
7.408139758497313
 10
4.774572344350659
 20
7.320573094685286
 10
4.687005680538639
 20
7.14325060046594
 10
4.774572344350659
 20
7.320573094685286
 10
4.818355676256672
 20
7.408139758497313
 10
4.862139008162685
 20
7.495706422309339
 10
4.905922340068698
 20
7.627056418027379
  0
LWPOLYLINE
  5
E3
100
AcDbEntity
  8
USP-GEO
100
AcDbPolyline
 90
       39
 70
   128
 43
0.0
 10
2.057816599582587
 20
1.490822451399722
 10
1.488633284804421
 20
0.3524558218433995
 10
0.1313499957180326
 20
1.009205800433583
 10
1.488633284804421
 20
0.3524558218433995
 10
2.057816599582587
 20
1.490822451399722
 10
2.1015999314886
 20
1.578389115211749
 10
2.145383263394613
 20
1.665955779023775
 10
2.1015999314886
 20
1.578389115211749
 10
2.057816599582587
 20
1.490822451399722
 10
2.145383263394613
 20
1.447039119493709
 10
1.576199948616448
 20
0.1751333276240459
 10
2.145383263394613
 20
1.447039119493709
 10
2.232949927206632
 20
1.534605783305735
 10
2.276733259112646
 20
1.665955779023775
 10
2.32270575761396
 20
1.797305774741808
 10
2.497839085238013
 20
2.147572429989907
 10
2.541622417144026
 20
2.19135576189592
 10
2.541622417144026
 20
2.278922425707946
 10
2.585405749050039
 20
2.32270575761396
 10
4.599439016726613
 20
6.661633949499801
 10
4.643222348632626
 20
6.705417281405814
 10
4.643222348632626
 20
6.792983945217834
 10
4.687005680538639
 20
6.836767277123847
 10
4.862139008162685
 20
7.187033932371953
 10
4.905922340068698
 20
7.320573094685286
 10
4.949705671974712
 20
7.408139758497313
 10
5.037272335786738
 20
7.539489754215352
 10
5.081055667692751
 20
7.670839749933385
 10
5.081055667692751
 20
29.05680821942519
 10
5.081055667692751
 20
29.45085820657931
 10
4.949705671974712
 20
29.45085820657931
 10
5.081055667692751
 20
29.45085820657931
 10
5.081055667692751
 20
29.05680821942519
 10
5.081055667692751
 20
7.670839749933385
 10
5.037272335786738
 20
7.539489754215352
 10
4.905922340068698
 20
7.408139758497313
 10
4.774572344350659
 20
7.23300643087326
 10
4.818355676256672
 20
7.320573094685286
 10
4.730789012444645
 20
7.187033932371953
  0
LWPOLYLINE
  5
E4
100
AcDbEntity
  8
USP-GEO
100
AcDbPolyline
 90
        5
 70
   128
 43
0.0
 10
2.145383263394613
 20
2.541622417144026
 10
2.585405749050039
 20
2.32270575761396
 10
4.599439016726613
 20
6.661633949499801
 10
4.468089021008573
 20
6.705417281405814
 10
4.161605697666487
 20
6.836767277123847
  0
LWPOLYLINE
  5
E5
100
AcDbEntity
  8
USP-GEO
100
AcDbPolyline
 90
        2
 70
   129
 43
0.0
 10
2.276733259112646
 20
1.709739110929781
 10
2.366489089519973
 20
1.841089106647821
  0
LWPOLYLINE
  5
E6
100
AcDbEntity
  8
USP-GEO
100
AcDbPolyline
 90
        7
 70
   128
 43
0.0
 10
1.83889994005252
 20
0.1751333276240459
 10
2.366489089519973
 20
1.315689123775669
 10
2.497839085238013
 20
1.578389115211749
 10
2.585405749050039
 20
1.709739110929781
 10
2.585405749050039
 20
1.797305774741808
 10
2.366489089519973
 20
1.884872438553834
 10
2.366489089519973
 20
1.841089106647821
  0
LWPOLYLINE
  5
E7
100
AcDbEntity
  8
USP-GEO
100
AcDbPolyline
 90
        5
 70
   128
 43
0.0
 10
2.189166595300619
 20
1.665955779023775
 10
2.189166595300619
 20
1.578389115211749
 10
2.145383263394613
 20
1.447039119493709
 10
2.366489089519973
 20
1.315689123775669
 10
1.83889994005252
 20
0.1751333276240459
  0
LWPOLYLINE
  5
E8
100
AcDbEntity
  8
USP-GEO
100
AcDbPolyline
 90
        2
 70
   129
 43
0.0
 10
2.145383263394613
 20
2.541622417144026
 10
4.161605697666487
 20
6.836767277123847
  0
LWPOLYLINE
  5
E9
100
AcDbEntity
  8
USP-GEO
100
AcDbPolyline
 90
        7
 70
   128
 43
0.0
 10
2.32270575761396
 20
1.797305774741808
 10
2.497839085238013
 20
2.147572429989907
 10
2.189166595300619
 20
2.278922425707946
 10
2.189166595300619
 20
2.410272421425986
 10
2.145383263394613
 20
2.541622417144026
 10
2.189166595300619
 20
2.366489089519973
 10
2.189166595300619
 20
2.235139093801933
  0
TEXT
  5
EA
100
AcDbEntity
  8
USP-TXT
100
AcDbText
 10
-1.568244423652104
 20
-3.112405968582557
 30
0.0
 40
0.5
  1
STAD8 - SIDE VIEW
 72
     1
 11
2.598422243014564
 21
-3.112405968582557
 31
0.0
100
AcDbText
  0
LWPOLYLINE
  5
EB
100
AcDbEntity
  8
USP-GEO
100
AcDbPolyline
 90
        2
 70
   129
 43
0.0
 10
1.357283289086382
 20
0.0
 10
0.0
 20
0.6589391451854852
  0
LWPOLYLINE
  5
EC
100
AcDbEntity
  8
USP-GEO
100
AcDbPolyline
 90
        2
 70
   129
 43
0.0
 10
1.576199948616448
 20
0.1751333276240459
 10
0.0875666638120194
 20
0.8778558047155442
  0
LWPOLYLINE
  5
ED
100
AcDbEntity
  8
USP-GEO
100
AcDbPolyline
 90
        2
 70
   128
 43
0.0
 10
0.0875666638120194
 20
0.8778558047155442
 10
0.0
 20
0.6589391451854852
  0
LWPOLYLINE
  5
EE
100
AcDbEntity
  8
USP-GEO
100
AcDbPolyline
 90
        3
 70
   128
 43
0.0
 10
0.0875666638120194
 20
0.8778558047155442
 10
0.1313499957180326
 20
1.009205800433583
 10
0.0437833319060133
 20
0.7465058089975117
  0
LWPOLYLINE
  5
EF
100
AcDbEntity
  8
USP-GEO
100
AcDbPolyline
 90
        2
 70
   128
 43
0.0
 10
0.0875666638120194
 20
0.8778558047155442
 10
0.0
 20
0.6589391451854852
  0
LWPOLYLINE
  5
F0
100
AcDbEntity
  8
USP-GEO
100
AcDbPolyline
 90
        3
 70
   128
 43
0.0
 10
0.0875666638120194
 20
0.8778558047155442
 10
0.1313499957180326
 20
1.009205800433583
 10
0.0437833319060133
 20
0.7465058089975117
  0
LWPOLYLINE
  5
F1
100
AcDbEntity
  8
USP-GEO
100
AcDbPolyline
 90
        2
 70
   129
 43
0.0
 10
0.0459724985013139
 20
0.7465058089975117
 10
0.0437833319060133
 20
0.7465058089975117
  0
LWPOLYLINE
  5
F2
100
AcDbEntity
  8
USP-GEO
100
AcDbPolyline
 90
        5
 70
   128
 43
0.0
 10
2.145383263394613
 20
1.753522442835794
 10
2.145383263394613
 20
1.665955779023775
 10
2.189166595300619
 20
1.797305774741808
 10
2.189166595300619
 20
1.841089106647821
 10
2.19135576189592
 20
1.841089106647821
  0
LWPOLYLINE
  5
F3
100
AcDbEntity
  8
USP-GEO
100
AcDbPolyline
 90
        7
 70
   128
 43
0.0
 10
2.189166595300619
 20
1.753522442835794
 10
2.145383263394613
 20
1.753522442835794
 10
2.232949927206632
 20
1.884872438553834
 10
2.145383263394613
 20
1.753522442835794
 10
2.145383263394613
 20
1.665955779023775
 10
2.189166595300619
 20
1.797305774741808
 10
2.189166595300619
 20
1.841089106647821
  0
LWPOLYLINE
  5
F4
100
AcDbEntity
  8
USP-GEO
100
AcDbPolyline
 90
        8
 70
   128
 43
0.0
 10
2.232949927206632
 20
1.753522442835794
 10
2.189166595300619
 20
1.622172447117762
 10
2.145383263394613
 20
1.447039119493709
 10
2.232949927206632
 20
1.534605783305735
 10
2.276733259112646
 20
1.665955779023775
 10
2.32270575761396
 20
1.797305774741808
 10
2.232949927206632
 20
1.841089106647821
 10
2.189166595300619
 20
1.622172447117762
  0
LWPOLYLINE
  5
F5
100
AcDbEntity
  8
USP-GEO
100
AcDbPolyline
 90
        2
 70
   129
 43
0.0
 10
1.444849952898408
 20
0.2189166595300591
 10
1.357283289086382
 20
0.0
  0
LWPOLYLINE
  5
F6
100
AcDbEntity
  8
USP-GEO
100
AcDbPolyline
 90
        2
 70
   129
 43
0.0
 10
1.83889994005252
 20
0.1751333276240459
 10
1.619983280522461
 20
0.3086724899373863
  0
LWPOLYLINE
  5
F7
100
AcDbEntity
  8
USP-GEO
100
AcDbPolyline
 90
        2
 70
   128
 43
0.0
 10
2.32270575761396
 20
1.753522442835794
 10
2.32489492420926
 20
1.753522442835794
  0
LWPOLYLINE
  5
F8
100
AcDbEntity
  8
USP-GEO
100
AcDbPolyline
 90
        3
 70
   128
 43
0.0
 10
2.189166595300619
 20
2.278922425707946
 10
2.232949927206632
 20
2.016222434271874
 10
2.232949927206632
 20
1.841089106647821
  0
LWPOLYLINE
  5
F9
100
AcDbEntity
  8
USP-GEO
100
AcDbPolyline
 90
        6
 70
   129
 43
0.0
 10
3.898905706230408
 20
5.129217332789359
 10
3.986472370042434
 20
5.304350660413412
 10
4.030255701948448
 20
5.479483988037465
 10
3.986472370042434
 20
5.304350660413412
 10
3.898905706230408
 20
5.129217332789359
 10
3.855122374324402
 20
5.041650668977339
  0
LWPOLYLINE
  5
FA
100
AcDbEntity
  8
USP-GEO
100
AcDbPolyline
 90
        4
 70
   128
 43
0.0
 10
2.366489089519973
 20
1.315689123775669
 10
2.497839085238013
 20
1.578389115211749
 10
2.585405749050039
 20
1.709739110929781
 10
2.585405749050039
 20
1.797305774741808
  0
LWPOLYLINE
  5
FB
100
AcDbEntity
  8
USP-GEO
100
AcDbPolyline
 90
        3
 70
   128
 43
0.0
 10
3.285939059546237
 20
3.901094872825709
 10
3.285939059546237
 20
3.857311540919695
 10
3.242155727640223
 20
3.769744877107676
  0
LWPOLYLINE
  5
FC
100
AcDbEntity
  8
USP-GEO
100
AcDbPolyline
 90
        7
 70
   128
 43
0.0
 10
3.285939059546237
 20
3.901094872825709
 10
3.285939059546237
 20
3.857311540919695
 10
3.242155727640223
 20
3.769744877107676
 10
3.242155727640223
 20
3.725961545201663
 10
3.110805731922184
 20
3.507044885671597
 10
3.023239068110157
 20
3.331911558047551
 10
2.979455736204151
 20
3.200561562329511
  0
LWPOLYLINE
  5
FD
100
AcDbEntity
  8
USP-GEO
100
AcDbPolyline
 90
        5
 70
   128
 43
0.0
 10
3.242155727640223
 20
3.725961545201663
 10
3.110805731922184
 20
3.507044885671597
 10
3.023239068110157
 20
3.331911558047551
 10
2.979455736204151
 20
3.200561562329511
 10
2.981644902799452
 20
3.200561562329511
  0
LWPOLYLINE
  5
FE
100
AcDbEntity
  8
USP-GEO
100
AcDbPolyline
 90
        2
 70
   128
 43
0.0
 10
2.366489089519973
 20
1.884872438553834
 10
2.366489089519973
 20
1.841089106647821
  0
LWPOLYLINE
  5
FF
100
AcDbEntity
  8
USP-GEO
100
AcDbPolyline
 90
        4
 70
   128
 43
0.0
 10
2.497839085238013
 20
2.147572429989907
 10
2.541622417144026
 20
2.19135576189592
 10
2.541622417144026
 20
2.278922425707946
 10
2.585405749050039
 20
2.32270575761396
  0
LWPOLYLINE
  5
100
100
AcDbEntity
  8
USP-GEO
100
AcDbPolyline
 90
        3
 70
   128
 43
0.0
 10
2.804322408580098
 20
4.032444868543748
 10
2.760539076674085
 20
4.076228200449762
 10
2.848105740486111
 20
4.076228200449762
  0
LWPOLYLINE
  5
101
100
AcDbEntity
  8
USP-GEO
100
AcDbPolyline
 90
        6
 70
   128
 43
0.0
 10
2.760539076674085
 20
4.076228200449762
 10
2.716755744768072
 20
4.032444868543748
 10
2.672972412862058
 20
3.988661536637735
 10
2.629189080956045
 20
3.944878204731722
 10
2.629189080956045
 20
3.682178213295649
 10
2.585405749050039
 20
3.55082821757761
  0
LWPOLYLINE
  5
102
100
AcDbEntity
  8
USP-GEO
100
AcDbPolyline
 90
        3
 70
   128
 43
0.0
 10
2.760539076674085
 20
3.857311540919695
 10
2.716755744768072
 20
3.901094872825709
 10
2.629189080956045
 20
3.944878204731722
  0
LWPOLYLINE
  5
103
100
AcDbEntity
  8
USP-GEO
100
AcDbPolyline
 90
        3
 70
   128
 43
0.0
 10
2.629189080956045
 20
3.682178213295649
 10
2.672972412862058
 20
3.682178213295649
 10
2.675161579457359
 20
3.682178213295649
  0
LWPOLYLINE
  5
104
100
AcDbEntity
  8
USP-GEO
100
AcDbPolyline
 90
        2
 70
   128
 43
0.0
 10
3.110805731922184
 20
3.507044885671597
 10
3.112994898517484
 20
3.507044885671597
  0
LWPOLYLINE
  5
105
100
AcDbEntity
  8
USP-GEO
100
AcDbPolyline
 90
        2
 70
   129
 43
0.0
 10
3.244344894235524
 20
3.725961545201663
 10
3.242155727640223
 20
3.725961545201663
  0
LWPOLYLINE
  5
106
100
AcDbEntity
  8
USP-GEO
100
AcDbPolyline
 90
        2
 70
   128
 43
0.0
 10
3.242155727640223
 20
3.725961545201663
 10
3.242155727640223
 20
3.769744877107676
  0
LWPOLYLINE
  5
107
100
AcDbEntity
  8
USP-GEO
100
AcDbPolyline
 90
        2
 70
   129
 43
0.0
 10
3.244344894235524
 20
3.769744877107676
 10
3.242155727640223
 20
3.769744877107676
  0
LWPOLYLINE
  5
108
100
AcDbEntity
  8
USP-GEO
100
AcDbPolyline
 90
        2
 70
   129
 43
0.0
 10
3.32972239145225
 20
3.901094872825709
 10
3.285939059546237
 20
3.901094872825709
  0
LWPOLYLINE
  5
109
100
AcDbEntity
  8
USP-GEO
100
AcDbPolyline
 90
        2
 70
   129
 43
0.0
 10
3.285939059546237
 20
3.901094872825709
 10
3.32972239145225
 20
3.901094872825709
  0
LWPOLYLINE
  5
10A
100
AcDbEntity
  8
USP-GEO
100
AcDbPolyline
 90
        7
 70
   128
 43
0.0
 10
4.599439016726613
 20
6.661633949499801
 10
4.643222348632626
 20
6.705417281405814
 10
4.643222348632626
 20
6.792983945217834
 10
4.687005680538639
 20
6.836767277123847
 10
4.468089021008573
 20
6.924333940935873
 10
4.29295569338452
 20
6.88055060902986
 10
4.161605697666487
 20
6.836767277123847
  0
LWPOLYLINE
  5
10B
100
AcDbEntity
  8
USP-GEO
100
AcDbPolyline
 90
        2
 70
   128
 43
0.0
 10
4.336739025290533
 20
6.88055060902986
 10
4.161605697666487
 20
6.836767277123847
  0
LWPOLYLINE
  5
10C
100
AcDbEntity
  8
USP-GEO
100
AcDbPolyline
 90
        6
 70
   128
 43
0.0
 10
3.636205714794336
 20
5.873533975191577
 10
3.548639050982309
 20
5.829750643285564
 10
3.504855719076296
 20
5.78596731137955
 10
3.504855719076296
 20
5.742183979473537
 10
3.461072387170283
 20
5.523267319943471
 10
3.461072387170283
 20
5.391917324225438
  0
LWPOLYLINE
  5
10D
100
AcDbEntity
  8
USP-GEO
100
AcDbPolyline
 90
        3
 70
   128
 43
0.0
 10
3.592422382888322
 20
5.698400647567524
 10
3.548639050982309
 20
5.698400647567524
 10
3.504855719076296
 20
5.742183979473537
  0
LWPOLYLINE
  5
10E
100
AcDbEntity
  8
USP-GEO
100
AcDbPolyline
 90
        3
 70
   128
 43
0.0
 10
3.461072387170283
 20
5.523267319943471
 10
3.504855719076296
 20
5.479483988037465
 10
3.507044885671597
 20
5.479483988037465
  0
LWPOLYLINE
  5
10F
100
AcDbEntity
  8
USP-GEO
100
AcDbPolyline
 90
        2
 70
   129
 43
0.0
 10
3.636205714794336
 20
5.873533975191577
 10
3.679989046700349
 20
5.873533975191577
  0
LWPOLYLINE
  5
110
100
AcDbEntity
  8
USP-GEO
100
AcDbPolyline
 90
        2
 70
   128
 43
0.0
 10
3.679989046700349
 20
5.829750643285564
 10
3.679989046700349
 20
5.873533975191577
  0
LWPOLYLINE
  5
111
100
AcDbEntity
  8
USP-GEO
100
AcDbPolyline
 90
        2
 70
   128
 43
0.0
 10
3.986472370042434
 20
5.304350660413412
 10
3.988661536637735
 20
5.304350660413412
  0
LWPOLYLINE
  5
112
100
AcDbEntity
  8
USP-GEO
100
AcDbPolyline
 90
        2
 70
   129
 43
0.0
 10
4.163794864261788
 20
5.698400647567524
 10
4.161605697666487
 20
5.698400647567524
  0
LWPOLYLINE
  5
113
100
AcDbEntity
  8
USP-GEO
100
AcDbPolyline
 90
        2
 70
   129
 43
0.0
 10
4.163794864261788
 20
5.698400647567524
 10
4.161605697666487
 20
5.698400647567524
  0
LWPOLYLINE
  5
114
100
AcDbEntity
  8
USP-GEO
100
AcDbPolyline
 90
        2
 70
   129
 43
0.0
 10
4.076228200449762
 20
5.567050651849484
 10
4.074039033854461
 20
5.567050651849484
  0
LWPOLYLINE
  5
115
100
AcDbEntity
  8
USP-GEO
100
AcDbPolyline
 90
        2
 70
   128
 43
0.0
 10
4.074039033854461
 20
5.567050651849484
 10
4.076228200449762
 20
5.567050651849484
  0
LWPOLYLINE
  5
116
100
AcDbEntity
  8
USP-GEO
100
AcDbPolyline
 90
        2
 70
   129
 43
0.0
 10
4.117822365760474
 20
5.610833983755497
 10
4.074039033854461
 20
5.567050651849484
  0
LWPOLYLINE
  5
117
100
AcDbEntity
  8
USP-GEO
100
AcDbPolyline
 90
        5
 70
   128
 43
0.0
 10
4.687005680538639
 20
6.836767277123847
 10
4.862139008162685
 20
7.187033932371953
 10
4.774572344350659
 20
7.23300643087326
 10
4.599439016726613
 20
7.055683936653913
 10
4.468089021008573
 20
6.924333940935873
  0
LWPOLYLINE
  5
118
100
AcDbEntity
  8
USP-GEO
100
AcDbPolyline
 90
        2
 70
   128
 43
0.0
 10
4.511872352914586
 20
6.968117272841887
 10
4.380522357196547
 20
6.924333940935873
  0
LWPOLYLINE
  5
119
100
AcDbEntity
  8
USP-GEO
100
AcDbPolyline
 90
        4
 70
   128
 43
0.0
 10
4.862139008162685
 20
7.187033932371953
 10
4.905922340068698
 20
7.320573094685286
 10
4.949705671974712
 20
7.408139758497313
 10
5.037272335786738
 20
7.539489754215352
  0
LWPOLYLINE
  5
11A
100
AcDbEntity
  8
USP-GEO
100
AcDbPolyline
 90
        2
 70
   128
 43
0.0
 10
4.818355676256672
 20
7.320573094685286
 10
4.774572344350659
 20
7.320573094685286
  0
ENDBLK
  5
11C
100
AcDbEntity
  8
0
100
AcDbBlockEnd
  0
ENDSEC
  0
SECTION
  2
ENTITIES
  0
INSERT
  5
3
100
AcDbEntity
  8
USP
100
AcDbBlockReference
  2
STAD8_T
 10
3.082924301560876
 20
38.78779384348175
 30
0.0
  0
INSERT
  5
4D
100
AcDbEntity
  8
USP
100
AcDbBlockReference
  2
STAD8_F
 10
3.082924301560876
 20
3.113135006462762
 30
0.0
  0
INSERT
  5
DF
100
AcDbEntity
  8
USP
100
AcDbBlockReference
  2
STAD8_S
 10
16.70829719071197
 20
3.113135006462762
 30
0.0
  0
ENDSEC
  0
SECTION
  2
OBJECTS
  0
DICTIONARY
  5
135
102
{ACAD_XDICTIONARY
360
136
102
}
100
AcDbDictionary
  3
ACAD_GROUP
350
133
  3
ACAD_MLINESTYLE
350
134
  0
DICTIONARY
  5
E
100
AcDbDictionary
280
     1
  3
ACAD_XREC_ROUNDTRIP
360
F
  0
DICTIONARY
  5
9
100
AcDbDictionary
280
     1
  3
ACAD_XREC_ROUNDTRIP
360
A
  0
DICTIONARY
  5
11D
100
AcDbDictionary
280
     1
  3
ACAD_LAYOUTSELFREF
360
11E
  0
DICTIONARY
  5
122
100
AcDbDictionary
280
     1
  3
ACAD_LAYOUTSELFREF
360
123
  0
DICTIONARY
  5
136
100
AcDbDictionary
280
     1
  3
ACAD_XREC_ROUNDTRIP
360
137
  0
DICTIONARY
  5
133
102
{ACAD_REACTORS
330
135
102
}
100
AcDbDictionary
  0
DICTIONARY
  5
134
102
{ACAD_REACTORS
330
135
102
}
100
AcDbDictionary
  3
STANDARD
350
138
  0
XRECORD
  5
F
102
{ACAD_REACTORS
330
E
102
}
100
AcDbXrecord
102
EXTNAMES
  1
USP-GEO
  2
USP-Geo
  0
XRECORD
  5
A
102
{ACAD_REACTORS
330
9
102
}
100
AcDbXrecord
102
EXTNAMES
  1
USP-TXT
  2
USP-Txt
  0
XRECORD
  5
11E
102
{ACAD_REACTORS
330
11D
102
}
100
AcDbXrecord
340
18
  0
XRECORD
  5
123
102
{ACAD_REACTORS
330
122
102
}
100
AcDbXrecord
340
15
  0
XRECORD
  5
137
102
{ACAD_REACTORS
330
136
102
}
100
AcDbXrecord
102
EXTNAMES
  1
ACDBVARIABLEDICTIONARY
  2
AcDbVariableDictionary
  0
MLINESTYLE
  5
138
102
{ACAD_REACTORS
330
134
102
}
100
AcDbMlineStyle
  2
STANDARD
 70
     0
  3

 62
     0
 51
90.0
 52
90.0
 71
     2
 49
0.5
 62
   256
  6
BYLAYER
 49
-0.5
 62
   256
  6
BYLAYER
  0
ENDSEC
  0
EOF
