  0
SECTION
  2
HEADER
  9
$ACADVER
  1
AC1014
  9
$ACADMAINTVER
 70
     9
  9
$DWGCODEPAGE
  3
ANSI_1252
  9
$INSBASE
 10
0.0
 20
0.0
 30
0.0
  9
$EXTMIN
 10
0.3355783644893329
 20
0.0020876394161462
 30
0.0
  9
$EXTMAX
 10
24.53610158479787
 20
68.41686849487934
 30
0.0
  9
$LIMMIN
 10
0.0
 20
0.0
  9
$LIMMAX
 10
12.0
 20
9.0
  9
$ORTHOMODE
 70
     1
  9
$REGENMODE
 70
     1
  9
$FILLMODE
 70
     1
  9
$QTEXTMODE
 70
     0
  9
$MIRRTEXT
 70
     0
  9
$DRAGMODE
 70
     2
  9
$LTSCALE
 40
1.5
  9
$OSMODE
 70
     0
  9
$ATTMODE
 70
     1
  9
$TEXTSIZE
 40
0.75
  9
$TRACEWID
 40
0.05
  9
$TEXTSTYLE
  7
STANDARD
  9
$CLAYER
  8
USP
  9
$CELTYPE
  6
BYLAYER
  9
$CECOLOR
 62
   256
  9
$CELTSCALE
 40
1.0
  9
$DELOBJ
 70
     1
  9
$DISPSILH
 70
     1
  9
$DIMSCALE
 40
3.0
  9
$DIMASZ
 40
0.125
  9
$DIMEXO
 40
0.0625
  9
$DIMDLI
 40
0.37890625
  9
$DIMRND
 40
0.0
  9
$DIMDLE
 40
0.0
  9
$DIMEXE
 40
0.09375
  9
$DIMTP
 40
0.0
  9
$DIMTM
 40
0.0
  9
$DIMTXT
 40
0.109375
  9
$DIMCEN
 40
0.0
  9
$DIMTSZ
 40
0.0
  9
$DIMTOL
 70
     0
  9
$DIMLIM
 70
     0
  9
$DIMTIH
 70
     1
  9
$DIMTOH
 70
     1
  9
$DIMSE1
 70
     0
  9
$DIMSE2
 70
     0
  9
$DIMTAD
 70
     0
  9
$DIMZIN
 70
     8
  9
$DIMBLK
  1

  9
$DIMASO
 70
     1
  9
$DIMSHO
 70
     1
  9
$DIMPOST
  1

  9
$DIMAPOST
  1

  9
$DIMALT
 70
     0
  9
$DIMALTD
 70
     2
  9
$DIMALTF
 40
25.4
  9
$DIMLFAC
 40
1.0
  9
$DIMTOFL
 70
     0
  9
$DIMTVP
 40
0.0
  9
$DIMTIX
 70
     0
  9
$DIMSOXD
 70
     0
  9
$DIMSAH
 70
     0
  9
$DIMBLK1
  1

  9
$DIMBLK2
  1

  9
$DIMSTYLE
  2
STANDARD
  9
$DIMCLRD
 70
     0
  9
$DIMCLRE
 70
     0
  9
$DIMCLRT
 70
   256
  9
$DIMTFAC
 40
1.0
  9
$DIMGAP
 40
0.08984375
  9
$DIMJUST
 70
     0
  9
$DIMSD1
 70
     0
  9
$DIMSD2
 70
     0
  9
$DIMTOLJ
 70
     1
  9
$DIMTZIN
 70
     0
  9
$DIMALTZ
 70
     0
  9
$DIMALTTZ
 70
     0
  9
$DIMFIT
 70
     3
  9
$DIMUPT
 70
     1
  9
$DIMUNIT
 70
     7
  9
$DIMDEC
 70
     4
  9
$DIMTDEC
 70
     4
  9
$DIMALTU
 70
     2
  9
$DIMALTTD
 70
     2
  9
$DIMTXSTY
  7
STANDARD
  9
$DIMAUNIT
 70
     0
  9
$LUNITS
 70
     5
  9
$LUPREC
 70
     6
  9
$SKETCHINC
 40
0.1
  9
$FILLETRAD
 40
0.0
  9
$AUNITS
 70
     0
  9
$AUPREC
 70
     1
  9
$MENU
  1
CUSTOM
  9
$ELEVATION
 40
0.0
  9
$PELEVATION
 40
0.0
  9
$THICKNESS
 40
0.0
  9
$LIMCHECK
 70
     0
  9
$BLIPMODE
 70
     0
  9
$CHAMFERA
 40
0.0
  9
$CHAMFERB
 40
0.0
  9
$CHAMFERC
 40
0.0
  9
$CHAMFERD
 40
0.0
  9
$SKPOLY
 70
     0
  9
$TDCREATE
 40
2451263.663231366
  9
$TDUPDATE
 40
2452768.669850613
  9
$TDINDWG
 40
0.6227109375
  9
$TDUSRTIMER
 40
0.6227109375
  9
$USRTIMER
 70
     1
  9
$ANGBASE
 50
0.0
  9
$ANGDIR
 70
     0
  9
$PDMODE
 70
     0
  9
$PDSIZE
 40
0.0
  9
$PLINEWID
 40
0.0
  9
$COORDS
 70
     2
  9
$SPLFRAME
 70
     0
  9
$SPLINETYPE
 70
     6
  9
$SPLINESEGS
 70
     8
  9
$ATTDIA
 70
     0
  9
$ATTREQ
 70
     0
  9
$HANDLING
 70
     1
  9
$HANDSEED
  5
178
  9
$SURFTAB1
 70
     6
  9
$SURFTAB2
 70
     6
  9
$SURFTYPE
 70
     6
  9
$SURFU
 70
     6
  9
$SURFV
 70
     6
  9
$UCSNAME
  2

  9
$UCSORG
 10
0.0
 20
0.0
 30
0.0
  9
$UCSXDIR
 10
1.0
 20
0.0
 30
0.0
  9
$UCSYDIR
 10
0.0
 20
1.0
 30
0.0
  9
$PUCSNAME
  2

  9
$PUCSORG
 10
0.0
 20
0.0
 30
0.0
  9
$PUCSXDIR
 10
1.0
 20
0.0
 30
0.0
  9
$PUCSYDIR
 10
0.0
 20
1.0
 30
0.0
  9
$USERI1
 70
     0
  9
$USERI2
 70
     0
  9
$USERI3
 70
     0
  9
$USERI4
 70
     0
  9
$USERI5
 70
     0
  9
$USERR1
 40
0.0
  9
$USERR2
 40
0.0
  9
$USERR3
 40
0.0
  9
$USERR4
 40
0.0
  9
$USERR5
 40
0.0
  9
$WORLDVIEW
 70
     1
  9
$SHADEDGE
 70
     3
  9
$SHADEDIF
 70
    70
  9
$TILEMODE
 70
     1
  9
$MAXACTVP
 70
    16
  9
$PINSBASE
 10
0.0
 20
0.0
 30
0.0
  9
$PLIMCHECK
 70
     0
  9
$PEXTMIN
 10
1.000000000000000E+20
 20
1.000000000000000E+20
 30
1.000000000000000E+20
  9
$PEXTMAX
 10
-1.000000000000000E+20
 20
-1.000000000000000E+20
 30
-1.000000000000000E+20
  9
$PLIMMIN
 10
0.0
 20
0.0
  9
$PLIMMAX
 10
12.0
 20
9.0
  9
$UNITMODE
 70
     0
  9
$VISRETAIN
 70
     0
  9
$PLINEGEN
 70
     0
  9
$PSLTSCALE
 70
     0
  9
$TREEDEPTH
 70
  3020
  9
$PICKSTYLE
 70
     0
  9
$CMLSTYLE
  2
STANDARD
  9
$CMLJUST
 70
     0
  9
$CMLSCALE
 40
1.0
  9
$PROXYGRAPHICS
 70
     1
  9
$MEASUREMENT
 70
     0
  0
ENDSEC
  0
SECTION
  2
CLASSES
  0
CLASS
  1
ACDBDICTIONARYWDFLT
  2
AcDbDictionaryWithDefault
  3
AutoCAD 2000
 90
        0
280
     0
281
     0
  0
CLASS
  1
ACDBPLACEHOLDER
  2
AcDbPlaceHolder
  3
AutoCAD 2000
 90
        0
280
     0
281
     0
  0
CLASS
  1
LAYOUT
  2
AcDbLayout
  3
AutoCAD 2000
 90
        0
280
     0
281
     0
  0
CLASS
  1
DICTIONARYVAR
  2
AcDbDictionaryVar
  3
"AutoCAD"
 90
        0
280
     0
281
     0
  0
CLASS
  1
LONG_TRANSACTION
  2
AcDbLongTransaction
  3
AutoCAD 2000
 90
        0
280
     0
281
     0
  0
CLASS
  1
LWPOLYLINE
  2
AcDbPolyline
  3
"AutoCAD"
 90
        0
280
     0
281
     1
  0
CLASS
  1
HATCH
  2
AcDbHatch
  3
"ACAD_SEDONA"
 90
        0
280
     0
281
     1
  0
CLASS
  1
XRECORD
  2
AcDbXrecord
  3
"<Built In>"
 90
        0
280
     0
281
     0
  0
CLASS
  1
LONG_TRANSACTION
  2
AcDbLongTransaction
  3
AutoCAD 2000
 90
        0
280
     0
281
     0
  0
CLASS
  1
LWPOLYLINE
  2
AcDbPolyline
  3
"AutoCAD"
 90
        0
280
     0
281
     1
  0
CLASS
  1
HATCH
  2
AcDbHatch
  3
"ACAD_SEDONA"
 90
        0
280
     0
281
     1
  0
CLASS
  1
XRECORD
  2
AcDbXrecord
  3
"<Built In>"
 90
        0
280
     0
281
     0
  0
ENDSEC
  0
SECTION
  2
TABLES
  0
TABLE
  2
VPORT
  5
168
100
AcDbSymbolTable
 70
     1
  0
VPORT
  5
169
100
AcDbSymbolTableRecord
100
AcDbViewportTableRecord
  2
*ACTIVE
 70
     0
 10
0.0
 20
0.0
 11
1.0
 21
1.0
 12
-4.703817970216483
 22
21.65624532024543
 13
0.0
 23
0.0
 14
1.0
 24
1.0
 15
0.0
 25
0.0
 16
0.0
 26
0.0
 36
1.0
 17
18.06596660309899
 27
8.119903606830565
 37
5.823974399722915
 40
74.03698194153378
 41
1.457627118644067
 42
50.0
 43
10.55307667737539
 44
10.55307667737539
 50
0.0
 51
0.0
 71
     0
 72
   100
 73
     1
 74
     1
 75
     0
 76
     0
 77
     0
 78
     0
  0
ENDTAB
  0
TABLE
  2
LTYPE
  5
163
100
AcDbSymbolTable
 70
     1
  0
LTYPE
  5
164
100
AcDbSymbolTableRecord
100
AcDbLinetypeTableRecord
  2
BYBLOCK
 70
     0
  3

 72
    65
 73
     0
 40
0.0
  0
LTYPE
  5
165
100
AcDbSymbolTableRecord
100
AcDbLinetypeTableRecord
  2
BYLAYER
 70
     0
  3

 72
    65
 73
     0
 40
0.0
  0
LTYPE
  5
5
100
AcDbSymbolTableRecord
100
AcDbLinetypeTableRecord
  2
CONTINUOUS
 70
     0
  3
Solid line
 72
    65
 73
     0
 40
0.0
  0
ENDTAB
  0
TABLE
  2
LAYER
  5
161
100
AcDbSymbolTable
 70
     4
  0
LAYER
  5
4D
100
AcDbSymbolTableRecord
100
AcDbLayerTableRecord
  2
0
 70
     0
 62
     7
  6
CONTINUOUS
  0
LAYER
  5
D
102
{ACAD_XDICTIONARY
360
E
102
}
100
AcDbSymbolTableRecord
100
AcDbLayerTableRecord
  2
USP-GEO
 70
     0
 62
     7
  6
CONTINUOUS
  0
LAYER
  5
8
102
{ACAD_XDICTIONARY
360
9
102
}
100
AcDbSymbolTableRecord
100
AcDbLayerTableRecord
  2
USP-TXT
 70
     0
 62
     7
  6
CONTINUOUS
  0
LAYER
  5
4
100
AcDbSymbolTableRecord
100
AcDbLayerTableRecord
  2
USP
 70
     0
 62
     7
  6
CONTINUOUS
  0
ENDTAB
  0
TABLE
  2
STYLE
  5
162
100
AcDbSymbolTable
 70
     1
  0
STYLE
  5
B
100
AcDbSymbolTableRecord
100
AcDbTextStyleTableRecord
  2
STANDARD
 70
     0
 40
0.0
 41
1.0
 50
0.0
 71
     0
 42
0.75
  3
txt
  4

  0
ENDTAB
  0
TABLE
  2
VIEW
  5
166
100
AcDbSymbolTable
 70
     0
  0
ENDTAB
  0
TABLE
  2
UCS
  5
167
100
AcDbSymbolTable
 70
     0
  0
ENDTAB
  0
TABLE
  2
APPID
  5
16A
100
AcDbSymbolTable
 70
     1
  0
APPID
  5
16B
100
AcDbSymbolTableRecord
100
AcDbRegAppTableRecord
  2
ACAD
 70
     0
  0
ENDTAB
  0
TABLE
  2
DIMSTYLE
  5
16C
100
AcDbSymbolTable
 70
     1
  0
DIMSTYLE
105
174
100
AcDbSymbolTableRecord
100
AcDbDimStyleTableRecord
  2
STANDARD
 70
     0
  3

  4

  5

  6

  7

 40
1.0
 41
0.18
 42
0.0625
 43
0.38
 44
0.18
 45
0.0
 46
0.0
 47
0.0
 48
0.0
140
0.18
141
0.09
142
0.0
143
25.4
144
1.0
145
0.0
146
1.0
147
0.09
 71
     0
 72
     0
 73
     1
 74
     1
 75
     0
 76
     0
 77
     0
 78
     0
170
     0
171
     2
172
     0
173
     0
174
     0
175
     0
176
     0
177
     0
178
     0
270
     2
271
     4
272
     4
273
     2
274
     2
340
B
275
     0
280
     0
281
     0
282
     0
283
     1
284
     0
285
     0
286
     0
287
     3
288
     0
  0
ENDTAB
  0
TABLE
  2
BLOCK_RECORD
  5
1
100
AcDbSymbolTable
 70
     3
  0
BLOCK_RECORD
  5
2
102
{ACAD_XDICTIONARY
360
158
102
}
100
AcDbSymbolTableRecord
100
AcDbBlockTableRecord
  2
*MODEL_SPACE
  0
BLOCK_RECORD
  5
15C
102
{ACAD_XDICTIONARY
360
15D
102
}
100
AcDbSymbolTableRecord
100
AcDbBlockTableRecord
  2
*PAPER_SPACE
  0
BLOCK_RECORD
  5
6
100
AcDbSymbolTableRecord
100
AcDbBlockTableRecord
  2
STAD14RJ_T
  0
BLOCK_RECORD
  5
50
100
AcDbSymbolTableRecord
100
AcDbBlockTableRecord
  2
STAD14RJ_F
  0
BLOCK_RECORD
  5
11A
100
AcDbSymbolTableRecord
100
AcDbBlockTableRecord
  2
STAD14RJ_S
  0
ENDTAB
  0
ENDSEC
  0
SECTION
  2
BLOCKS
  0
BLOCK
  5
15A
100
AcDbEntity
  8
0
100
AcDbBlockBegin
  2
*MODEL_SPACE
 70
     0
 10
0.0
 20
0.0
 30
0.0
  3
*MODEL_SPACE
  1

  0
ENDBLK
  5
15B
100
AcDbEntity
  8
0
100
AcDbBlockEnd
  0
BLOCK
  5
15F
100
AcDbEntity
 67
     1
  8
0
100
AcDbBlockBegin
  2
*PAPER_SPACE
 70
     0
 10
0.0
 20
0.0
 30
0.0
  3
*PAPER_SPACE
  1

  0
ENDBLK
  5
160
100
AcDbEntity
 67
     1
  8
0
100
AcDbBlockEnd
  0
BLOCK
  5
4C
100
AcDbEntity
  8
0
100
AcDbBlockBegin
  2
STAD14RJ_T
 70
     0
 10
0.0
 20
0.0
 30
0.0
  3
STAD14RJ_T
  1

  0
TEXT
  5
7
100
AcDbEntity
  8
USP-TXT
100
AcDbText
 10
-3.130407550083935
 20
-3.168865035722944
 30
0.0
 40
0.5
  1
STAD14RJ - TOP VIEW
 72
     1
 11
1.53625911658273
 21
-3.168865035722944
 31
0.0
100
AcDbText
  0
LWPOLYLINE
  5
C
100
AcDbEntity
  8
USP-GEO
100
AcDbPolyline
 90
        3
 70
   128
 43
0.0
 10
2.666263044558029
 20
4.987721265171941
 10
2.666263044558029
 20
5.055999448131174
 10
0.4096690977553977
 20
5.055999448131174
  0
LWPOLYLINE
  5
10
100
AcDbEntity
  8
USP-GEO
100
AcDbPolyline
 90
        4
 70
   128
 43
0.0
 10
3.007653959354193
 20
4.851164899253475
 10
3.007653959354193
 20
4.987721265171941
 10
2.666263044558029
 20
4.987721265171941
 10
0.4096690977553977
 20
4.987721265171941
  0
LWPOLYLINE
  5
11
100
AcDbEntity
  8
USP-GEO
100
AcDbPolyline
 90
        2
 70
   128
 43
0.0
 10
1.160729110306952
 20
0.0
 10
0.0
 20
0.0
  0
LWPOLYLINE
  5
12
100
AcDbEntity
  8
USP-GEO
100
AcDbPolyline
 90
        2
 70
   128
 43
0.0
 10
0.0
 20
0.0
 10
1.024172744388486
 20
0.0
  0
LWPOLYLINE
  5
13
100
AcDbEntity
  8
USP-GEO
100
AcDbPolyline
 90
       22
 70
   128
 43
0.0
 10
0.1365563659184659
 20
1.63867639102159
 10
0.4096690977553977
 20
1.570398208062357
 10
0.4096690977553977
 20
1.911789122858522
 10
0.1365563659184659
 20
1.843510939899289
 10
0.1365563659184659
 20
1.911789122858522
 10
0.0682781829592329
 20
1.911789122858522
 10
0.0
 20
1.911789122858522
 10
0.0
 20
1.843510939899289
 10
0.0
 20
1.706954573980823
 10
0.0
 20
1.502120025103124
 10
1.160729110306952
 20
1.502120025103124
 10
1.160729110306952
 20
1.706954573980823
 10
1.160729110306952
 20
1.775232756940056
 10
1.297285476225418
 20
1.843510939899289
 10
1.502120025103117
 20
1.843510939899289
 10
1.706954573980816
 20
1.843510939899289
 10
1.843510939899282
 20
1.775232756940056
 10
1.911789122858515
 20
1.706954573980823
 10
1.911789122858515
 20
1.502120025103124
 10
3.007653959354193
 20
1.502120025103124
 10
3.007653959354193
 20
1.706954573980823
 10
3.007653959354193
 20
1.775232756940056
  0
LWPOLYLINE
  5
14
100
AcDbEntity
  8
USP-GEO
100
AcDbPolyline
 90
       28
 70
   128
 43
0.0
 10
0.0
 20
4.851164899253475
 10
0.0
 20
4.987721265171941
 10
0.0
 20
5.055999448131174
 10
0.4096690977553977
 20
5.055999448131174
 10
0.4096690977553977
 20
4.987721265171941
 10
2.666263044558029
 20
4.987721265171941
 10
3.007653959354193
 20
4.987721265171941
 10
3.007653959354193
 20
5.055999448131174
 10
2.666263044558029
 20
5.055999448131174
 10
0.4096690977553977
 20
5.055999448131174
 10
0.0
 20
5.055999448131174
 10
0.0
 20
4.987721265171941
 10
0.0
 20
4.851164899253475
 10
0.0
 20
4.782886716294243
 10
0.0682781829592329
 20
4.71460853333501
 10
0.1365563659184659
 20
4.646330350375777
 10
0.4096690977553977
 20
4.373217618538845
 10
0.4779472807146306
 20
4.304939435579612
 10
0.4779472807146306
 20
4.236661252620379
 10
0.4779472807146306
 20
4.168383069661146
 10
0.4779472807146306
 20
1.502120025103124
 10
0.4779472807146306
 20
4.168383069661146
 10
0.6145036466330894
 20
4.168383069661146
 10
0.6145036466330894
 20
4.646330350375777
 10
0.6145036466330894
 20
4.168383069661146
 10
0.6145036466330894
 20
1.502120025103124
 10
0.4779472807146306
 20
1.502120025103124
 10
0.4813611898625894
 20
1.502120025103124
  0
LWPOLYLINE
  5
15
100
AcDbEntity
  8
USP-GEO
100
AcDbPolyline
 90
        5
 70
   128
 43
0.0
 10
0.6145036466330894
 20
1.502120025103124
 10
0.6145036466330894
 20
4.168383069661146
 10
0.6145036466330894
 20
4.236661252620379
 10
0.6145036466330894
 20
4.304939435579612
 10
0.5462254636738635
 20
4.373217618538845
  0
LWPOLYLINE
  5
16
100
AcDbEntity
  8
USP-GEO
100
AcDbPolyline
 90
        4
 70
   128
 43
0.0
 10
0.0
 20
1.843510939899289
 10
0.0
 20
1.706954573980823
 10
0.0
 20
1.502120025103124
 10
0.0
 20
0.0
  0
LWPOLYLINE
  5
17
100
AcDbEntity
  8
USP-GEO
100
AcDbPolyline
 90
        2
 70
   128
 43
0.0
 10
0.0
 20
1.502120025103124
 10
0.0
 20
0.0
  0
LWPOLYLINE
  5
18
100
AcDbEntity
  8
USP-GEO
100
AcDbPolyline
 90
        2
 70
   129
 43
0.0
 10
0.0034139091479588
 20
0.0
 10
0.0
 20
0.0
  0
LWPOLYLINE
  5
19
100
AcDbEntity
  8
USP-GEO
100
AcDbPolyline
 90
        5
 70
   128
 43
0.0
 10
0.4779472807146306
 20
1.98006730581774
 10
0.4779472807146306
 20
1.911789122858522
 10
0.4096690977553977
 20
1.911789122858522
 10
0.4096690977553977
 20
2.048345488776973
 10
0.1365563659184659
 20
1.911789122858522
  0
LWPOLYLINE
  5
1A
100
AcDbEntity
  8
USP-GEO
100
AcDbPolyline
 90
        4
 70
   129
 43
0.0
 10
0.0
 20
1.706954573980823
 10
0.0
 20
1.775232756940056
 10
0.0682781829592329
 20
1.775232756940056
 10
0.0
 20
1.775232756940056
  0
LWPOLYLINE
  5
1B
100
AcDbEntity
  8
USP-GEO
100
AcDbPolyline
 90
        5
 70
   128
 43
0.0
 10
0.0682781829592329
 20
1.775232756940056
 10
0.1365563659184659
 20
1.843510939899289
 10
0.1365563659184659
 20
1.63867639102159
 10
0.0682781829592329
 20
1.706954573980823
 10
0.0
 20
1.706954573980823
  0
LWPOLYLINE
  5
1C
100
AcDbEntity
  8
USP-GEO
100
AcDbPolyline
 90
        2
 70
   128
 43
0.0
 10
0.4096690977553977
 20
1.570398208062357
 10
0.4779472807146306
 20
1.502120025103124
  0
LWPOLYLINE
  5
1D
100
AcDbEntity
  8
USP-GEO
100
AcDbPolyline
 90
        3
 70
   128
 43
0.0
 10
0.4779472807146306
 20
2.116623671736206
 10
0.4779472807146306
 20
2.048345488776973
 10
0.4096690977553977
 20
2.048345488776973
  0
LWPOLYLINE
  5
1E
100
AcDbEntity
  8
USP-GEO
100
AcDbPolyline
 90
        2
 70
   128
 43
0.0
 10
0.4779472807146306
 20
1.911789122858522
 10
0.4779472807146306
 20
1.98006730581774
  0
LWPOLYLINE
  5
1F
100
AcDbEntity
  8
USP-GEO
100
AcDbPolyline
 90
        2
 70
   129
 43
0.0
 10
0.4813611898625894
 20
1.98006730581774
 10
0.4779472807146306
 20
1.98006730581774
  0
LWPOLYLINE
  5
20
100
AcDbEntity
  8
USP-GEO
100
AcDbPolyline
 90
        2
 70
   129
 43
0.0
 10
0.4096690977553977
 20
4.987721265171941
 10
0.0
 20
4.987721265171941
  0
LWPOLYLINE
  5
21
100
AcDbEntity
  8
USP-GEO
100
AcDbPolyline
 90
        7
 70
   128
 43
0.0
 10
0.1399702750664247
 20
4.919443082212708
 10
0.1365563659184659
 20
4.919443082212708
 10
0.2048345488776988
 20
4.851164899253475
 10
0.2731127318369317
 20
4.851164899253475
 10
0.5462254636738635
 20
4.782886716294243
 10
0.6145036466330894
 20
4.71460853333501
 10
0.6179175557810553
 20
4.71460853333501
  0
LWPOLYLINE
  5
22
100
AcDbEntity
  8
USP-GEO
100
AcDbPolyline
 90
        5
 70
   128
 43
0.0
 10
0.2731127318369317
 20
4.851164899253475
 10
0.2731127318369317
 20
4.646330350375777
 10
0.2048345488776988
 20
4.71460853333501
 10
0.1365563659184659
 20
4.782886716294243
 10
0.1365563659184659
 20
4.851164899253475
  0
LWPOLYLINE
  5
23
100
AcDbEntity
  8
USP-GEO
100
AcDbPolyline
 90
        2
 70
   129
 43
0.0
 10
0.1365563659184659
 20
4.987721265171941
 10
0.1365563659184659
 20
4.851164899253475
  0
LWPOLYLINE
  5
24
100
AcDbEntity
  8
USP-GEO
100
AcDbPolyline
 90
        3
 70
   128
 43
0.0
 10
0.5462254636738635
 20
4.782886716294243
 10
0.5462254636738635
 20
4.373217618538845
 10
0.2731127318369317
 20
4.646330350375777
  0
LWPOLYLINE
  5
25
100
AcDbEntity
  8
USP-GEO
100
AcDbPolyline
 90
        2
 70
   128
 43
0.0
 10
0.6145036466330894
 20
4.646330350375777
 10
0.6145036466330894
 20
4.71460853333501
  0
LWPOLYLINE
  5
26
100
AcDbEntity
  8
USP-GEO
100
AcDbPolyline
 90
        2
 70
   129
 43
0.0
 10
2.526292769491604
 20
4.168383069661146
 10
2.526292769491604
 20
1.502120025103124
  0
LWPOLYLINE
  5
27
100
AcDbEntity
  8
USP-GEO
100
AcDbPolyline
 90
       22
 70
   128
 43
0.0
 10
2.666263044558029
 20
5.055999448131174
 10
3.007653959354193
 20
5.055999448131174
 10
3.007653959354193
 20
4.987721265171941
 10
3.007653959354193
 20
4.851164899253475
 10
3.007653959354193
 20
4.782886716294243
 10
2.93937577639496
 20
4.71460853333501
 10
2.871097593435727
 20
4.646330350375777
 10
2.594570952450837
 20
4.373217618538845
 10
2.526292769491604
 20
4.304939435579612
 10
2.526292769491604
 20
4.236661252620379
 10
2.526292769491604
 20
4.168383069661146
 10
2.389736403573138
 20
4.168383069661146
 10
2.389736403573138
 20
1.502120025103124
 10
2.389736403573138
 20
4.168383069661146
 10
2.389736403573138
 20
4.646330350375777
 10
2.389736403573138
 20
4.168383069661146
 10
2.389736403573138
 20
4.236661252620379
 10
2.389736403573138
 20
4.304939435579612
 10
2.458014586532371
 20
4.373217618538845
 10
2.458014586532371
 20
4.782886716294243
 10
2.389736403573138
 20
4.71460853333501
 10
2.393150312721104
 20
4.71460853333501
  0
LWPOLYLINE
  5
28
100
AcDbEntity
  8
USP-GEO
100
AcDbPolyline
 90
        7
 70
   128
 43
0.0
 10
2.389736403573138
 20
1.502120025103124
 10
2.526292769491604
 20
1.502120025103124
 10
2.594570952450837
 20
1.570398208062357
 10
2.594570952450837
 20
1.911789122858522
 10
2.526292769491604
 20
1.911789122858522
 10
2.526292769491604
 20
1.98006730581774
 10
2.529706678639563
 20
1.98006730581774
  0
LWPOLYLINE
  5
29
100
AcDbEntity
  8
USP-GEO
100
AcDbPolyline
 90
        7
 70
   128
 43
0.0
 10
2.594570952450837
 20
1.570398208062357
 10
2.871097593435727
 20
1.63867639102159
 10
2.871097593435727
 20
1.843510939899289
 10
2.594570952450837
 20
1.911789122858522
 10
2.594570952450837
 20
2.048345488776973
 10
2.526292769491604
 20
2.048345488776973
 10
2.526292769491604
 20
2.116623671736206
  0
LWPOLYLINE
  5
2A
100
AcDbEntity
  8
USP-GEO
100
AcDbPolyline
 90
        9
 70
   128
 43
0.0
 10
1.024172744388486
 20
-0.0682781829592329
 10
2.048345488776973
 20
-0.0682781829592329
 10
2.048345488776973
 20
0.0
 10
3.007653959354193
 20
0.0
 10
3.007653959354193
 20
1.502120025103124
 10
3.007653959354193
 20
1.706954573980823
 10
3.007653959354193
 20
1.843510939899289
 10
3.007653959354193
 20
1.706954573980823
 10
3.011067868502159
 20
1.706954573980823
  0
LWPOLYLINE
  5
2B
100
AcDbEntity
  8
USP-GEO
100
AcDbPolyline
 90
        4
 70
   128
 43
0.0
 10
1.911789122858515
 20
1.502120025103124
 10
1.911789122858515
 20
0.0
 10
3.007653959354193
 20
0.0
 10
3.007653959354193
 20
1.502120025103124
  0
LWPOLYLINE
  5
2C
100
AcDbEntity
  8
USP-GEO
100
AcDbPolyline
 90
        7
 70
   129
 43
0.0
 10
1.160729110306952
 20
0.0
 10
1.160729110306952
 20
1.502120025103124
 10
1.160729110306952
 20
1.706954573980823
 10
1.502120025103117
 20
1.706954573980823
 10
1.911789122858515
 20
1.706954573980823
 10
1.911789122858515
 20
1.502120025103124
 10
1.911789122858515
 20
0.0
  0
LWPOLYLINE
  5
2D
100
AcDbEntity
  8
USP-GEO
100
AcDbPolyline
 90
        2
 70
   128
 43
0.0
 10
1.911789122858515
 20
1.570398208062357
 10
1.160729110306952
 20
1.570398208062357
  0
LWPOLYLINE
  5
2E
100
AcDbEntity
  8
USP-GEO
100
AcDbPolyline
 90
        2
 70
   128
 43
0.0
 10
1.160729110306952
 20
0.0
 10
1.160729110306952
 20
1.502120025103124
  0
LWPOLYLINE
  5
2F
100
AcDbEntity
  8
USP-GEO
100
AcDbPolyline
 90
        2
 70
   129
 43
0.0
 10
1.024172744388486
 20
-0.0682781829592329
 10
1.024172744388486
 20
0.0
  0
LWPOLYLINE
  5
30
100
AcDbEntity
  8
USP-GEO
100
AcDbPolyline
 90
        2
 70
   129
 43
0.0
 10
1.164143019454911
 20
0.0
 10
1.160729110306952
 20
0.0
  0
LWPOLYLINE
  5
31
100
AcDbEntity
  8
USP-GEO
100
AcDbPolyline
 90
        2
 70
   129
 43
0.0
 10
1.502120025103117
 20
1.843510939899289
 10
1.502120025103117
 20
1.706954573980823
  0
LWPOLYLINE
  5
32
100
AcDbEntity
  8
USP-GEO
100
AcDbPolyline
 90
        2
 70
   128
 43
0.0
 10
1.502120025103117
 20
1.706954573980823
 10
1.502120025103117
 20
1.843510939899289
  0
LWPOLYLINE
  5
33
100
AcDbEntity
  8
USP-GEO
100
AcDbPolyline
 90
        2
 70
   128
 43
0.0
 10
1.911789122858515
 20
0.0
 10
1.915203032006473
 20
0.0
  0
LWPOLYLINE
  5
34
100
AcDbEntity
  8
USP-GEO
100
AcDbPolyline
 90
        2
 70
   128
 43
0.0
 10
2.048345488776973
 20
-0.0682781829592329
 10
2.048345488776973
 20
0.0
  0
LWPOLYLINE
  5
35
100
AcDbEntity
  8
USP-GEO
100
AcDbPolyline
 90
        2
 70
   128
 43
0.0
 10
2.526292769491604
 20
1.502120025103124
 10
2.529706678639563
 20
1.502120025103124
  0
LWPOLYLINE
  5
36
100
AcDbEntity
  8
USP-GEO
100
AcDbPolyline
 90
        2
 70
   128
 43
0.0
 10
3.007653959354193
 20
0.0
 10
3.011067868502159
 20
0.0
  0
LWPOLYLINE
  5
37
100
AcDbEntity
  8
USP-GEO
100
AcDbPolyline
 90
        3
 70
   128
 43
0.0
 10
2.93937577639496
 20
1.843510939899289
 10
2.93937577639496
 20
1.911789122858522
 10
2.594570952450837
 20
2.048345488776973
  0
LWPOLYLINE
  5
38
100
AcDbEntity
  8
USP-GEO
100
AcDbPolyline
 90
        5
 70
   128
 43
0.0
 10
2.871097593435727
 20
1.63867639102159
 10
3.007653959354193
 20
1.706954573980823
 10
3.007653959354193
 20
1.775232756940056
 10
2.93937577639496
 20
1.775232756940056
 10
2.871097593435727
 20
1.843510939899289
  0
LWPOLYLINE
  5
39
100
AcDbEntity
  8
USP-GEO
100
AcDbPolyline
 90
        3
 70
   128
 43
0.0
 10
3.007653959354193
 20
1.843510939899289
 10
3.007653959354193
 20
1.911789122858522
 10
2.93937577639496
 20
1.911789122858522
  0
LWPOLYLINE
  5
3A
100
AcDbEntity
  8
USP-GEO
100
AcDbPolyline
 90
        4
 70
   128
 43
0.0
 10
2.458014586532371
 20
4.782886716294243
 10
2.802819410476494
 20
4.851164899253475
 10
2.802819410476494
 20
4.646330350375777
 10
2.458014586532371
 20
4.373217618538845
  0
LWPOLYLINE
  5
3B
100
AcDbEntity
  8
USP-GEO
100
AcDbPolyline
 90
       15
 70
   128
 43
0.0
 10
1.229007293266185
 20
3.004240050206234
 10
1.502120025103117
 20
2.935961867247002
 10
1.775232756940049
 20
3.004240050206234
 10
1.843510939899282
 20
3.004240050206234
 10
1.98006730581774
 20
3.1407964161247
 10
2.048345488776973
 20
3.209074599083933
 10
2.116623671736206
 20
3.413909147961632
 10
2.048345488776973
 20
3.413909147961632
 10
1.911789122858515
 20
3.209074599083933
 10
1.775232756940049
 20
3.072518233165467
 10
1.502120025103117
 20
3.004240050206234
 10
1.297285476225418
 20
3.072518233165467
 10
1.092450927347719
 20
3.209074599083933
 10
0.9558945614292539
 20
3.413909147961632
 10
0.887616378470021
 20
3.413909147961632
  0
LWPOLYLINE
  5
3C
100
AcDbEntity
  8
USP-GEO
100
AcDbPolyline
 90
       15
 70
   128
 43
0.0
 10
1.229007293266185
 20
3.485601240068831
 10
1.502120025103117
 20
3.413909147961632
 10
1.775232756940049
 20
3.485601240068831
 10
1.843510939899282
 20
3.485601240068831
 10
1.98006730581774
 20
3.622157605987297
 10
2.048345488776973
 20
3.69043578894653
 10
2.116623671736206
 20
3.895270337824214
 10
2.048345488776973
 20
3.895270337824214
 10
1.911789122858515
 20
3.69043578894653
 10
1.775232756940049
 20
3.553879423028064
 10
1.502120025103117
 20
3.485601240068831
 10
1.297285476225418
 20
3.553879423028064
 10
1.092450927347719
 20
3.69043578894653
 10
0.9558945614292539
 20
3.895270337824214
 10
0.887616378470021
 20
3.895270337824214
  0
LWPOLYLINE
  5
3D
100
AcDbEntity
  8
USP-GEO
100
AcDbPolyline
 90
       19
 70
   128
 43
0.0
 10
1.229007293266185
 20
3.963548520783447
 10
1.502120025103117
 20
3.895270337824214
 10
1.775232756940049
 20
3.963548520783447
 10
1.843510939899282
 20
3.963548520783447
 10
1.98006730581774
 20
4.100104886701913
 10
2.048345488776973
 20
4.236661252620379
 10
2.116623671736206
 20
4.373217618538845
 10
2.048345488776973
 20
4.373217618538845
 10
2.048345488776973
 20
4.441495801498078
 10
1.911789122858515
 20
4.168383069661146
 10
1.775232756940049
 20
4.03182670374268
 10
1.502120025103117
 20
4.03182670374268
 10
1.297285476225418
 20
4.03182670374268
 10
1.092450927347719
 20
4.168383069661146
 10
0.9558945614292539
 20
4.441495801498078
 10
1.229007293266185
 20
4.441495801498078
 10
1.502120025103117
 20
4.441495801498078
 10
1.775232756940049
 20
4.441495801498078
 10
2.048345488776973
 20
4.441495801498078
  0
LWPOLYLINE
  5
3E
100
AcDbEntity
  8
USP-GEO
100
AcDbPolyline
 90
        6
 70
   128
 43
0.0
 10
0.8910302876179869
 20
3.413909147961632
 10
0.887616378470021
 20
3.413909147961632
 10
0.9558945614292539
 20
3.209074599083933
 10
1.024172744388486
 20
3.1407964161247
 10
1.229007293266185
 20
3.004240050206234
 10
1.232421202414144
 20
3.004240050206234
  0
LWPOLYLINE
  5
3F
100
AcDbEntity
  8
USP-GEO
100
AcDbPolyline
 90
        6
 70
   128
 43
0.0
 10
0.8910302876179869
 20
3.895270337824214
 10
0.887616378470021
 20
3.895270337824214
 10
0.9558945614292539
 20
3.69043578894653
 10
1.024172744388486
 20
3.622157605987297
 10
1.229007293266185
 20
3.485601240068831
 10
1.232421202414144
 20
3.485601240068831
  0
LWPOLYLINE
  5
40
100
AcDbEntity
  8
USP-GEO
100
AcDbPolyline
 90
        7
 70
   128
 43
0.0
 10
0.9558945614292539
 20
4.441495801498078
 10
0.9558945614292539
 20
4.373217618538845
 10
0.887616378470021
 20
4.373217618538845
 10
0.9558945614292539
 20
4.236661252620379
 10
1.024172744388486
 20
4.100104886701913
 10
1.229007293266185
 20
3.963548520783447
 10
1.232421202414144
 20
3.963548520783447
  0
LWPOLYLINE
  5
41
100
AcDbEntity
  8
USP-GEO
100
AcDbPolyline
 90
        4
 70
   128
 43
0.0
 10
1.297285476225418
 20
3.485601240068831
 10
1.229007293266185
 20
3.485601240068831
 10
0.9558945614292539
 20
3.413909147961632
 10
0.9593084705772199
 20
3.413909147961632
  0
LWPOLYLINE
  5
42
100
AcDbEntity
  8
USP-GEO
100
AcDbPolyline
 90
        4
 70
   128
 43
0.0
 10
1.297285476225418
 20
3.963548520783447
 10
1.229007293266185
 20
3.963548520783447
 10
0.9558945614292539
 20
3.895270337824214
 10
0.9593084705772199
 20
3.895270337824214
  0
LWPOLYLINE
  5
43
100
AcDbEntity
  8
USP-GEO
100
AcDbPolyline
 90
        3
 70
   128
 43
0.0
 10
1.706954573980816
 20
3.485601240068831
 10
1.775232756940049
 20
3.485601240068831
 10
2.048345488776973
 20
3.413909147961632
  0
LWPOLYLINE
  5
44
100
AcDbEntity
  8
USP-GEO
100
AcDbPolyline
 90
        3
 70
   128
 43
0.0
 10
1.706954573980816
 20
3.963548520783447
 10
1.775232756940049
 20
3.963548520783447
 10
2.048345488776973
 20
3.895270337824214
  0
LWPOLYLINE
  5
45
100
AcDbEntity
  8
USP-GEO
100
AcDbPolyline
 90
        2
 70
   128
 43
0.0
 10
2.116623671736206
 20
3.413909147961632
 10
2.120037580884172
 20
3.413909147961632
  0
LWPOLYLINE
  5
46
100
AcDbEntity
  8
USP-GEO
100
AcDbPolyline
 90
        2
 70
   128
 43
0.0
 10
2.116623671736206
 20
3.895270337824214
 10
2.120037580884172
 20
3.895270337824214
  0
LWPOLYLINE
  5
47
100
AcDbEntity
  8
USP-GEO
100
AcDbPolyline
 90
        2
 70
   128
 43
0.0
 10
2.116623671736206
 20
4.373217618538845
 10
2.120037580884172
 20
4.373217618538845
  0
LWPOLYLINE
  5
48
100
AcDbEntity
  8
USP-GEO
100
AcDbPolyline
 90
        2
 70
   128
 43
0.0
 10
2.389736403573138
 20
4.646330350375777
 10
2.389736403573138
 20
4.71460853333501
  0
LWPOLYLINE
  5
49
100
AcDbEntity
  8
USP-GEO
100
AcDbPolyline
 90
        4
 70
   128
 43
0.0
 10
2.871097593435727
 20
4.851164899253475
 10
2.871097593435727
 20
4.782886716294243
 10
2.802819410476494
 20
4.71460853333501
 10
2.802819410476494
 20
4.646330350375777
  0
LWPOLYLINE
  5
4A
100
AcDbEntity
  8
USP-GEO
100
AcDbPolyline
 90
        2
 70
   129
 43
0.0
 10
2.871097593435727
 20
4.851164899253475
 10
2.871097593435727
 20
4.987721265171941
  0
LWPOLYLINE
  5
4B
100
AcDbEntity
  8
USP-GEO
100
AcDbPolyline
 90
        3
 70
   128
 43
0.0
 10
2.802819410476494
 20
4.851164899253475
 10
2.871097593435727
 20
4.919443082212708
 10
2.874511502583693
 20
4.919443082212708
  0
ENDBLK
  5
4E
100
AcDbEntity
  8
0
100
AcDbBlockEnd
  0
BLOCK
  5
117
100
AcDbEntity
  8
0
100
AcDbBlockBegin
  2
STAD14RJ_F
 70
     0
 10
0.0
 20
0.0
 30
0.0
  3
STAD14RJ_F
  1

  0
LWPOLYLINE
  5
51
100
AcDbEntity
  8
USP-GEO
100
AcDbPolyline
 90
       21
 70
   128
 43
0.0
 10
0.0
 20
14.01068314323453
 10
0.0
 20
14.14723950915299
 10
0.0
 20
53.51302589429854
 10
0.4096690977553977
 20
53.92269499205394
 10
2.666263044558029
 20
53.92269499205394
 10
3.007653959354193
 20
53.51302589429854
 10
3.007653959354193
 20
14.14723950915299
 10
3.007653959354193
 20
14.01068314323453
 10
3.007653959354193
 20
13.87412677731606
 10
2.93937577639496
 20
13.73757041139759
 10
2.871097593435727
 20
13.66929222843836
 10
2.594570952450837
 20
13.25962313068297
 10
2.526292769491604
 20
13.18793103857577
 10
2.526292769491604
 20
13.11965285561654
 10
2.526292769491604
 20
13.05137467265731
 10
2.526292769491604
 20
13.11965285561654
 10
2.526292769491604
 20
13.18793103857577
 10
2.526292769491604
 20
13.25962313068297
 10
2.526292769491604
 20
13.3279013136422
 10
2.594570952450837
 20
13.39617949660144
 10
2.594570952450837
 20
13.25962313068297
  0
LWPOLYLINE
  5
52
100
AcDbEntity
  8
USP-GEO
100
AcDbPolyline
 90
        8
 70
   128
 43
0.0
 10
0.1365563659184659
 20
14.14723950915299
 10
2.871097593435727
 20
14.14723950915299
 10
3.007653959354193
 20
14.14723950915299
 10
3.007653959354193
 20
53.51302589429854
 10
2.666263044558029
 20
53.92269499205394
 10
0.4096690977553977
 20
53.92269499205394
 10
0.0
 20
53.51302589429854
 10
0.0
 20
14.14723950915299
  0
TEXT
  5
53
100
AcDbEntity
  8
USP-TXT
100
AcDbText
 10
-3.630407550083933
 20
-2.874553032895832
 30
0.0
 40
0.5
  1
STAD14RJ - FRONT VIEW
 72
     1
 11
1.53625911658273
 21
-2.874553032895832
 31
0.0
100
AcDbText
  0
LWPOLYLINE
  5
54
100
AcDbEntity
  8
USP-GEO
100
AcDbPolyline
 90
       11
 70
   128
 43
0.0
 10
0.6179175557810553
 20
26.51583235221798
 10
0.6145036466330894
 20
26.51583235221798
 10
0.4779472807146306
 20
26.51583235221798
 10
0.6145036466330894
 20
26.51583235221798
 10
0.6827818295923223
 20
26.51583235221798
 10
0.6827818295923223
 20
26.44755416925874
 10
0.6827818295923223
 20
26.37927598629951
 10
0.6145036466330894
 20
26.37927598629951
 10
0.4779472807146306
 20
26.37927598629951
 10
0.6145036466330894
 20
26.37927598629951
 10
0.6179175557810553
 20
26.37927598629951
  0
LWPOLYLINE
  5
55
100
AcDbEntity
  8
USP-GEO
100
AcDbPolyline
 90
       11
 70
   128
 43
0.0
 10
0.6179175557810553
 20
29.52348631157217
 10
0.6145036466330894
 20
29.52348631157217
 10
0.4779472807146306
 20
29.52348631157217
 10
0.6145036466330894
 20
29.52348631157217
 10
0.6827818295923223
 20
29.52348631157217
 10
0.6827818295923223
 20
29.45520812861293
 10
0.6827818295923223
 20
29.38692994565371
 10
0.6145036466330894
 20
29.38692994565371
 10
0.4779472807146306
 20
29.38692994565371
 10
0.6145036466330894
 20
29.38692994565371
 10
0.6179175557810553
 20
29.38692994565371
  0
LWPOLYLINE
  5
56
100
AcDbEntity
  8
USP-GEO
100
AcDbPolyline
 90
        2
 70
   128
 43
0.0
 10
0.0
 20
0.2731127318369317
 10
1.024172744388486
 20
0.2731127318369317
  0
LWPOLYLINE
  5
57
100
AcDbEntity
  8
USP-GEO
100
AcDbPolyline
 90
        2
 70
   128
 43
0.0
 10
1.160729110306952
 20
0.8193381955107952
 10
0.0
 20
0.8193381955107952
  0
LWPOLYLINE
  5
58
100
AcDbEntity
  8
USP-GEO
100
AcDbPolyline
 90
       10
 70
   128
 43
0.0
 10
1.024172744388486
 20
0.6827818295923294
 10
1.024172744388486
 20
0.4096690977553977
 10
1.024172744388486
 20
0.0
 10
1.024172744388486
 20
0.4096690977553977
 10
1.024172744388486
 20
0.6827818295923294
 10
0.0
 20
0.6827818295923294
 10
0.0
 20
0.8193381955107952
 10
0.0
 20
1.433841842143891
 10
0.0
 20
1.502120025103124
 10
0.0034139091479588
 20
1.502120025103124
  0
LWPOLYLINE
  5
59
100
AcDbEntity
  8
USP-GEO
100
AcDbPolyline
 90
        2
 70
   129
 43
0.0
 10
0.4779472807146306
 20
2.52970667863957
 10
0.4779472807146306
 20
13.18793103857577
  0
LWPOLYLINE
  5
5A
100
AcDbEntity
  8
USP-GEO
100
AcDbPolyline
 90
        2
 70
   129
 43
0.0
 10
0.6145036466330894
 20
13.18793103857577
 10
0.6145036466330894
 20
2.52970667863957
  0
LWPOLYLINE
  5
5B
100
AcDbEntity
  8
USP-GEO
100
AcDbPolyline
 90
        8
 70
   128
 43
0.0
 10
0.5462254636738635
 20
2.116623671736213
 10
0.5462254636738635
 20
2.184901854695446
 10
0.2731127318369317
 20
1.706954573980823
 10
0.1365563659184659
 20
1.570398208062357
 10
0.1365563659184659
 20
1.433841842143891
 10
0.0
 20
1.433841842143891
 10
0.0
 20
0.8193381955107952
 10
0.0
 20
0.6827818295923294
  0
LWPOLYLINE
  5
5C
100
AcDbEntity
  8
USP-GEO
100
AcDbPolyline
 90
        8
 70
   128
 43
0.0
 10
0.1365563659184659
 20
1.502120025103124
 10
0.2048345488776988
 20
1.63867639102159
 10
0.2731127318369317
 20
1.706954573980823
 10
0.5462254636738635
 20
2.116623671736213
 10
0.6145036466330894
 20
2.184901854695446
 10
0.6145036466330894
 20
2.253180037654679
 10
0.6145036466330894
 20
2.393150312721104
 10
0.6145036466330894
 20
2.52970667863957
  0
LWPOLYLINE
  5
5D
100
AcDbEntity
  8
USP-GEO
100
AcDbPolyline
 90
       11
 70
   128
 43
0.0
 10
0.0682781829592329
 20
1.63867639102159
 10
0.0
 20
1.570398208062357
 10
0.0
 20
1.433841842143891
 10
0.0682781829592329
 20
1.63867639102159
 10
0.1365563659184659
 20
1.843510939899282
 10
0.4096690977553977
 20
2.253180037654679
 10
0.4779472807146306
 20
2.393150312721104
 10
0.4779472807146306
 20
2.52970667863957
 10
0.6145036466330894
 20
2.52970667863957
 10
0.6145036466330894
 20
2.321458220613912
 10
0.5462254636738635
 20
2.184901854695446
  0
LWPOLYLINE
  5
5E
100
AcDbEntity
  8
USP-GEO
100
AcDbPolyline
 90
        2
 70
   129
 43
0.0
 10
0.0
 20
0.2731127318369317
 10
0.0
 20
0.6827818295923294
  0
LWPOLYLINE
  5
5F
100
AcDbEntity
  8
USP-GEO
100
AcDbPolyline
 90
        2
 70
   128
 43
0.0
 10
0.2731127318369317
 20
1.706954573980823
 10
0.2765266409848905
 20
1.706954573980823
  0
LWPOLYLINE
  5
60
100
AcDbEntity
  8
USP-GEO
100
AcDbPolyline
 90
        2
 70
   128
 43
0.0
 10
0.6145036466330894
 20
2.393150312721104
 10
0.6145036466330894
 20
2.52970667863957
  0
LWPOLYLINE
  5
61
100
AcDbEntity
  8
USP-GEO
100
AcDbPolyline
 90
       12
 70
   128
 43
0.0
 10
0.4779472807146306
 20
13.25962313068297
 10
0.4779472807146306
 20
13.11965285561654
 10
0.4779472807146306
 20
13.05137467265731
 10
0.4779472807146306
 20
13.18793103857577
 10
0.6145036466330894
 20
13.18793103857577
 10
0.6145036466330894
 20
13.25962313068297
 10
0.6145036466330894
 20
13.3279013136422
 10
0.5462254636738635
 20
13.46445767956067
 10
0.2731127318369317
 20
13.80584859435683
 10
0.2048345488776988
 20
13.87412677731606
 10
0.1365563659184659
 20
13.94240496027529
 10
0.1365563659184659
 20
14.01068314323453
  0
LWPOLYLINE
  5
62
100
AcDbEntity
  8
USP-GEO
100
AcDbPolyline
 90
        6
 70
   128
 43
0.0
 10
0.1365563659184659
 20
13.73757041139759
 10
0.4096690977553977
 20
13.39617949660144
 10
0.4096690977553977
 20
13.25962313068297
 10
0.1365563659184659
 20
13.66929222843836
 10
0.0682781829592329
 20
13.73757041139759
 10
0.0
 20
13.87412677731606
  0
LWPOLYLINE
  5
63
100
AcDbEntity
  8
USP-GEO
100
AcDbPolyline
 90
        7
 70
   129
 43
0.0
 10
0.1365563659184659
 20
13.66929222843836
 10
0.1365563659184659
 20
13.73757041139759
 10
0.0682781829592329
 20
13.80584859435683
 10
0.0
 20
13.94240496027529
 10
0.0
 20
14.01068314323453
 10
0.0
 20
13.87412677731606
 10
0.0682781829592329
 20
13.80584859435683
  0
LWPOLYLINE
  5
64
100
AcDbEntity
  8
USP-GEO
100
AcDbPolyline
 90
        3
 70
   129
 43
0.0
 10
0.0
 20
14.01068314323453
 10
0.0
 20
13.87412677731606
 10
0.0
 20
13.94240496027529
  0
LWPOLYLINE
  5
65
100
AcDbEntity
  8
USP-GEO
100
AcDbPolyline
 90
        2
 70
   129
 43
0.0
 10
0.1399702750664247
 20
13.66929222843836
 10
0.1365563659184659
 20
13.66929222843836
  0
LWPOLYLINE
  5
66
100
AcDbEntity
  8
USP-GEO
100
AcDbPolyline
 90
        2
 70
   129
 43
0.0
 10
0.0034139091479588
 20
14.01068314323453
 10
0.0
 20
14.01068314323453
  0
LWPOLYLINE
  5
67
100
AcDbEntity
  8
USP-GEO
100
AcDbPolyline
 90
        2
 70
   128
 43
0.0
 10
0.0
 20
14.01068314323453
 10
0.0034139091479588
 20
14.01068314323453
  0
LWPOLYLINE
  5
68
100
AcDbEntity
  8
USP-GEO
100
AcDbPolyline
 90
        2
 70
   129
 43
0.0
 10
0.1365563659184659
 20
14.14723950915299
 10
0.1365563659184659
 20
14.01068314323453
  0
LWPOLYLINE
  5
69
100
AcDbEntity
  8
USP-GEO
100
AcDbPolyline
 90
        3
 70
   128
 43
0.0
 10
0.1365563659184659
 20
14.14723950915299
 10
0.0
 20
14.14723950915299
 10
0.0
 20
14.01068314323453
  0
LWPOLYLINE
  5
6A
100
AcDbEntity
  8
USP-GEO
100
AcDbPolyline
 90
        4
 70
   128
 43
0.0
 10
0.4779472807146306
 20
13.18793103857577
 10
0.4779472807146306
 20
13.25962313068297
 10
0.4779472807146306
 20
13.3279013136422
 10
0.4096690977553977
 20
13.39617949660144
  0
LWPOLYLINE
  5
6B
100
AcDbEntity
  8
USP-GEO
100
AcDbPolyline
 90
        4
 70
   128
 43
0.0
 10
0.4779472807146306
 20
13.05137467265731
 10
0.4779472807146306
 20
13.11965285561654
 10
0.4779472807146306
 20
13.18793103857577
 10
0.4096690977553977
 20
13.25962313068297
  0
LWPOLYLINE
  5
6C
100
AcDbEntity
  8
USP-GEO
100
AcDbPolyline
 90
        9
 70
   128
 43
0.0
 10
0.4779472807146306
 20
15.10313407058225
 10
0.5462254636738635
 20
15.10313407058225
 10
0.6145036466330894
 20
15.03485588762301
 10
0.6145036466330894
 20
14.96657770466378
 10
0.5462254636738635
 20
14.89829952170455
 10
0.4779472807146306
 20
14.89829952170455
 10
0.4096690977553977
 20
14.96657770466378
 10
0.4096690977553977
 20
15.03485588762301
 10
0.4130830069033565
 20
15.03485588762301
  0
LWPOLYLINE
  5
6D
100
AcDbEntity
  8
USP-GEO
100
AcDbPolyline
 90
        3
 70
   128
 43
0.0
 10
0.4096690977553977
 20
15.03485588762301
 10
0.4779472807146306
 20
15.10313407058225
 10
0.4813611898625894
 20
15.10313407058225
  0
LWPOLYLINE
  5
6E
100
AcDbEntity
  8
USP-GEO
100
AcDbPolyline
 90
        7
 70
   128
 43
0.0
 10
0.4813611898625894
 20
26.51583235221798
 10
0.4779472807146306
 20
26.51583235221798
 10
0.4096690977553977
 20
26.51583235221798
 10
0.4096690977553977
 20
26.44755416925874
 10
0.4096690977553977
 20
26.37927598629951
 10
0.4779472807146306
 20
26.37927598629951
 10
0.4813611898625894
 20
26.37927598629951
  0
LWPOLYLINE
  5
6F
100
AcDbEntity
  8
USP-GEO
100
AcDbPolyline
 90
        7
 70
   128
 43
0.0
 10
0.4813611898625894
 20
29.52348631157217
 10
0.4779472807146306
 20
29.52348631157217
 10
0.4096690977553977
 20
29.52348631157217
 10
0.4096690977553977
 20
29.45520812861293
 10
0.4096690977553977
 20
29.38692994565371
 10
0.4779472807146306
 20
29.38692994565371
 10
0.4813611898625894
 20
29.38692994565371
  0
LWPOLYLINE
  5
70
100
AcDbEntity
  8
USP-GEO
100
AcDbPolyline
 90
        2
 70
   129
 43
0.0
 10
2.526292769491604
 20
13.18793103857577
 10
2.526292769491604
 20
2.52970667863957
  0
LWPOLYLINE
  5
71
100
AcDbEntity
  8
USP-GEO
100
AcDbPolyline
 90
        3
 70
   128
 43
0.0
 10
2.526292769491604
 20
13.18793103857577
 10
2.389736403573138
 20
13.18793103857577
 10
2.389736403573138
 20
2.52970667863957
  0
LWPOLYLINE
  5
72
100
AcDbEntity
  8
USP-GEO
100
AcDbPolyline
 90
        9
 70
   128
 43
0.0
 10
2.871097593435727
 20
14.01068314323453
 10
2.871097593435727
 20
13.94240496027529
 10
2.802819410476494
 20
13.87412677731606
 10
2.802819410476494
 20
13.80584859435683
 10
2.458014586532371
 20
13.46445767956067
 10
2.389736403573138
 20
13.3279013136422
 10
2.389736403573138
 20
13.25962313068297
 10
2.389736403573138
 20
13.18793103857577
 10
2.389736403573138
 20
2.52970667863957
  0
LWPOLYLINE
  5
73
100
AcDbEntity
  8
USP-GEO
100
AcDbPolyline
 90
       11
 70
   128
 43
0.0
 10
2.116623671736206
 20
9.842300073573383
 10
1.98006730581774
 20
9.910578256532616
 10
1.775232756940049
 20
9.978856439491849
 10
1.502120025103117
 20
9.978856439491849
 10
1.229007293266185
 20
9.978856439491849
 10
1.024172744388486
 20
9.910578256532616
 10
0.887616378470021
 20
9.842300073573383
 10
0.887616378470021
 20
9.910578256532616
 10
0.887616378470021
 20
9.978856439491849
 10
0.9558945614292539
 20
9.978856439491849
 10
0.9558945614292539
 20
10.04713462245108
  0
LWPOLYLINE
  5
74
100
AcDbEntity
  8
USP-GEO
100
AcDbPolyline
 90
       13
 70
   128
 43
0.0
 10
2.048345488776973
 20
10.04713462245108
 10
2.048345488776973
 20
9.978856439491849
 10
2.116623671736206
 20
9.978856439491849
 10
2.116623671736206
 20
9.910578256532616
 10
2.116623671736206
 20
9.842300073573383
 10
2.048345488776973
 20
9.637465524695684
 10
1.911789122858515
 20
9.705743707654917
 10
1.775232756940049
 20
9.77402189061415
 10
1.502120025103117
 20
9.77402189061415
 10
1.297285476225418
 20
9.77402189061415
 10
1.092450927347719
 20
9.705743707654917
 10
0.9558945614292539
 20
9.637465524695684
 10
0.887616378470021
 20
9.842300073573383
  0
LWPOLYLINE
  5
75
100
AcDbEntity
  8
USP-GEO
100
AcDbPolyline
 90
        3
 70
   128
 43
0.0
 10
2.458014586532371
 20
2.184901854695446
 10
2.802819410476494
 20
1.706954573980823
 10
2.80623331962446
 20
1.706954573980823
  0
LWPOLYLINE
  5
76
100
AcDbEntity
  8
USP-GEO
100
AcDbPolyline
 90
       14
 70
   129
 43
0.0
 10
2.802819410476494
 20
1.706954573980823
 10
2.871097593435727
 20
1.570398208062357
 10
2.871097593435727
 20
1.433841842143891
 10
3.007653959354193
 20
1.433841842143891
 10
3.007653959354193
 20
1.570398208062357
 10
3.007653959354193
 20
1.63867639102159
 10
2.871097593435727
 20
1.843510939899282
 10
2.594570952450837
 20
2.253180037654679
 10
2.526292769491604
 20
2.393150312721104
 10
2.526292769491604
 20
2.52970667863957
 10
2.389736403573138
 20
2.52970667863957
 10
2.389736403573138
 20
2.321458220613912
 10
2.458014586532371
 20
2.184901854695446
 10
2.458014586532371
 20
2.116623671736213
  0
LWPOLYLINE
  5
77
100
AcDbEntity
  8
USP-GEO
100
AcDbPolyline
 90
        4
 70
   128
 43
0.0
 10
2.048345488776973
 20
0.4096690977553977
 10
2.048345488776973
 20
0.6827818295923294
 10
3.007653959354193
 20
0.6827818295923294
 10
3.007653959354193
 20
0.8193381955107952
  0
LWPOLYLINE
  5
78
100
AcDbEntity
  8
USP-GEO
100
AcDbPolyline
 90
        8
 70
   128
 43
0.0
 10
2.048345488776973
 20
0.2731127318369317
 10
3.007653959354193
 20
0.2731127318369317
 10
3.007653959354193
 20
0.6827818295923294
 10
3.007653959354193
 20
0.8193381955107952
 10
3.007653959354193
 20
1.433841842143891
 10
3.007653959354193
 20
0.8193381955107952
 10
1.911789122858515
 20
0.8193381955107952
 10
1.911789122858515
 20
1.433841842143891
  0
LWPOLYLINE
  5
79
100
AcDbEntity
  8
USP-GEO
100
AcDbPolyline
 90
        7
 70
   128
 43
0.0
 10
1.160729110306952
 20
1.365563659184658
 10
1.160729110306952
 20
1.502120025103124
 10
1.297285476225418
 20
1.63867639102159
 10
1.502120025103117
 20
1.706954573980823
 10
1.706954573980816
 20
1.63867639102159
 10
1.843510939899282
 20
1.502120025103124
 10
1.911789122858515
 20
1.365563659184658
  0
LWPOLYLINE
  5
7A
100
AcDbEntity
  8
USP-GEO
100
AcDbPolyline
 90
        5
 70
   128
 43
0.0
 10
1.024172744388486
 20
0.4096690977553977
 10
2.048345488776973
 20
0.4096690977553977
 10
2.048345488776973
 20
0.0
 10
2.048345488776973
 20
0.4096690977553977
 10
2.048345488776973
 20
0.6827818295923294
  0
LWPOLYLINE
  5
7B
100
AcDbEntity
  8
USP-GEO
100
AcDbPolyline
 90
        2
 70
   128
 43
0.0
 10
1.024172744388486
 20
0.0
 10
2.048345488776973
 20
0.0
  0
LWPOLYLINE
  5
7C
100
AcDbEntity
  8
USP-GEO
100
AcDbPolyline
 90
       10
 70
   128
 43
0.0
 10
1.160729110306952
 20
0.5462254636738635
 10
1.911789122858515
 20
0.5462254636738635
 10
1.911789122858515
 20
0.8193381955107952
 10
1.911789122858515
 20
1.433841842143891
 10
1.843510939899282
 20
1.570398208062357
 10
1.706954573980816
 20
1.706954573980823
 10
1.502120025103117
 20
1.775232756940049
 10
1.297285476225418
 20
1.706954573980823
 10
1.160729110306952
 20
1.570398208062357
 10
1.160729110306952
 20
1.433841842143891
  0
LWPOLYLINE
  5
7D
100
AcDbEntity
  8
USP-GEO
100
AcDbPolyline
 90
        2
 70
   129
 43
0.0
 10
1.502120025103117
 20
1.365563659184658
 10
1.502120025103117
 20
0.5462254636738635
  0
LWPOLYLINE
  5
7E
100
AcDbEntity
  8
USP-GEO
100
AcDbPolyline
 90
        2
 70
   128
 43
0.0
 10
1.502120025103117
 20
0.5462254636738635
 10
1.502120025103117
 20
1.365563659184658
  0
LWPOLYLINE
  5
7F
100
AcDbEntity
  8
USP-GEO
100
AcDbPolyline
 90
        2
 70
   129
 43
0.0
 10
1.160729110306952
 20
0.8193381955107952
 10
1.160729110306952
 20
0.5462254636738635
  0
LWPOLYLINE
  5
80
100
AcDbEntity
  8
USP-GEO
100
AcDbPolyline
 90
        2
 70
   129
 43
0.0
 10
1.160729110306952
 20
1.433841842143891
 10
1.160729110306952
 20
0.8193381955107952
  0
LWPOLYLINE
  5
81
100
AcDbEntity
  8
USP-GEO
100
AcDbPolyline
 90
        2
 70
   128
 43
0.0
 10
1.911789122858515
 20
0.8193381955107952
 10
1.911789122858515
 20
0.5462254636738635
  0
LWPOLYLINE
  5
82
100
AcDbEntity
  8
USP-GEO
100
AcDbPolyline
 90
        2
 70
   129
 43
0.0
 10
2.389736403573138
 20
2.393150312721104
 10
2.389736403573138
 20
2.52970667863957
  0
LWPOLYLINE
  5
83
100
AcDbEntity
  8
USP-GEO
100
AcDbPolyline
 90
        4
 70
   128
 43
0.0
 10
2.389736403573138
 20
2.393150312721104
 10
2.389736403573138
 20
2.253180037654679
 10
2.389736403573138
 20
2.184901854695446
 10
2.458014586532371
 20
2.116623671736213
  0
LWPOLYLINE
  5
84
100
AcDbEntity
  8
USP-GEO
100
AcDbPolyline
 90
       12
 70
   129
 43
0.0
 10
1.843510939899282
 20
8.200209773403841
 10
1.706954573980816
 20
8.268487956363074
 10
1.502120025103117
 20
8.268487956363074
 10
1.297285476225418
 20
8.268487956363074
 10
1.160729110306952
 20
8.200209773403841
 10
0.9558945614292539
 20
8.131931590444608
 10
1.092450927347719
 20
8.131931590444608
 10
1.297285476225418
 20
8.200209773403841
 10
1.502120025103117
 20
8.200209773403841
 10
1.775232756940049
 20
8.200209773403841
 10
1.911789122858515
 20
8.131931590444608
 10
2.048345488776973
 20
8.131931590444608
  0
LWPOLYLINE
  5
85
100
AcDbEntity
  8
USP-GEO
100
AcDbPolyline
 90
        8
 70
   128
 43
0.0
 10
2.116623671736206
 20
7.927097041566909
 10
1.98006730581774
 20
7.995375224526142
 10
1.775232756940049
 20
8.063653407485375
 10
1.502120025103117
 20
8.063653407485375
 10
1.229007293266185
 20
8.063653407485375
 10
1.024172744388486
 20
7.995375224526142
 10
0.887616378470021
 20
7.927097041566909
 10
0.9558945614292539
 20
7.72226249268921
  0
LWPOLYLINE
  5
86
100
AcDbEntity
  8
USP-GEO
100
AcDbPolyline
 90
       11
 70
   129
 43
0.0
 10
0.9558945614292539
 20
7.72226249268921
 10
1.092450927347719
 20
7.790540675648443
 10
1.297285476225418
 20
7.790540675648443
 10
1.502120025103117
 20
7.790540675648443
 10
1.775232756940049
 20
7.790540675648443
 10
1.911789122858515
 20
7.790540675648443
 10
2.048345488776973
 20
7.72226249268921
 10
1.911789122858515
 20
7.449149760852279
 10
1.638676391021583
 20
7.312593394933813
 10
1.365563659184651
 20
7.312593394933813
 10
1.092450927347719
 20
7.449149760852279
  0
LWPOLYLINE
  5
87
100
AcDbEntity
  8
USP-GEO
100
AcDbPolyline
 90
        6
 70
   128
 43
0.0
 10
2.048345488776973
 20
9.637465524695684
 10
1.911789122858515
 20
9.429217066670027
 10
1.638676391021583
 20
9.292660700751561
 10
1.365563659184651
 20
9.292660700751561
 10
1.092450927347719
 20
9.429217066670027
 10
0.9558945614292539
 20
9.637465524695684
  0
LWPOLYLINE
  5
88
100
AcDbEntity
  8
USP-GEO
100
AcDbPolyline
 90
        3
 70
   128
 43
0.0
 10
0.887616378470021
 20
7.927097041566909
 10
0.887616378470021
 20
7.995375224526142
 10
0.8910302876179869
 20
7.995375224526142
  0
LWPOLYLINE
  5
89
100
AcDbEntity
  8
USP-GEO
100
AcDbPolyline
 90
        3
 70
   128
 43
0.0
 10
0.887616378470021
 20
7.995375224526142
 10
0.9558945614292539
 20
8.063653407485375
 10
0.9558945614292539
 20
8.131931590444608
  0
LWPOLYLINE
  5
8A
100
AcDbEntity
  8
USP-GEO
100
AcDbPolyline
 90
        5
 70
   128
 43
0.0
 10
2.048345488776973
 20
7.72226249268921
 10
2.116623671736206
 20
7.927097041566909
 10
2.116623671736206
 20
7.995375224526142
 10
2.048345488776973
 20
8.063653407485375
 10
2.048345488776973
 20
8.131931590444608
  0
LWPOLYLINE
  5
8B
100
AcDbEntity
  8
USP-GEO
100
AcDbPolyline
 90
        2
 70
   128
 43
0.0
 10
2.116623671736206
 20
7.995375224526142
 10
2.120037580884172
 20
7.995375224526142
  0
LWPOLYLINE
  5
8C
100
AcDbEntity
  8
USP-GEO
100
AcDbPolyline
 90
        2
 70
   128
 43
0.0
 10
3.007653959354193
 20
0.2731127318369317
 10
3.007653959354193
 20
0.6827818295923294
  0
LWPOLYLINE
  5
8D
100
AcDbEntity
  8
USP-GEO
100
AcDbPolyline
 90
        3
 70
   128
 43
0.0
 10
3.007653959354193
 20
1.63867639102159
 10
3.007653959354193
 20
1.433841842143891
 10
3.007653959354193
 20
1.502120025103124
  0
LWPOLYLINE
  5
8E
100
AcDbEntity
  8
USP-GEO
100
AcDbPolyline
 90
        3
 70
   128
 43
0.0
 10
2.871097593435727
 20
1.502120025103124
 10
2.802819410476494
 20
1.63867639102159
 10
2.802819410476494
 20
1.706954573980823
  0
LWPOLYLINE
  5
8F
100
AcDbEntity
  8
USP-GEO
100
AcDbPolyline
 90
        4
 70
   128
 43
0.0
 10
2.526292769491604
 20
15.10313407058225
 10
2.594570952450837
 20
15.03485588762301
 10
2.594570952450837
 20
14.96657770466378
 10
2.526292769491604
 20
14.89829952170455
  0
LWPOLYLINE
  5
90
100
AcDbEntity
  8
USP-GEO
100
AcDbPolyline
 90
       14
 70
   129
 43
0.0
 10
1.229007293266185
 20
10.18369098836954
 10
1.160729110306952
 20
10.18369098836954
 10
0.9558945614292539
 20
10.04713462245108
 10
1.092450927347719
 20
10.11541280541031
 10
1.297285476225418
 20
10.11541280541031
 10
1.502120025103117
 20
10.11541280541031
 10
1.775232756940049
 20
10.11541280541031
 10
1.911789122858515
 20
10.11541280541031
 10
2.048345488776973
 20
10.04713462245108
 10
1.843510939899282
 20
10.18369098836954
 10
1.775232756940049
 20
10.18369098836954
 10
1.706954573980816
 20
10.18369098836954
 10
1.502120025103117
 20
10.18369098836954
 10
1.297285476225418
 20
10.18369098836954
  0
LWPOLYLINE
  5
91
100
AcDbEntity
  8
USP-GEO
100
AcDbPolyline
 90
       12
 70
   129
 43
0.0
 10
1.843510939899282
 20
12.09548011122805
 10
1.706954573980816
 20
12.09548011122805
 10
1.502120025103117
 20
12.16375829418729
 10
1.297285476225418
 20
12.09548011122805
 10
1.160729110306952
 20
12.09548011122805
 10
0.9558945614292539
 20
11.95892374530959
 10
1.092450927347719
 20
12.02720192826882
 10
1.297285476225418
 20
12.09548011122805
 10
1.502120025103117
 20
12.09548011122805
 10
1.775232756940049
 20
12.09548011122805
 10
1.911789122858515
 20
12.02720192826882
 10
2.048345488776973
 20
11.95892374530959
  0
LWPOLYLINE
  5
92
100
AcDbEntity
  8
USP-GEO
100
AcDbPolyline
 90
       10
 70
   128
 43
0.0
 10
2.116623671736206
 20
11.82236737939112
 10
1.98006730581774
 20
11.89064556235035
 10
1.775232756940049
 20
11.89064556235035
 10
1.502120025103117
 20
11.95892374530959
 10
1.229007293266185
 20
11.89064556235035
 10
1.024172744388486
 20
11.89064556235035
 10
0.887616378470021
 20
11.82236737939112
 10
0.887616378470021
 20
11.89064556235035
 10
0.9558945614292539
 20
11.95892374530959
 10
0.9593084705772199
 20
11.95892374530959
  0
LWPOLYLINE
  5
93
100
AcDbEntity
  8
USP-GEO
100
AcDbPolyline
 90
       11
 70
   128
 43
0.0
 10
2.048345488776973
 20
11.95892374530959
 10
2.116623671736206
 20
11.89064556235035
 10
2.116623671736206
 20
11.82236737939112
 10
2.048345488776973
 20
11.61753283051342
 10
1.911789122858515
 20
11.61753283051342
 10
1.775232756940049
 20
11.68581101347266
 10
1.502120025103117
 20
11.68581101347266
 10
1.297285476225418
 20
11.68581101347266
 10
1.092450927347719
 20
11.61753283051342
 10
0.9558945614292539
 20
11.61753283051342
 10
0.887616378470021
 20
11.82236737939112
  0
LWPOLYLINE
  5
94
100
AcDbEntity
  8
USP-GEO
100
AcDbPolyline
 90
        6
 70
   128
 43
0.0
 10
2.048345488776973
 20
11.61753283051342
 10
1.911789122858515
 20
11.3444200986765
 10
1.638676391021583
 20
11.20786373275803
 10
1.365563659184651
 20
11.20786373275803
 10
1.092450927347719
 20
11.3444200986765
 10
0.9558945614292539
 20
11.61753283051342
  0
LWPOLYLINE
  5
95
100
AcDbEntity
  8
USP-GEO
100
AcDbPolyline
 90
        2
 70
   128
 43
0.0
 10
2.116623671736206
 20
11.89064556235035
 10
2.120037580884172
 20
11.89064556235035
  0
LWPOLYLINE
  5
96
100
AcDbEntity
  8
USP-GEO
100
AcDbPolyline
 90
        9
 70
   128
 43
0.0
 10
2.529706678639563
 20
14.89829952170455
 10
2.526292769491604
 20
14.89829952170455
 10
2.458014586532371
 20
14.89829952170455
 10
2.458014586532371
 20
14.96657770466378
 10
2.389736403573138
 20
15.03485588762301
 10
2.458014586532371
 20
15.03485588762301
 10
2.458014586532371
 20
15.10313407058225
 10
2.526292769491604
 20
15.10313407058225
 10
2.529706678639563
 20
15.10313407058225
  0
LWPOLYLINE
  5
97
100
AcDbEntity
  8
USP-GEO
100
AcDbPolyline
 90
        2
 70
   128
 43
0.0
 10
0.9558945614292539
 20
18.99840440840647
 10
0.9593084705772199
 20
18.99840440840647
  0
LWPOLYLINE
  5
98
100
AcDbEntity
  8
USP-GEO
100
AcDbPolyline
 90
       11
 70
   128
 43
0.0
 10
0.9558945614292539
 20
18.861848042488
 10
0.9558945614292539
 20
18.93012622544723
 10
0.9558945614292539
 20
18.99840440840647
 10
1.024172744388486
 20
19.0666825913657
 10
1.024172744388486
 20
18.99840440840647
 10
1.092450927347719
 20
18.99840440840647
 10
1.092450927347719
 20
18.93012622544723
 10
1.024172744388486
 20
18.861848042488
 10
0.9558945614292539
 20
18.861848042488
 10
0.9558945614292539
 20
18.93012622544723
 10
0.9593084705772199
 20
18.93012622544723
  0
LWPOLYLINE
  5
99
100
AcDbEntity
  8
USP-GEO
100
AcDbPolyline
 90
        4
 70
   128
 43
0.0
 10
3.007653959354193
 20
14.01068314323453
 10
3.007653959354193
 20
13.94240496027529
 10
2.93937577639496
 20
13.80584859435683
 10
2.871097593435727
 20
13.73757041139759
  0
LWPOLYLINE
  5
9A
100
AcDbEntity
  8
USP-GEO
100
AcDbPolyline
 90
        4
 70
   128
 43
0.0
 10
2.93937577639496
 20
13.80584859435683
 10
3.007653959354193
 20
13.87412677731606
 10
3.007653959354193
 20
14.01068314323453
 10
3.011067868502159
 20
14.01068314323453
  0
LWPOLYLINE
  5
9B
100
AcDbEntity
  8
USP-GEO
100
AcDbPolyline
 90
        3
 70
   128
 43
0.0
 10
2.594570952450837
 20
13.39617949660144
 10
2.871097593435727
 20
13.73757041139759
 10
2.871097593435727
 20
13.66929222843836
  0
LWPOLYLINE
  5
9C
100
AcDbEntity
  8
USP-GEO
100
AcDbPolyline
 90
        2
 70
   128
 43
0.0
 10
2.594570952450837
 20
15.03485588762301
 10
2.597984861598796
 20
15.03485588762301
  0
LWPOLYLINE
  5
9D
100
AcDbEntity
  8
USP-GEO
100
AcDbPolyline
 90
        2
 70
   129
 43
0.0
 10
2.871097593435727
 20
14.01068314323453
 10
2.871097593435727
 20
14.14723950915299
  0
LWPOLYLINE
  5
9E
100
AcDbEntity
  8
USP-GEO
100
AcDbPolyline
 90
        2
 70
   128
 43
0.0
 10
3.007653959354193
 20
14.01068314323453
 10
3.007653959354193
 20
14.14723950915299
  0
LWPOLYLINE
  5
9F
100
AcDbEntity
  8
USP-GEO
100
AcDbPolyline
 90
        2
 70
   129
 43
0.0
 10
3.011067868502159
 20
14.01068314323453
 10
3.007653959354193
 20
14.01068314323453
  0
LWPOLYLINE
  5
A0
100
AcDbEntity
  8
USP-GEO
100
AcDbPolyline
 90
        7
 70
   128
 43
0.0
 10
2.458014586532371
 20
28.02136628646906
 10
2.526292769491604
 20
28.02136628646906
 10
2.594570952450837
 20
28.02136628646906
 10
2.594570952450837
 20
27.95308810350983
 10
2.594570952450837
 20
27.88480992055059
 10
2.526292769491604
 20
27.88480992055059
 10
2.458014586532371
 20
27.88480992055059
  0
LWPOLYLINE
  5
A1
100
AcDbEntity
  8
USP-GEO
100
AcDbPolyline
 90
        7
 70
   128
 43
0.0
 10
2.458014586532371
 20
31.02560633667529
 10
2.526292769491604
 20
31.02560633667529
 10
2.594570952450837
 20
31.02560633667529
 10
2.594570952450837
 20
30.95732815371605
 10
2.594570952450837
 20
30.88904997075682
 10
2.526292769491604
 20
30.88904997075682
 10
2.458014586532371
 20
30.88904997075682
  0
LWPOLYLINE
  5
A2
100
AcDbEntity
  8
USP-GEO
100
AcDbPolyline
 90
        7
 70
   128
 43
0.0
 10
1.98006730581774
 20
23.50817839286378
 10
2.048345488776973
 20
23.50817839286378
 10
2.116623671736206
 20
23.50817839286378
 10
2.116623671736206
 20
23.43990020990454
 10
2.048345488776973
 20
23.37162202694532
 10
1.98006730581774
 20
23.37162202694532
 10
1.911789122858515
 20
23.43990020990454
  0
LWPOLYLINE
  5
A3
100
AcDbEntity
  8
USP-GEO
100
AcDbPolyline
 90
        6
 70
   128
 43
0.0
 10
1.983481214965706
 20
23.50817839286378
 10
1.98006730581774
 20
23.50817839286378
 10
1.911789122858515
 20
23.50817839286378
 10
1.911789122858515
 20
23.43990020990454
 10
1.98006730581774
 20
23.37162202694532
 10
1.983481214965706
 20
23.37162202694532
  0
LWPOLYLINE
  5
A4
100
AcDbEntity
  8
USP-GEO
100
AcDbPolyline
 90
        7
 70
   128
 43
0.0
 10
1.027586653536452
 20
27.88480992055059
 10
1.024172744388486
 20
27.88480992055059
 10
0.9558945614292539
 20
27.88480992055059
 10
0.887616378470021
 20
27.88480992055059
 10
0.8193381955107881
 20
27.95308810350983
 10
0.887616378470021
 20
28.02136628646906
 10
0.8910302876179869
 20
28.02136628646906
  0
LWPOLYLINE
  5
A5
100
AcDbEntity
  8
USP-GEO
100
AcDbPolyline
 90
        4
 70
   128
 43
0.0
 10
0.887616378470021
 20
28.02136628646906
 10
0.9558945614292539
 20
28.02136628646906
 10
1.024172744388486
 20
28.02136628646906
 10
1.027586653536452
 20
28.02136628646906
  0
LWPOLYLINE
  5
A6
100
AcDbEntity
  8
USP-GEO
100
AcDbPolyline
 90
        7
 70
   128
 43
0.0
 10
0.9558945614292539
 20
28.02136628646906
 10
1.024172744388486
 20
28.02136628646906
 10
1.092450927347719
 20
28.02136628646906
 10
1.092450927347719
 20
27.95308810350983
 10
1.092450927347719
 20
27.88480992055059
 10
1.024172744388486
 20
27.88480992055059
 10
0.9558945614292539
 20
27.88480992055059
  0
LWPOLYLINE
  5
A7
100
AcDbEntity
  8
USP-GEO
100
AcDbPolyline
 90
        5
 70
   128
 43
0.0
 10
0.8910302876179869
 20
30.88904997075682
 10
0.887616378470021
 20
30.88904997075682
 10
0.8193381955107881
 20
30.95732815371605
 10
0.887616378470021
 20
31.02560633667529
 10
0.8910302876179869
 20
31.02560633667529
  0
LWPOLYLINE
  5
A8
100
AcDbEntity
  8
USP-GEO
100
AcDbPolyline
 90
        4
 70
   128
 43
0.0
 10
0.887616378470021
 20
31.02560633667529
 10
0.9558945614292539
 20
31.02560633667529
 10
1.024172744388486
 20
31.02560633667529
 10
1.027586653536452
 20
31.02560633667529
  0
LWPOLYLINE
  5
A9
100
AcDbEntity
  8
USP-GEO
100
AcDbPolyline
 90
        4
 70
   128
 43
0.0
 10
0.887616378470021
 20
30.88904997075682
 10
0.9558945614292539
 20
30.88904997075682
 10
1.024172744388486
 20
30.88904997075682
 10
1.027586653536452
 20
30.88904997075682
  0
LWPOLYLINE
  5
AA
100
AcDbEntity
  8
USP-GEO
100
AcDbPolyline
 90
        7
 70
   128
 43
0.0
 10
0.9558945614292539
 20
31.02560633667529
 10
1.024172744388486
 20
31.02560633667529
 10
1.092450927347719
 20
31.02560633667529
 10
1.092450927347719
 20
30.95732815371605
 10
1.092450927347719
 20
30.88904997075682
 10
1.024172744388486
 20
30.88904997075682
 10
0.9558945614292539
 20
30.88904997075682
  0
LWPOLYLINE
  5
AB
100
AcDbEntity
  8
USP-GEO
100
AcDbPolyline
 90
       11
 70
   128
 43
0.0
 10
2.120037580884172
 20
26.51583235221798
 10
2.116623671736206
 20
26.51583235221798
 10
1.98006730581774
 20
26.51583235221798
 10
2.116623671736206
 20
26.51583235221798
 10
2.184901854695439
 20
26.51583235221798
 10
2.184901854695439
 20
26.44755416925874
 10
2.184901854695439
 20
26.37927598629951
 10
2.116623671736206
 20
26.37927598629951
 10
1.98006730581774
 20
26.37927598629951
 10
2.116623671736206
 20
26.37927598629951
 10
2.120037580884172
 20
26.37927598629951
  0
LWPOLYLINE
  5
AC
100
AcDbEntity
  8
USP-GEO
100
AcDbPolyline
 90
        7
 70
   128
 43
0.0
 10
1.983481214965706
 20
26.51583235221798
 10
1.98006730581774
 20
26.51583235221798
 10
1.911789122858515
 20
26.51583235221798
 10
1.911789122858515
 20
26.44755416925874
 10
1.911789122858515
 20
26.37927598629951
 10
1.98006730581774
 20
26.37927598629951
 10
1.983481214965706
 20
26.37927598629951
  0
LWPOLYLINE
  5
AD
100
AcDbEntity
  8
USP-GEO
100
AcDbPolyline
 90
       11
 70
   128
 43
0.0
 10
2.529706678639563
 20
27.88480992055059
 10
2.526292769491604
 20
27.88480992055059
 10
2.458014586532371
 20
27.88480992055059
 10
2.389736403573138
 20
27.88480992055059
 10
2.321458220613905
 20
27.88480992055059
 10
2.321458220613905
 20
27.95308810350983
 10
2.321458220613905
 20
28.02136628646906
 10
2.389736403573138
 20
28.02136628646906
 10
2.458014586532371
 20
28.02136628646906
 10
2.526292769491604
 20
28.02136628646906
 10
2.529706678639563
 20
28.02136628646906
  0
LWPOLYLINE
  5
AE
100
AcDbEntity
  8
USP-GEO
100
AcDbPolyline
 90
       11
 70
   128
 43
0.0
 10
2.120037580884172
 20
29.52348631157217
 10
2.116623671736206
 20
29.52348631157217
 10
1.98006730581774
 20
29.52348631157217
 10
2.116623671736206
 20
29.52348631157217
 10
2.184901854695439
 20
29.52348631157217
 10
2.184901854695439
 20
29.45520812861293
 10
2.184901854695439
 20
29.38692994565371
 10
2.116623671736206
 20
29.38692994565371
 10
1.98006730581774
 20
29.38692994565371
 10
2.116623671736206
 20
29.38692994565371
 10
2.120037580884172
 20
29.38692994565371
  0
LWPOLYLINE
  5
AF
100
AcDbEntity
  8
USP-GEO
100
AcDbPolyline
 90
        7
 70
   128
 43
0.0
 10
1.983481214965706
 20
29.52348631157217
 10
1.98006730581774
 20
29.52348631157217
 10
1.911789122858515
 20
29.52348631157217
 10
1.911789122858515
 20
29.45520812861293
 10
1.911789122858515
 20
29.38692994565371
 10
1.98006730581774
 20
29.38692994565371
 10
1.983481214965706
 20
29.38692994565371
  0
LWPOLYLINE
  5
B0
100
AcDbEntity
  8
USP-GEO
100
AcDbPolyline
 90
       11
 70
   128
 43
0.0
 10
2.529706678639563
 20
31.02560633667529
 10
2.526292769491604
 20
31.02560633667529
 10
2.458014586532371
 20
31.02560633667529
 10
2.389736403573138
 20
31.02560633667529
 10
2.321458220613905
 20
31.02560633667529
 10
2.321458220613905
 20
30.95732815371605
 10
2.321458220613905
 20
30.88904997075682
 10
2.389736403573138
 20
30.88904997075682
 10
2.458014586532371
 20
30.88904997075682
 10
2.526292769491604
 20
30.88904997075682
 10
2.529706678639563
 20
30.88904997075682
  0
LWPOLYLINE
  5
B1
100
AcDbEntity
  8
USP-GEO
100
AcDbPolyline
 90
       13
 70
   128
 43
0.0
 10
0.6179175557810553
 20
44.55834219919519
 10
0.6145036466330894
 20
44.55834219919519
 10
0.4779472807146306
 20
44.55834219919519
 10
0.6145036466330894
 20
44.55834219919519
 10
0.6827818295923223
 20
44.49006401623595
 10
0.6827818295923223
 20
44.42178583327672
 10
0.6145036466330894
 20
44.42178583327672
 10
0.6145036466330894
 20
44.35350765031748
 10
0.4779472807146306
 20
44.35350765031748
 10
0.4779472807146306
 20
44.42178583327672
 10
0.4096690977553977
 20
44.42178583327672
 10
0.4096690977553977
 20
44.49006401623595
 10
0.4130830069033565
 20
44.49006401623595
  0
LWPOLYLINE
  5
B2
100
AcDbEntity
  8
USP-GEO
100
AcDbPolyline
 90
       13
 70
   128
 43
0.0
 10
0.6179175557810553
 20
47.56599615854938
 10
0.6145036466330894
 20
47.56599615854938
 10
0.4779472807146306
 20
47.56599615854938
 10
0.6145036466330894
 20
47.56599615854938
 10
0.6827818295923223
 20
47.49771797559015
 10
0.6827818295923223
 20
47.42943979263091
 10
0.6145036466330894
 20
47.42943979263091
 10
0.6145036466330894
 20
47.36116160967168
 10
0.4779472807146306
 20
47.36116160967168
 10
0.4779472807146306
 20
47.42943979263091
 10
0.4096690977553977
 20
47.42943979263091
 10
0.4096690977553977
 20
47.49771797559015
 10
0.4130830069033565
 20
47.49771797559015
  0
LWPOLYLINE
  5
B3
100
AcDbEntity
  8
USP-GEO
100
AcDbPolyline
 90
       13
 70
   128
 43
0.0
 10
0.6179175557810553
 20
50.57365011790358
 10
0.6145036466330894
 20
50.57365011790358
 10
0.4779472807146306
 20
50.57365011790358
 10
0.6145036466330894
 20
50.57365011790358
 10
0.6827818295923223
 20
50.50537193494434
 10
0.6827818295923223
 20
50.43709375198512
 10
0.6145036466330894
 20
50.43709375198512
 10
0.6145036466330894
 20
50.36881556902589
 10
0.4779472807146306
 20
50.36881556902589
 10
0.4779472807146306
 20
50.43709375198512
 10
0.4096690977553977
 20
50.43709375198512
 10
0.4096690977553977
 20
50.50537193494434
 10
0.4130830069033565
 20
50.50537193494434
  0
LWPOLYLINE
  5
B4
100
AcDbEntity
  8
USP-GEO
100
AcDbPolyline
 90
       11
 70
   128
 43
0.0
 10
0.6179175557810553
 20
32.53114027092637
 10
0.6145036466330894
 20
32.53114027092637
 10
0.4779472807146306
 20
32.53114027092637
 10
0.6145036466330894
 20
32.53114027092637
 10
0.6827818295923223
 20
32.53114027092637
 10
0.6827818295923223
 20
32.46286208796714
 10
0.6827818295923223
 20
32.3945839050079
 10
0.6145036466330894
 20
32.3945839050079
 10
0.4779472807146306
 20
32.3945839050079
 10
0.6145036466330894
 20
32.3945839050079
 10
0.6179175557810553
 20
32.3945839050079
  0
LWPOLYLINE
  5
B5
100
AcDbEntity
  8
USP-GEO
100
AcDbPolyline
 90
       11
 70
   128
 43
0.0
 10
0.6179175557810553
 20
35.53879423028056
 10
0.6145036466330894
 20
35.53879423028056
 10
0.4779472807146306
 20
35.53879423028056
 10
0.6145036466330894
 20
35.53879423028056
 10
0.6827818295923223
 20
35.53879423028056
 10
0.6827818295923223
 20
35.47051604732133
 10
0.6827818295923223
 20
35.4022378643621
 10
0.6145036466330894
 20
35.4022378643621
 10
0.4779472807146306
 20
35.4022378643621
 10
0.6145036466330894
 20
35.4022378643621
 10
0.6179175557810553
 20
35.4022378643621
  0
LWPOLYLINE
  5
B6
100
AcDbEntity
  8
USP-GEO
100
AcDbPolyline
 90
       11
 70
   128
 43
0.0
 10
0.6179175557810553
 20
38.54303428048679
 10
0.6145036466330894
 20
38.54303428048679
 10
0.4779472807146306
 20
38.54303428048679
 10
0.6145036466330894
 20
38.54303428048679
 10
0.6827818295923223
 20
38.54303428048679
 10
0.6827818295923223
 20
38.47475609752756
 10
0.6827818295923223
 20
38.40647791456833
 10
0.6145036466330894
 20
38.40647791456833
 10
0.4779472807146306
 20
38.40647791456833
 10
0.6145036466330894
 20
38.40647791456833
 10
0.6179175557810553
 20
38.40647791456833
  0
LWPOLYLINE
  5
B7
100
AcDbEntity
  8
USP-GEO
100
AcDbPolyline
 90
       10
 70
   128
 43
0.0
 10
0.6179175557810553
 20
41.55068823984099
 10
0.6145036466330894
 20
41.55068823984099
 10
0.4779472807146306
 20
41.55068823984099
 10
0.6145036466330894
 20
41.55068823984099
 10
0.6827818295923223
 20
41.48241005688176
 10
0.6827818295923223
 20
41.41413187392252
 10
0.6145036466330894
 20
41.41413187392252
 10
0.4779472807146306
 20
41.41413187392252
 10
0.6145036466330894
 20
41.41413187392252
 10
0.6179175557810553
 20
41.41413187392252
  0
LWPOLYLINE
  5
B8
100
AcDbEntity
  8
USP-GEO
100
AcDbPolyline
 90
       12
 70
   128
 43
0.0
 10
0.4813611898625894
 20
53.37646952838007
 10
0.4779472807146306
 20
53.37646952838007
 10
0.4096690977553977
 20
53.44474771133931
 10
0.4096690977553977
 20
53.51302589429854
 10
0.4779472807146306
 20
53.58130407725777
 10
0.6145036466330894
 20
53.58130407725777
 10
0.6827818295923223
 20
53.51302589429854
 10
0.6827818295923223
 20
53.44474771133931
 10
0.6145036466330894
 20
53.37646952838007
 10
0.4779472807146306
 20
53.37646952838007
 10
0.6145036466330894
 20
53.37646952838007
 10
0.6179175557810553
 20
53.37646952838007
  0
LWPOLYLINE
  5
B9
100
AcDbEntity
  8
USP-GEO
100
AcDbPolyline
 90
        7
 70
   128
 43
0.0
 10
0.4813611898625894
 20
32.53114027092637
 10
0.4779472807146306
 20
32.53114027092637
 10
0.4096690977553977
 20
32.53114027092637
 10
0.4096690977553977
 20
32.46286208796714
 10
0.4096690977553977
 20
32.3945839050079
 10
0.4779472807146306
 20
32.3945839050079
 10
0.4813611898625894
 20
32.3945839050079
  0
LWPOLYLINE
  5
BA
100
AcDbEntity
  8
USP-GEO
100
AcDbPolyline
 90
        7
 70
   128
 43
0.0
 10
0.4813611898625894
 20
35.53879423028056
 10
0.4779472807146306
 20
35.53879423028056
 10
0.4096690977553977
 20
35.53879423028056
 10
0.4096690977553977
 20
35.47051604732133
 10
0.4096690977553977
 20
35.4022378643621
 10
0.4779472807146306
 20
35.4022378643621
 10
0.4813611898625894
 20
35.4022378643621
  0
LWPOLYLINE
  5
BB
100
AcDbEntity
  8
USP-GEO
100
AcDbPolyline
 90
        7
 70
   128
 43
0.0
 10
0.4813611898625894
 20
38.54303428048679
 10
0.4779472807146306
 20
38.54303428048679
 10
0.4096690977553977
 20
38.54303428048679
 10
0.4096690977553977
 20
38.47475609752756
 10
0.4096690977553977
 20
38.40647791456833
 10
0.4779472807146306
 20
38.40647791456833
 10
0.4813611898625894
 20
38.40647791456833
  0
LWPOLYLINE
  5
BC
100
AcDbEntity
  8
USP-GEO
100
AcDbPolyline
 90
        5
 70
   128
 43
0.0
 10
0.4813611898625894
 20
41.41413187392252
 10
0.4779472807146306
 20
41.41413187392252
 10
0.4096690977553977
 20
41.41413187392252
 10
0.4096690977553977
 20
41.48241005688176
 10
0.4130830069033565
 20
41.48241005688176
  0
LWPOLYLINE
  5
BD
100
AcDbEntity
  8
USP-GEO
100
AcDbPolyline
 90
        3
 70
   128
 43
0.0
 10
0.4096690977553977
 20
41.48241005688176
 10
0.4779472807146306
 20
41.55068823984099
 10
0.4813611898625894
 20
41.55068823984099
  0
LWPOLYLINE
  5
BE
100
AcDbEntity
  8
USP-GEO
100
AcDbPolyline
 90
        3
 70
   128
 43
0.0
 10
0.4096690977553977
 20
44.49006401623595
 10
0.4779472807146306
 20
44.55834219919519
 10
0.4813611898625894
 20
44.55834219919519
  0
LWPOLYLINE
  5
BF
100
AcDbEntity
  8
USP-GEO
100
AcDbPolyline
 90
        2
 70
   128
 43
0.0
 10
0.6145036466330894
 20
44.35350765031748
 10
0.4779472807146306
 20
44.35350765031748
  0
LWPOLYLINE
  5
C0
100
AcDbEntity
  8
USP-GEO
100
AcDbPolyline
 90
        2
 70
   128
 43
0.0
 10
0.6145036466330894
 20
47.36116160967168
 10
0.4779472807146306
 20
47.36116160967168
  0
LWPOLYLINE
  5
C1
100
AcDbEntity
  8
USP-GEO
100
AcDbPolyline
 90
        3
 70
   128
 43
0.0
 10
0.4096690977553977
 20
47.49771797559015
 10
0.4779472807146306
 20
47.56599615854938
 10
0.4813611898625894
 20
47.56599615854938
  0
LWPOLYLINE
  5
C2
100
AcDbEntity
  8
USP-GEO
100
AcDbPolyline
 90
        3
 70
   128
 43
0.0
 10
0.4096690977553977
 20
50.50537193494434
 10
0.4779472807146306
 20
50.57365011790358
 10
0.4813611898625894
 20
50.57365011790358
  0
LWPOLYLINE
  5
C3
100
AcDbEntity
  8
USP-GEO
100
AcDbPolyline
 90
        2
 70
   128
 43
0.0
 10
0.6145036466330894
 20
50.36881556902589
 10
0.4779472807146306
 20
50.36881556902589
  0
LWPOLYLINE
  5
C4
100
AcDbEntity
  8
USP-GEO
100
AcDbPolyline
 90
        4
 70
   128
 43
0.0
 10
0.6179175557810553
 20
53.58130407725777
 10
0.6145036466330894
 20
53.58130407725777
 10
0.4779472807146306
 20
53.58130407725777
 10
0.4813611898625894
 20
53.58130407725777
  0
LWPOLYLINE
  5
C5
100
AcDbEntity
  8
USP-GEO
100
AcDbPolyline
 90
        7
 70
   128
 43
0.0
 10
2.458014586532371
 20
34.03326029602948
 10
2.526292769491604
 20
34.03326029602948
 10
2.594570952450837
 20
34.03326029602948
 10
2.594570952450837
 20
33.96498211307025
 10
2.594570952450837
 20
33.89670393011101
 10
2.526292769491604
 20
33.89670393011101
 10
2.458014586532371
 20
33.89670393011101
  0
LWPOLYLINE
  5
C6
100
AcDbEntity
  8
USP-GEO
100
AcDbPolyline
 90
        7
 70
   128
 43
0.0
 10
2.458014586532371
 20
37.04091425538368
 10
2.526292769491604
 20
37.04091425538368
 10
2.594570952450837
 20
37.04091425538368
 10
2.594570952450837
 20
36.97263607242445
 10
2.594570952450837
 20
36.90435788946521
 10
2.526292769491604
 20
36.90435788946521
 10
2.458014586532371
 20
36.90435788946521
  0
LWPOLYLINE
  5
C7
100
AcDbEntity
  8
USP-GEO
100
AcDbPolyline
 90
        6
 70
   128
 43
0.0
 10
2.458014586532371
 20
40.04856821473787
 10
2.526292769491604
 20
40.04856821473787
 10
2.594570952450837
 20
39.98029003177864
 10
2.594570952450837
 20
39.91201184881941
 10
2.526292769491604
 20
39.91201184881941
 10
2.458014586532371
 20
39.91201184881941
  0
LWPOLYLINE
  5
C8
100
AcDbEntity
  8
USP-GEO
100
AcDbPolyline
 90
        5
 70
   128
 43
0.0
 10
0.8910302876179869
 20
33.89670393011101
 10
0.887616378470021
 20
33.89670393011101
 10
0.8193381955107881
 20
33.96498211307025
 10
0.887616378470021
 20
34.03326029602948
 10
0.8910302876179869
 20
34.03326029602948
  0
LWPOLYLINE
  5
C9
100
AcDbEntity
  8
USP-GEO
100
AcDbPolyline
 90
        7
 70
   128
 43
0.0
 10
0.9558945614292539
 20
34.03326029602948
 10
1.024172744388486
 20
34.03326029602948
 10
1.092450927347719
 20
34.03326029602948
 10
1.092450927347719
 20
33.96498211307025
 10
1.092450927347719
 20
33.89670393011101
 10
1.024172744388486
 20
33.89670393011101
 10
0.9558945614292539
 20
33.89670393011101
  0
LWPOLYLINE
  5
CA
100
AcDbEntity
  8
USP-GEO
100
AcDbPolyline
 90
        4
 70
   128
 43
0.0
 10
0.887616378470021
 20
33.89670393011101
 10
0.9558945614292539
 20
33.89670393011101
 10
1.024172744388486
 20
33.89670393011101
 10
1.027586653536452
 20
33.89670393011101
  0
LWPOLYLINE
  5
CB
100
AcDbEntity
  8
USP-GEO
100
AcDbPolyline
 90
        4
 70
   128
 43
0.0
 10
0.887616378470021
 20
34.03326029602948
 10
0.9558945614292539
 20
34.03326029602948
 10
1.024172744388486
 20
34.03326029602948
 10
1.027586653536452
 20
34.03326029602948
  0
LWPOLYLINE
  5
CC
100
AcDbEntity
  8
USP-GEO
100
AcDbPolyline
 90
       11
 70
   128
 43
0.0
 10
2.529706678639563
 20
34.03326029602948
 10
2.526292769491604
 20
34.03326029602948
 10
2.458014586532371
 20
34.03326029602948
 10
2.389736403573138
 20
34.03326029602948
 10
2.321458220613905
 20
34.03326029602948
 10
2.321458220613905
 20
33.96498211307025
 10
2.321458220613905
 20
33.89670393011101
 10
2.389736403573138
 20
33.89670393011101
 10
2.458014586532371
 20
33.89670393011101
 10
2.526292769491604
 20
33.89670393011101
 10
2.529706678639563
 20
33.89670393011101
  0
LWPOLYLINE
  5
CD
100
AcDbEntity
  8
USP-GEO
100
AcDbPolyline
 90
       11
 70
   128
 43
0.0
 10
2.120037580884172
 20
32.53114027092637
 10
2.116623671736206
 20
32.53114027092637
 10
1.98006730581774
 20
32.53114027092637
 10
2.116623671736206
 20
32.53114027092637
 10
2.184901854695439
 20
32.53114027092637
 10
2.184901854695439
 20
32.46286208796714
 10
2.184901854695439
 20
32.3945839050079
 10
2.116623671736206
 20
32.3945839050079
 10
1.98006730581774
 20
32.3945839050079
 10
2.116623671736206
 20
32.3945839050079
 10
2.120037580884172
 20
32.3945839050079
  0
LWPOLYLINE
  5
CE
100
AcDbEntity
  8
USP-GEO
100
AcDbPolyline
 90
        7
 70
   128
 43
0.0
 10
1.983481214965706
 20
32.53114027092637
 10
1.98006730581774
 20
32.53114027092637
 10
1.911789122858515
 20
32.53114027092637
 10
1.911789122858515
 20
32.46286208796714
 10
1.911789122858515
 20
32.3945839050079
 10
1.98006730581774
 20
32.3945839050079
 10
1.983481214965706
 20
32.3945839050079
  0
LWPOLYLINE
  5
CF
100
AcDbEntity
  8
USP-GEO
100
AcDbPolyline
 90
       11
 70
   128
 43
0.0
 10
2.120037580884172
 20
35.53879423028056
 10
2.116623671736206
 20
35.53879423028056
 10
1.98006730581774
 20
35.53879423028056
 10
2.116623671736206
 20
35.53879423028056
 10
2.184901854695439
 20
35.53879423028056
 10
2.184901854695439
 20
35.47051604732133
 10
2.184901854695439
 20
35.4022378643621
 10
2.116623671736206
 20
35.4022378643621
 10
1.98006730581774
 20
35.4022378643621
 10
2.116623671736206
 20
35.4022378643621
 10
2.120037580884172
 20
35.4022378643621
  0
LWPOLYLINE
  5
D0
100
AcDbEntity
  8
USP-GEO
100
AcDbPolyline
 90
        7
 70
   128
 43
0.0
 10
1.983481214965706
 20
35.53879423028056
 10
1.98006730581774
 20
35.53879423028056
 10
1.911789122858515
 20
35.53879423028056
 10
1.911789122858515
 20
35.47051604732133
 10
1.911789122858515
 20
35.4022378643621
 10
1.98006730581774
 20
35.4022378643621
 10
1.983481214965706
 20
35.4022378643621
  0
LWPOLYLINE
  5
D1
100
AcDbEntity
  8
USP-GEO
100
AcDbPolyline
 90
        5
 70
   128
 43
0.0
 10
0.8910302876179869
 20
36.90435788946521
 10
0.887616378470021
 20
36.90435788946521
 10
0.8193381955107881
 20
36.97263607242445
 10
0.887616378470021
 20
37.04091425538368
 10
0.8910302876179869
 20
37.04091425538368
  0
LWPOLYLINE
  5
D2
100
AcDbEntity
  8
USP-GEO
100
AcDbPolyline
 90
        4
 70
   128
 43
0.0
 10
0.887616378470021
 20
37.04091425538368
 10
0.9558945614292539
 20
37.04091425538368
 10
1.024172744388486
 20
37.04091425538368
 10
1.027586653536452
 20
37.04091425538368
  0
LWPOLYLINE
  5
D3
100
AcDbEntity
  8
USP-GEO
100
AcDbPolyline
 90
        4
 70
   128
 43
0.0
 10
0.887616378470021
 20
36.90435788946521
 10
0.9558945614292539
 20
36.90435788946521
 10
1.024172744388486
 20
36.90435788946521
 10
1.027586653536452
 20
36.90435788946521
  0
LWPOLYLINE
  5
D4
100
AcDbEntity
  8
USP-GEO
100
AcDbPolyline
 90
        7
 70
   128
 43
0.0
 10
0.9558945614292539
 20
37.04091425538368
 10
1.024172744388486
 20
37.04091425538368
 10
1.092450927347719
 20
37.04091425538368
 10
1.092450927347719
 20
36.97263607242445
 10
1.092450927347719
 20
36.90435788946521
 10
1.024172744388486
 20
36.90435788946521
 10
0.9558945614292539
 20
36.90435788946521
  0
LWPOLYLINE
  5
D5
100
AcDbEntity
  8
USP-GEO
100
AcDbPolyline
 90
        8
 70
   128
 43
0.0
 10
0.8910302876179869
 20
39.91201184881941
 10
0.887616378470021
 20
39.91201184881941
 10
0.8193381955107881
 20
39.98029003177864
 10
0.887616378470021
 20
39.98029003177864
 10
0.887616378470021
 20
40.04856821473787
 10
0.9558945614292539
 20
40.04856821473787
 10
1.024172744388486
 20
40.04856821473787
 10
1.027586653536452
 20
40.04856821473787
  0
LWPOLYLINE
  5
D6
100
AcDbEntity
  8
USP-GEO
100
AcDbPolyline
 90
        4
 70
   128
 43
0.0
 10
0.887616378470021
 20
39.91201184881941
 10
0.9558945614292539
 20
39.91201184881941
 10
1.024172744388486
 20
39.91201184881941
 10
1.027586653536452
 20
39.91201184881941
  0
LWPOLYLINE
  5
D7
100
AcDbEntity
  8
USP-GEO
100
AcDbPolyline
 90
        6
 70
   128
 43
0.0
 10
0.9558945614292539
 20
40.04856821473787
 10
1.024172744388486
 20
40.04856821473787
 10
1.092450927347719
 20
39.98029003177864
 10
1.092450927347719
 20
39.91201184881941
 10
1.024172744388486
 20
39.91201184881941
 10
0.9558945614292539
 20
39.91201184881941
  0
LWPOLYLINE
  5
D8
100
AcDbEntity
  8
USP-GEO
100
AcDbPolyline
 90
        2
 70
   128
 43
0.0
 10
1.092450927347719
 20
39.98029003177864
 10
1.095864836495685
 20
39.98029003177864
  0
LWPOLYLINE
  5
D9
100
AcDbEntity
  8
USP-GEO
100
AcDbPolyline
 90
        2
 70
   128
 43
0.0
 10
0.6827818295923223
 20
41.48241005688176
 10
0.6861957387402882
 20
41.48241005688176
  0
LWPOLYLINE
  5
DA
100
AcDbEntity
  8
USP-GEO
100
AcDbPolyline
 90
       11
 70
   128
 43
0.0
 10
2.120037580884172
 20
38.54303428048679
 10
2.116623671736206
 20
38.54303428048679
 10
1.98006730581774
 20
38.54303428048679
 10
2.116623671736206
 20
38.54303428048679
 10
2.184901854695439
 20
38.54303428048679
 10
2.184901854695439
 20
38.47475609752756
 10
2.184901854695439
 20
38.40647791456833
 10
2.116623671736206
 20
38.40647791456833
 10
1.98006730581774
 20
38.40647791456833
 10
2.116623671736206
 20
38.40647791456833
 10
2.120037580884172
 20
38.40647791456833
  0
LWPOLYLINE
  5
DB
100
AcDbEntity
  8
USP-GEO
100
AcDbPolyline
 90
        7
 70
   128
 43
0.0
 10
1.983481214965706
 20
38.54303428048679
 10
1.98006730581774
 20
38.54303428048679
 10
1.911789122858515
 20
38.54303428048679
 10
1.911789122858515
 20
38.47475609752756
 10
1.911789122858515
 20
38.40647791456833
 10
1.98006730581774
 20
38.40647791456833
 10
1.983481214965706
 20
38.40647791456833
  0
LWPOLYLINE
  5
DC
100
AcDbEntity
  8
USP-GEO
100
AcDbPolyline
 90
       11
 70
   128
 43
0.0
 10
2.529706678639563
 20
37.04091425538368
 10
2.526292769491604
 20
37.04091425538368
 10
2.458014586532371
 20
37.04091425538368
 10
2.389736403573138
 20
37.04091425538368
 10
2.321458220613905
 20
37.04091425538368
 10
2.321458220613905
 20
36.97263607242445
 10
2.321458220613905
 20
36.90435788946521
 10
2.389736403573138
 20
36.90435788946521
 10
2.458014586532371
 20
36.90435788946521
 10
2.526292769491604
 20
36.90435788946521
 10
2.529706678639563
 20
36.90435788946521
  0
LWPOLYLINE
  5
DD
100
AcDbEntity
  8
USP-GEO
100
AcDbPolyline
 90
       10
 70
   128
 43
0.0
 10
2.120037580884172
 20
41.55068823984099
 10
2.116623671736206
 20
41.55068823984099
 10
1.98006730581774
 20
41.55068823984099
 10
2.116623671736206
 20
41.55068823984099
 10
2.184901854695439
 20
41.48241005688176
 10
2.184901854695439
 20
41.41413187392252
 10
2.116623671736206
 20
41.41413187392252
 10
1.98006730581774
 20
41.41413187392252
 10
2.116623671736206
 20
41.41413187392252
 10
2.120037580884172
 20
41.41413187392252
  0
LWPOLYLINE
  5
DE
100
AcDbEntity
  8
USP-GEO
100
AcDbPolyline
 90
        5
 70
   128
 43
0.0
 10
1.983481214965706
 20
41.41413187392252
 10
1.98006730581774
 20
41.41413187392252
 10
1.911789122858515
 20
41.41413187392252
 10
1.911789122858515
 20
41.48241005688176
 10
1.915203032006473
 20
41.48241005688176
  0
LWPOLYLINE
  5
DF
100
AcDbEntity
  8
USP-GEO
100
AcDbPolyline
 90
        3
 70
   128
 43
0.0
 10
1.911789122858515
 20
41.48241005688176
 10
1.98006730581774
 20
41.55068823984099
 10
1.983481214965706
 20
41.55068823984099
  0
LWPOLYLINE
  5
E0
100
AcDbEntity
  8
USP-GEO
100
AcDbPolyline
 90
        7
 70
   128
 43
0.0
 10
2.529706678639563
 20
39.91201184881941
 10
2.526292769491604
 20
39.91201184881941
 10
2.458014586532371
 20
39.91201184881941
 10
2.389736403573138
 20
39.91201184881941
 10
2.321458220613905
 20
39.91201184881941
 10
2.321458220613905
 20
39.98029003177864
 10
2.324872129761871
 20
39.98029003177864
  0
LWPOLYLINE
  5
E1
100
AcDbEntity
  8
USP-GEO
100
AcDbPolyline
 90
        5
 70
   128
 43
0.0
 10
2.321458220613905
 20
39.98029003177864
 10
2.389736403573138
 20
40.04856821473787
 10
2.458014586532371
 20
40.04856821473787
 10
2.526292769491604
 20
40.04856821473787
 10
2.529706678639563
 20
40.04856821473787
  0
LWPOLYLINE
  5
E2
100
AcDbEntity
  8
USP-GEO
100
AcDbPolyline
 90
        2
 70
   128
 43
0.0
 10
2.184901854695439
 20
41.48241005688176
 10
2.188315763843405
 20
41.48241005688176
  0
LWPOLYLINE
  5
E3
100
AcDbEntity
  8
USP-GEO
100
AcDbPolyline
 90
        2
 70
   128
 43
0.0
 10
2.594570952450837
 20
39.98029003177864
 10
2.597984861598796
 20
39.98029003177864
  0
LWPOLYLINE
  5
E4
100
AcDbEntity
  8
USP-GEO
100
AcDbPolyline
 90
       11
 70
   128
 43
0.0
 10
2.458014586532371
 20
46.06387613344627
 10
2.526292769491604
 20
46.06387613344627
 10
2.594570952450837
 20
45.99559795048704
 10
2.594570952450837
 20
45.9273197675278
 10
2.526292769491604
 20
45.9273197675278
 10
2.526292769491604
 20
45.85904158456857
 10
2.458014586532371
 20
45.85904158456857
 10
2.389736403573138
 20
45.9273197675278
 10
2.321458220613905
 20
45.9273197675278
 10
2.321458220613905
 20
45.99559795048704
 10
2.324872129761871
 20
45.99559795048704
  0
LWPOLYLINE
  5
E5
100
AcDbEntity
  8
USP-GEO
100
AcDbPolyline
 90
       11
 70
   128
 43
0.0
 10
2.458014586532371
 20
49.06811618365249
 10
2.526292769491604
 20
49.06811618365249
 10
2.594570952450837
 20
48.99983800069326
 10
2.594570952450837
 20
48.93155981773404
 10
2.526292769491604
 20
48.93155981773404
 10
2.526292769491604
 20
48.86328163477481
 10
2.458014586532371
 20
48.86328163477481
 10
2.389736403573138
 20
48.93155981773404
 10
2.321458220613905
 20
48.93155981773404
 10
2.321458220613905
 20
48.99983800069326
 10
2.324872129761871
 20
48.99983800069326
  0
LWPOLYLINE
  5
E6
100
AcDbEntity
  8
USP-GEO
100
AcDbPolyline
 90
        6
 70
   128
 43
0.0
 10
2.458014586532371
 20
43.05622217409207
 10
2.526292769491604
 20
43.05622217409207
 10
2.594570952450837
 20
42.98794399113283
 10
2.594570952450837
 20
42.9196658081736
 10
2.526292769491604
 20
42.9196658081736
 10
2.458014586532371
 20
42.9196658081736
  0
LWPOLYLINE
  5
E7
100
AcDbEntity
  8
USP-GEO
100
AcDbPolyline
 90
       14
 70
   128
 43
0.0
 10
2.458014586532371
 20
52.07577014300669
 10
2.526292769491604
 20
52.07577014300669
 10
2.594570952450837
 20
52.00749196004746
 10
2.594570952450837
 20
51.93921377708822
 10
2.526292769491604
 20
51.93921377708822
 10
2.526292769491604
 20
51.87093559412899
 10
2.458014586532371
 20
51.87093559412899
 10
2.389736403573138
 20
51.93921377708822
 10
2.321458220613905
 20
51.93921377708822
 10
2.321458220613905
 20
52.00749196004746
 10
2.389736403573138
 20
52.07577014300669
 10
2.458014586532371
 20
52.07577014300669
 10
2.526292769491604
 20
52.07577014300669
 10
2.529706678639563
 20
52.07577014300669
  0
LWPOLYLINE
  5
E8
100
AcDbEntity
  8
USP-GEO
100
AcDbPolyline
 90
       13
 70
   128
 43
0.0
 10
2.120037580884172
 20
47.56599615854938
 10
2.116623671736206
 20
47.56599615854938
 10
1.98006730581774
 20
47.56599615854938
 10
2.116623671736206
 20
47.56599615854938
 10
2.184901854695439
 20
47.49771797559015
 10
2.184901854695439
 20
47.42943979263091
 10
2.116623671736206
 20
47.42943979263091
 10
2.116623671736206
 20
47.36116160967168
 10
1.98006730581774
 20
47.36116160967168
 10
1.98006730581774
 20
47.42943979263091
 10
1.911789122858515
 20
47.42943979263091
 10
1.911789122858515
 20
47.49771797559015
 10
1.915203032006473
 20
47.49771797559015
  0
LWPOLYLINE
  5
E9
100
AcDbEntity
  8
USP-GEO
100
AcDbPolyline
 90
        8
 70
   128
 43
0.0
 10
0.8910302876179869
 20
42.9196658081736
 10
0.887616378470021
 20
42.9196658081736
 10
0.8193381955107881
 20
42.98794399113283
 10
0.887616378470021
 20
42.98794399113283
 10
0.887616378470021
 20
43.05622217409207
 10
0.9558945614292539
 20
43.05622217409207
 10
1.024172744388486
 20
43.05622217409207
 10
1.027586653536452
 20
43.05622217409207
  0
LWPOLYLINE
  5
EA
100
AcDbEntity
  8
USP-GEO
100
AcDbPolyline
 90
        4
 70
   128
 43
0.0
 10
0.887616378470021
 20
42.9196658081736
 10
0.9558945614292539
 20
42.9196658081736
 10
1.024172744388486
 20
42.9196658081736
 10
1.027586653536452
 20
42.9196658081736
  0
LWPOLYLINE
  5
EB
100
AcDbEntity
  8
USP-GEO
100
AcDbPolyline
 90
        6
 70
   128
 43
0.0
 10
0.9558945614292539
 20
43.05622217409207
 10
1.024172744388486
 20
43.05622217409207
 10
1.092450927347719
 20
42.98794399113283
 10
1.092450927347719
 20
42.9196658081736
 10
1.024172744388486
 20
42.9196658081736
 10
0.9558945614292539
 20
42.9196658081736
  0
LWPOLYLINE
  5
EC
100
AcDbEntity
  8
USP-GEO
100
AcDbPolyline
 90
        2
 70
   128
 43
0.0
 10
1.092450927347719
 20
42.98794399113283
 10
1.095864836495685
 20
42.98794399113283
  0
LWPOLYLINE
  5
ED
100
AcDbEntity
  8
USP-GEO
100
AcDbPolyline
 90
        2
 70
   128
 43
0.0
 10
0.6827818295923223
 20
44.49006401623595
 10
0.6861957387402882
 20
44.49006401623595
  0
LWPOLYLINE
  5
EE
100
AcDbEntity
  8
USP-GEO
100
AcDbPolyline
 90
        8
 70
   128
 43
0.0
 10
0.8910302876179869
 20
45.9273197675278
 10
0.887616378470021
 20
45.9273197675278
 10
0.8193381955107881
 20
45.99559795048704
 10
0.887616378470021
 20
45.99559795048704
 10
0.887616378470021
 20
46.06387613344627
 10
0.9558945614292539
 20
46.06387613344627
 10
1.024172744388486
 20
46.06387613344627
 10
1.027586653536452
 20
46.06387613344627
  0
LWPOLYLINE
  5
EF
100
AcDbEntity
  8
USP-GEO
100
AcDbPolyline
 90
        8
 70
   128
 43
0.0
 10
0.9558945614292539
 20
46.06387613344627
 10
1.024172744388486
 20
46.06387613344627
 10
1.092450927347719
 20
45.99559795048704
 10
1.092450927347719
 20
45.9273197675278
 10
1.024172744388486
 20
45.9273197675278
 10
1.024172744388486
 20
45.85904158456857
 10
0.9558945614292539
 20
45.85904158456857
 10
0.887616378470021
 20
45.9273197675278
  0
LWPOLYLINE
  5
F0
100
AcDbEntity
  8
USP-GEO
100
AcDbPolyline
 90
        2
 70
   128
 43
0.0
 10
1.092450927347719
 20
45.99559795048704
 10
1.095864836495685
 20
45.99559795048704
  0
LWPOLYLINE
  5
F1
100
AcDbEntity
  8
USP-GEO
100
AcDbPolyline
 90
        2
 70
   128
 43
0.0
 10
1.024172744388486
 20
45.85904158456857
 10
0.9558945614292539
 20
45.85904158456857
  0
LWPOLYLINE
  5
F2
100
AcDbEntity
  8
USP-GEO
100
AcDbPolyline
 90
       13
 70
   128
 43
0.0
 10
2.120037580884172
 20
44.55834219919519
 10
2.116623671736206
 20
44.55834219919519
 10
1.98006730581774
 20
44.55834219919519
 10
2.116623671736206
 20
44.55834219919519
 10
2.184901854695439
 20
44.49006401623595
 10
2.184901854695439
 20
44.42178583327672
 10
2.116623671736206
 20
44.42178583327672
 10
2.116623671736206
 20
44.35350765031748
 10
1.98006730581774
 20
44.35350765031748
 10
1.98006730581774
 20
44.42178583327672
 10
1.911789122858515
 20
44.42178583327672
 10
1.911789122858515
 20
44.49006401623595
 10
1.915203032006473
 20
44.49006401623595
  0
LWPOLYLINE
  5
F3
100
AcDbEntity
  8
USP-GEO
100
AcDbPolyline
 90
        2
 70
   128
 43
0.0
 10
2.116623671736206
 20
44.35350765031748
 10
1.98006730581774
 20
44.35350765031748
  0
LWPOLYLINE
  5
F4
100
AcDbEntity
  8
USP-GEO
100
AcDbPolyline
 90
        3
 70
   128
 43
0.0
 10
1.911789122858515
 20
44.49006401623595
 10
1.98006730581774
 20
44.55834219919519
 10
1.983481214965706
 20
44.55834219919519
  0
LWPOLYLINE
  5
F5
100
AcDbEntity
  8
USP-GEO
100
AcDbPolyline
 90
        7
 70
   128
 43
0.0
 10
2.529706678639563
 20
42.9196658081736
 10
2.526292769491604
 20
42.9196658081736
 10
2.458014586532371
 20
42.9196658081736
 10
2.389736403573138
 20
42.9196658081736
 10
2.321458220613905
 20
42.9196658081736
 10
2.321458220613905
 20
42.98794399113283
 10
2.324872129761871
 20
42.98794399113283
  0
LWPOLYLINE
  5
F6
100
AcDbEntity
  8
USP-GEO
100
AcDbPolyline
 90
        5
 70
   128
 43
0.0
 10
2.321458220613905
 20
42.98794399113283
 10
2.389736403573138
 20
43.05622217409207
 10
2.458014586532371
 20
43.05622217409207
 10
2.526292769491604
 20
43.05622217409207
 10
2.529706678639563
 20
43.05622217409207
  0
LWPOLYLINE
  5
F7
100
AcDbEntity
  8
USP-GEO
100
AcDbPolyline
 90
        2
 70
   128
 43
0.0
 10
2.184901854695439
 20
44.49006401623595
 10
2.188315763843405
 20
44.49006401623595
  0
LWPOLYLINE
  5
F8
100
AcDbEntity
  8
USP-GEO
100
AcDbPolyline
 90
        2
 70
   128
 43
0.0
 10
2.116623671736206
 20
47.36116160967168
 10
1.98006730581774
 20
47.36116160967168
  0
LWPOLYLINE
  5
F9
100
AcDbEntity
  8
USP-GEO
100
AcDbPolyline
 90
        5
 70
   128
 43
0.0
 10
2.321458220613905
 20
45.99559795048704
 10
2.389736403573138
 20
46.06387613344627
 10
2.458014586532371
 20
46.06387613344627
 10
2.526292769491604
 20
46.06387613344627
 10
2.529706678639563
 20
46.06387613344627
  0
LWPOLYLINE
  5
FA
100
AcDbEntity
  8
USP-GEO
100
AcDbPolyline
 90
        2
 70
   128
 43
0.0
 10
2.526292769491604
 20
45.85904158456857
 10
2.458014586532371
 20
45.85904158456857
  0
LWPOLYLINE
  5
FB
100
AcDbEntity
  8
USP-GEO
100
AcDbPolyline
 90
        2
 70
   128
 43
0.0
 10
0.6827818295923223
 20
47.49771797559015
 10
0.6861957387402882
 20
47.49771797559015
  0
LWPOLYLINE
  5
FC
100
AcDbEntity
  8
USP-GEO
100
AcDbPolyline
 90
        8
 70
   128
 43
0.0
 10
0.8910302876179869
 20
48.93155981773404
 10
0.887616378470021
 20
48.93155981773404
 10
0.8193381955107881
 20
48.99983800069326
 10
0.887616378470021
 20
48.99983800069326
 10
0.887616378470021
 20
49.06811618365249
 10
0.9558945614292539
 20
49.06811618365249
 10
1.024172744388486
 20
49.06811618365249
 10
1.027586653536452
 20
49.06811618365249
  0
LWPOLYLINE
  5
FD
100
AcDbEntity
  8
USP-GEO
100
AcDbPolyline
 90
        8
 70
   128
 43
0.0
 10
0.9558945614292539
 20
49.06811618365249
 10
1.024172744388486
 20
49.06811618365249
 10
1.092450927347719
 20
48.99983800069326
 10
1.092450927347719
 20
48.93155981773404
 10
1.024172744388486
 20
48.93155981773404
 10
1.024172744388486
 20
48.86328163477481
 10
0.9558945614292539
 20
48.86328163477481
 10
0.887616378470021
 20
48.93155981773404
  0
LWPOLYLINE
  5
FE
100
AcDbEntity
  8
USP-GEO
100
AcDbPolyline
 90
        2
 70
   128
 43
0.0
 10
1.092450927347719
 20
48.99983800069326
 10
1.095864836495685
 20
48.99983800069326
  0
LWPOLYLINE
  5
FF
100
AcDbEntity
  8
USP-GEO
100
AcDbPolyline
 90
        2
 70
   128
 43
0.0
 10
1.024172744388486
 20
48.86328163477481
 10
0.9558945614292539
 20
48.86328163477481
  0
LWPOLYLINE
  5
100
100
AcDbEntity
  8
USP-GEO
100
AcDbPolyline
 90
        2
 70
   128
 43
0.0
 10
0.6827818295923223
 20
50.50537193494434
 10
0.6861957387402882
 20
50.50537193494434
  0
LWPOLYLINE
  5
101
100
AcDbEntity
  8
USP-GEO
100
AcDbPolyline
 90
        8
 70
   128
 43
0.0
 10
1.027586653536452
 20
52.07577014300669
 10
1.024172744388486
 20
52.07577014300669
 10
0.9558945614292539
 20
52.07577014300669
 10
0.887616378470021
 20
52.07577014300669
 10
0.887616378470021
 20
52.00749196004746
 10
0.8193381955107881
 20
52.00749196004746
 10
0.887616378470021
 20
51.93921377708822
 10
0.8910302876179869
 20
51.93921377708822
  0
LWPOLYLINE
  5
102
100
AcDbEntity
  8
USP-GEO
100
AcDbPolyline
 90
        8
 70
   128
 43
0.0
 10
0.9558945614292539
 20
52.07577014300669
 10
1.024172744388486
 20
52.07577014300669
 10
1.092450927347719
 20
52.00749196004746
 10
1.092450927347719
 20
51.93921377708822
 10
1.024172744388486
 20
51.93921377708822
 10
1.024172744388486
 20
51.87093559412899
 10
0.9558945614292539
 20
51.87093559412899
 10
0.887616378470021
 20
51.93921377708822
  0
LWPOLYLINE
  5
103
100
AcDbEntity
  8
USP-GEO
100
AcDbPolyline
 90
        2
 70
   128
 43
0.0
 10
1.092450927347719
 20
52.00749196004746
 10
1.095864836495685
 20
52.00749196004746
  0
LWPOLYLINE
  5
104
100
AcDbEntity
  8
USP-GEO
100
AcDbPolyline
 90
        2
 70
   128
 43
0.0
 10
1.024172744388486
 20
51.87093559412899
 10
0.9558945614292539
 20
51.87093559412899
  0
LWPOLYLINE
  5
105
100
AcDbEntity
  8
USP-GEO
100
AcDbPolyline
 90
        3
 70
   128
 43
0.0
 10
1.911789122858515
 20
47.49771797559015
 10
1.98006730581774
 20
47.56599615854938
 10
1.983481214965706
 20
47.56599615854938
  0
LWPOLYLINE
  5
106
100
AcDbEntity
  8
USP-GEO
100
AcDbPolyline
 90
        2
 70
   128
 43
0.0
 10
2.184901854695439
 20
47.49771797559015
 10
2.188315763843405
 20
47.49771797559015
  0
LWPOLYLINE
  5
107
100
AcDbEntity
  8
USP-GEO
100
AcDbPolyline
 90
        5
 70
   128
 43
0.0
 10
2.321458220613905
 20
48.99983800069326
 10
2.389736403573138
 20
49.06811618365249
 10
2.458014586532371
 20
49.06811618365249
 10
2.526292769491604
 20
49.06811618365249
 10
2.529706678639563
 20
49.06811618365249
  0
LWPOLYLINE
  5
108
100
AcDbEntity
  8
USP-GEO
100
AcDbPolyline
 90
        2
 70
   128
 43
0.0
 10
2.526292769491604
 20
48.86328163477481
 10
2.458014586532371
 20
48.86328163477481
  0
LWPOLYLINE
  5
109
100
AcDbEntity
  8
USP-GEO
100
AcDbPolyline
 90
       13
 70
   128
 43
0.0
 10
2.120037580884172
 20
50.57365011790358
 10
2.116623671736206
 20
50.57365011790358
 10
1.98006730581774
 20
50.57365011790358
 10
2.116623671736206
 20
50.57365011790358
 10
2.184901854695439
 20
50.50537193494434
 10
2.184901854695439
 20
50.43709375198512
 10
2.116623671736206
 20
50.43709375198512
 10
2.116623671736206
 20
50.36881556902589
 10
1.98006730581774
 20
50.36881556902589
 10
1.98006730581774
 20
50.43709375198512
 10
1.911789122858515
 20
50.43709375198512
 10
1.911789122858515
 20
50.50537193494434
 10
1.915203032006473
 20
50.50537193494434
  0
LWPOLYLINE
  5
10A
100
AcDbEntity
  8
USP-GEO
100
AcDbPolyline
 90
        2
 70
   128
 43
0.0
 10
2.116623671736206
 20
50.36881556902589
 10
1.98006730581774
 20
50.36881556902589
  0
LWPOLYLINE
  5
10B
100
AcDbEntity
  8
USP-GEO
100
AcDbPolyline
 90
        3
 70
   128
 43
0.0
 10
1.911789122858515
 20
50.50537193494434
 10
1.98006730581774
 20
50.57365011790358
 10
1.983481214965706
 20
50.57365011790358
  0
LWPOLYLINE
  5
10C
100
AcDbEntity
  8
USP-GEO
100
AcDbPolyline
 90
        2
 70
   128
 43
0.0
 10
2.184901854695439
 20
50.50537193494434
 10
2.188315763843405
 20
50.50537193494434
  0
LWPOLYLINE
  5
10D
100
AcDbEntity
  8
USP-GEO
100
AcDbPolyline
 90
        2
 70
   128
 43
0.0
 10
2.526292769491604
 20
51.87093559412899
 10
2.458014586532371
 20
51.87093559412899
  0
LWPOLYLINE
  5
10E
100
AcDbEntity
  8
USP-GEO
100
AcDbPolyline
 90
        2
 70
   128
 43
0.0
 10
2.594570952450837
 20
42.98794399113283
 10
2.597984861598796
 20
42.98794399113283
  0
LWPOLYLINE
  5
10F
100
AcDbEntity
  8
USP-GEO
100
AcDbPolyline
 90
        2
 70
   128
 43
0.0
 10
2.594570952450837
 20
45.99559795048704
 10
2.597984861598796
 20
45.99559795048704
  0
LWPOLYLINE
  5
110
100
AcDbEntity
  8
USP-GEO
100
AcDbPolyline
 90
        2
 70
   128
 43
0.0
 10
2.594570952450837
 20
48.99983800069326
 10
2.597984861598796
 20
48.99983800069326
  0
LWPOLYLINE
  5
111
100
AcDbEntity
  8
USP-GEO
100
AcDbPolyline
 90
        2
 70
   128
 43
0.0
 10
2.594570952450837
 20
52.00749196004746
 10
2.597984861598796
 20
52.00749196004746
  0
LWPOLYLINE
  5
112
100
AcDbEntity
  8
USP-GEO
100
AcDbPolyline
 90
        2
 70
   128
 43
0.0
 10
0.6827818295923223
 20
53.51302589429854
 10
0.6861957387402882
 20
53.51302589429854
  0
LWPOLYLINE
  5
113
100
AcDbEntity
  8
USP-GEO
100
AcDbPolyline
 90
       10
 70
   128
 43
0.0
 10
2.120037580884172
 20
53.58130407725777
 10
2.116623671736206
 20
53.58130407725777
 10
1.98006730581774
 20
53.58130407725777
 10
2.116623671736206
 20
53.58130407725777
 10
2.184901854695439
 20
53.51302589429854
 10
2.184901854695439
 20
53.44474771133931
 10
2.116623671736206
 20
53.37646952838007
 10
1.98006730581774
 20
53.37646952838007
 10
2.116623671736206
 20
53.37646952838007
 10
2.120037580884172
 20
53.37646952838007
  0
LWPOLYLINE
  5
114
100
AcDbEntity
  8
USP-GEO
100
AcDbPolyline
 90
        4
 70
   128
 43
0.0
 10
1.983481214965706
 20
53.58130407725777
 10
1.98006730581774
 20
53.58130407725777
 10
1.911789122858515
 20
53.51302589429854
 10
1.915203032006473
 20
53.51302589429854
  0
LWPOLYLINE
  5
115
100
AcDbEntity
  8
USP-GEO
100
AcDbPolyline
 90
        4
 70
   128
 43
0.0
 10
1.911789122858515
 20
53.51302589429854
 10
1.911789122858515
 20
53.44474771133931
 10
1.98006730581774
 20
53.37646952838007
 10
1.983481214965706
 20
53.37646952838007
  0
LWPOLYLINE
  5
116
100
AcDbEntity
  8
USP-GEO
100
AcDbPolyline
 90
        2
 70
   128
 43
0.0
 10
2.184901854695439
 20
53.51302589429854
 10
2.188315763843405
 20
53.51302589429854
  0
ENDBLK
  5
118
100
AcDbEntity
  8
0
100
AcDbBlockEnd
  0
BLOCK
  5
156
100
AcDbEntity
  8
0
100
AcDbBlockBegin
  2
STAD14RJ_S
 70
     0
 10
0.0
 20
0.0
 30
0.0
  3
STAD14RJ_S
  1

  0
LWPOLYLINE
  5
11B
100
AcDbEntity
  8
USP-GEO
100
AcDbPolyline
 90
       11
 70
   128
 43
0.0
 10
4.919443082212708
 20
13.05137467265731
 10
4.919443082212708
 20
13.11965285561654
 10
4.919443082212708
 20
13.25962313068297
 10
4.987721265171941
 20
13.3279013136422
 10
5.055999448131174
 20
13.66929222843836
 10
5.124277631090407
 20
13.80584859435683
 10
5.124277631090407
 20
13.87412677731606
 10
5.124277631090407
 20
14.01068314323453
 10
5.19255581404964
 20
14.14723950915299
 10
5.19255581404964
 20
53.51302589429854
 10
5.055999448131174
 20
53.51302589429854
  0
LWPOLYLINE
  5
11C
100
AcDbEntity
  8
USP-GEO
100
AcDbPolyline
 90
       20
 70
   128
 43
0.0
 10
5.19255581404964
 20
53.92269499205394
 10
5.19255581404964
 20
53.51302589429854
 10
5.19255581404964
 20
14.14723950915299
 10
5.124277631090407
 20
14.01068314323453
 10
5.124277631090407
 20
13.87412677731606
 10
5.124277631090407
 20
13.80584859435683
 10
5.055999448131174
 20
13.66929222843836
 10
4.987721265171941
 20
13.3279013136422
 10
4.919443082212708
 20
13.25962313068297
 10
4.919443082212708
 20
13.11965285561654
 10
4.919443082212708
 20
13.05137467265731
 10
2.188315763843405
 20
2.321458220613912
 10
2.188315763843405
 20
2.253180037654679
 10
2.120037580884172
 20
2.116623671736213
 10
2.120037580884172
 20
2.04834548877698
 10
2.051759397924939
 20
1.63867639102159
 10
1.983481214965706
 20
1.570398208062357
 10
1.983481214965706
 20
1.502120025103124
 10
1.983481214965706
 20
1.365563659184658
 10
1.710368483128782
 20
0.2731127318369317
  0
LWPOLYLINE
  5
11D
100
AcDbEntity
  8
USP-GEO
100
AcDbPolyline
 90
       12
 70
   129
 43
0.0
 10
4.987721265171941
 20
14.01068314323453
 10
4.851164899253475
 20
13.94240496027529
 10
4.919443082212708
 20
13.94240496027529
 10
4.987721265171941
 20
14.01068314323453
 10
4.851164899253475
 20
13.94240496027529
 10
4.919443082212708
 20
13.94240496027529
 10
4.987721265171941
 20
14.01068314323453
 10
5.055999448131174
 20
14.14723950915299
 10
5.055999448131174
 20
53.51302589429854
 10
5.055999448131174
 20
53.92269499205394
 10
5.055999448131174
 20
53.51302589429854
 10
5.055999448131174
 20
14.14723950915299
  0
LWPOLYLINE
  5
11E
100
AcDbEntity
  8
USP-GEO
100
AcDbPolyline
 90
        2
 70
   129
 43
0.0
 10
1.573812117210316
 20
2.52970667863957
 10
4.304939435579619
 20
13.18793103857577
  0
LWPOLYLINE
  5
11F
100
AcDbEntity
  8
USP-GEO
100
AcDbPolyline
 90
       12
 70
   128
 43
0.0
 10
4.304939435579619
 20
13.18793103857577
 10
4.782886716294243
 20
13.05137467265731
 10
4.919443082212708
 20
13.05137467265731
 10
2.188315763843405
 20
2.321458220613912
 10
2.188315763843405
 20
2.253180037654679
 10
2.120037580884172
 20
2.116623671736213
 10
2.120037580884172
 20
2.04834548877698
 10
2.051759397924939
 20
1.63867639102159
 10
1.983481214965706
 20
1.570398208062357
 10
1.983481214965706
 20
1.502120025103124
 10
1.983481214965706
 20
1.365563659184658
 10
1.84692484904724
 20
1.433841842143891
  0
TEXT
  5
120
100
AcDbEntity
  8
USP-TXT
100
AcDbText
 10
-1.939677211073725
 20
-2.874553032895832
 30
0.0
 40
0.5
  1
STAD14RJ - SIDE VIEW
 72
     1
 11
2.893656122259606
 21
-2.874553032895832
 31
0.0
100
AcDbText
  0
LWPOLYLINE
  5
121
100
AcDbEntity
  8
USP-GEO
100
AcDbPolyline
 90
       14
 70
   128
 43
0.0
 10
2.051759397924939
 20
1.843510939899282
 10
2.324872129761871
 20
1.775232756940049
 10
2.324872129761871
 20
1.706954573980823
 10
2.256593946802638
 20
1.570398208062357
 10
2.188315763843405
 20
1.297285476225425
 10
1.983481214965706
 20
1.365563659184658
 10
1.710368483128782
 20
0.2731127318369317
 10
0.0682781829592329
 20
0.6827818295923294
 10
0.1365563659184659
 20
0.8193381955107952
 10
1.573812117210316
 20
0.4096690977553977
 10
1.84692484904724
 20
1.433841842143891
 10
1.573812117210316
 20
0.4096690977553977
 10
0.1365563659184659
 20
0.8193381955107952
 10
0.0682781829592329
 20
0.5462254636738635
  0
LWPOLYLINE
  5
122
100
AcDbEntity
  8
USP-GEO
100
AcDbPolyline
 90
        3
 70
   128
 43
0.0
 10
1.710368483128782
 20
0.2731127318369317
 10
0.0682781829592329
 20
0.6827818295923294
 10
0.0
 20
0.4096690977553977
  0
LWPOLYLINE
  5
123
100
AcDbEntity
  8
USP-GEO
100
AcDbPolyline
 90
        2
 70
   129
 43
0.0
 10
1.642090300169549
 20
0.0
 10
0.0
 20
0.4096690977553977
  0
LWPOLYLINE
  5
124
100
AcDbEntity
  8
USP-GEO
100
AcDbPolyline
 90
        4
 70
   128
 43
0.0
 10
0.0
 20
0.4096690977553977
 10
0.0682781829592329
 20
0.6827818295923294
 10
0.1365563659184659
 20
0.8193381955107952
 10
0.0682781829592329
 20
0.5462254636738635
  0
LWPOLYLINE
  5
125
100
AcDbEntity
  8
USP-GEO
100
AcDbPolyline
 90
        2
 70
   129
 43
0.0
 10
0.0716920921071989
 20
0.5462254636738635
 10
0.0682781829592329
 20
0.5462254636738635
  0
LWPOLYLINE
  5
126
100
AcDbEntity
  8
USP-GEO
100
AcDbPolyline
 90
        3
 70
   128
 43
0.0
 10
2.188315763843405
 20
2.321458220613912
 10
2.051759397924939
 20
2.393150312721104
 10
2.051759397924939
 20
2.253180037654679
  0
LWPOLYLINE
  5
127
100
AcDbEntity
  8
USP-GEO
100
AcDbPolyline
 90
        4
 70
   129
 43
0.0
 10
1.915203032006473
 20
0.2048345488776988
 10
1.710368483128782
 20
0.2731127318369317
 10
1.915203032006473
 20
0.2048345488776988
 10
2.188315763843405
 20
1.297285476225425
  0
LWPOLYLINE
  5
128
100
AcDbEntity
  8
USP-GEO
100
AcDbPolyline
 90
        3
 70
   128
 43
0.0
 10
1.915203032006473
 20
1.775232756940049
 10
1.710368483128782
 20
1.843510939899282
 10
1.642090300169549
 20
2.253180037654679
  0
LWPOLYLINE
  5
129
100
AcDbEntity
  8
USP-GEO
100
AcDbPolyline
 90
        7
 70
   128
 43
0.0
 10
1.983481214965706
 20
2.184901854695446
 10
1.915203032006473
 20
1.775232756940049
 10
1.915203032006473
 20
1.63867639102159
 10
1.84692484904724
 20
1.570398208062357
 10
1.84692484904724
 20
1.433841842143891
 10
1.778646666088008
 20
1.63867639102159
 10
1.710368483128782
 20
1.843510939899282
  0
LWPOLYLINE
  5
12A
100
AcDbEntity
  8
USP-GEO
100
AcDbPolyline
 90
        7
 70
   128
 43
0.0
 10
2.051759397924939
 20
2.184901854695446
 10
2.051759397924939
 20
2.253180037654679
 10
1.983481214965706
 20
2.184901854695446
 10
1.915203032006473
 20
1.775232756940049
 10
1.915203032006473
 20
1.63867639102159
 10
1.84692484904724
 20
1.63867639102159
 10
1.84692484904724
 20
1.502120025103124
  0
LWPOLYLINE
  5
12B
100
AcDbEntity
  8
USP-GEO
100
AcDbPolyline
 90
       10
 70
   128
 43
0.0
 10
1.84692484904724
 20
1.570398208062357
 10
1.915203032006473
 20
1.63867639102159
 10
1.84692484904724
 20
1.63867639102159
 10
1.84692484904724
 20
1.502120025103124
 10
1.84692484904724
 20
1.433841842143891
 10
1.778646666088008
 20
1.63867639102159
 10
1.710368483128782
 20
1.843510939899282
 10
1.642090300169549
 20
2.253180037654679
 10
1.642090300169549
 20
2.393150312721104
 10
1.573812117210316
 20
2.52970667863957
  0
LWPOLYLINE
  5
12C
100
AcDbEntity
  8
USP-GEO
100
AcDbPolyline
 90
        2
 70
   129
 43
0.0
 10
1.710368483128782
 20
0.2731127318369317
 10
1.642090300169549
 20
0.0
  0
LWPOLYLINE
  5
12D
100
AcDbEntity
  8
USP-GEO
100
AcDbPolyline
 90
        2
 70
   128
 43
0.0
 10
2.051759397924939
 20
1.63867639102159
 10
1.915203032006473
 20
1.706954573980823
  0
LWPOLYLINE
  5
12E
100
AcDbEntity
  8
USP-GEO
100
AcDbPolyline
 90
        2
 70
   128
 43
0.0
 10
2.051759397924939
 20
1.775232756940049
 10
2.055173307072905
 20
1.775232756940049
  0
LWPOLYLINE
  5
12F
100
AcDbEntity
  8
USP-GEO
100
AcDbPolyline
 90
        2
 70
   129
 43
0.0
 10
2.051759397924939
 20
1.775232756940049
 10
2.051759397924939
 20
1.843510939899282
  0
LWPOLYLINE
  5
130
100
AcDbEntity
  8
USP-GEO
100
AcDbPolyline
 90
        7
 70
   129
 43
0.0
 10
1.573812117210316
 20
2.52970667863957
 10
1.642090300169549
 20
2.393150312721104
 10
1.642090300169549
 20
2.253180037654679
 10
1.983481214965706
 20
2.184901854695446
 10
2.051759397924939
 20
2.253180037654679
 10
2.051759397924939
 20
2.321458220613912
 10
2.051759397924939
 20
2.393150312721104
  0
LWPOLYLINE
  5
131
100
AcDbEntity
  8
USP-GEO
100
AcDbPolyline
 90
        3
 70
   128
 43
0.0
 10
2.051759397924939
 20
2.321458220613912
 10
2.051759397924939
 20
2.253180037654679
 10
2.051759397924939
 20
2.184901854695446
  0
LWPOLYLINE
  5
132
100
AcDbEntity
  8
USP-GEO
100
AcDbPolyline
 90
        2
 70
   129
 43
0.0
 10
1.983481214965706
 20
2.116623671736213
 10
2.051759397924939
 20
2.184901854695446
  0
LWPOLYLINE
  5
133
100
AcDbEntity
  8
USP-GEO
100
AcDbPolyline
 90
        2
 70
   128
 43
0.0
 10
2.120037580884172
 20
2.04834548877698
 10
1.983481214965706
 20
2.116623671736213
  0
LWPOLYLINE
  5
134
100
AcDbEntity
  8
USP-GEO
100
AcDbPolyline
 90
        4
 70
   128
 43
0.0
 10
2.188315763843405
 20
1.297285476225425
 10
2.256593946802638
 20
1.570398208062357
 10
2.324872129761871
 20
1.706954573980823
 10
2.324872129761871
 20
1.775232756940049
  0
LWPOLYLINE
  5
135
100
AcDbEntity
  8
USP-GEO
100
AcDbPolyline
 90
        6
 70
   128
 43
0.0
 10
3.963548520783454
 20
9.360938883710794
 10
4.031826703742687
 20
9.49749524962926
 10
4.031826703742687
 20
9.637465524695684
 10
4.10010488670192
 20
9.842300073573383
 10
4.031826703742687
 20
9.637465524695684
 10
4.035240612890646
 20
9.637465524695684
  0
LWPOLYLINE
  5
136
100
AcDbEntity
  8
USP-GEO
100
AcDbPolyline
 90
        2
 70
   128
 43
0.0
 10
3.553879423028057
 20
7.72226249268921
 10
3.557293332176023
 20
7.72226249268921
  0
LWPOLYLINE
  5
137
100
AcDbEntity
  8
USP-GEO
100
AcDbPolyline
 90
        4
 70
   128
 43
0.0
 10
3.48901514921679
 20
7.449149760852279
 10
3.485601240068824
 20
7.449149760852279
 10
3.485601240068824
 20
7.517427943811512
 10
3.553879423028057
 20
7.72226249268921
  0
LWPOLYLINE
  5
138
100
AcDbEntity
  8
USP-GEO
100
AcDbPolyline
 90
        3
 70
   128
 43
0.0
 10
3.553879423028057
 20
7.72226249268921
 10
3.485601240068824
 20
7.517427943811512
 10
3.485601240068824
 20
7.449149760852279
  0
LWPOLYLINE
  5
139
100
AcDbEntity
  8
USP-GEO
100
AcDbPolyline
 90
        2
 70
   129
 43
0.0
 10
3.553879423028057
 20
7.858818858607676
 10
3.553879423028057
 20
7.72226249268921
  0
LWPOLYLINE
  5
13A
100
AcDbEntity
  8
USP-GEO
100
AcDbPolyline
 90
        2
 70
   129
 43
0.0
 10
3.625571515135256
 20
7.995375224526142
 10
3.62215760598729
 20
7.995375224526142
  0
LWPOLYLINE
  5
13B
100
AcDbEntity
  8
USP-GEO
100
AcDbPolyline
 90
        2
 70
   128
 43
0.0
 10
3.62215760598729
 20
7.995375224526142
 10
3.62215760598729
 20
8.063653407485375
  0
LWPOLYLINE
  5
13C
100
AcDbEntity
  8
USP-GEO
100
AcDbPolyline
 90
        2
 70
   129
 43
0.0
 10
3.693849698094481
 20
8.131931590444608
 10
3.690435788946523
 20
8.131931590444608
  0
LWPOLYLINE
  5
13D
100
AcDbEntity
  8
USP-GEO
100
AcDbPolyline
 90
        2
 70
   129
 43
0.0
 10
3.625571515135256
 20
7.995375224526142
 10
3.62215760598729
 20
7.995375224526142
  0
LWPOLYLINE
  5
13E
100
AcDbEntity
  8
USP-GEO
100
AcDbPolyline
 90
        2
 70
   128
 43
0.0
 10
3.62215760598729
 20
8.063653407485375
 10
3.62215760598729
 20
7.995375224526142
  0
LWPOLYLINE
  5
13F
100
AcDbEntity
  8
USP-GEO
100
AcDbPolyline
 90
        2
 70
   129
 43
0.0
 10
3.62215760598729
 20
8.131931590444608
 10
3.62215760598729
 20
8.063653407485375
  0
LWPOLYLINE
  5
140
100
AcDbEntity
  8
USP-GEO
100
AcDbPolyline
 90
        2
 70
   128
 43
0.0
 10
3.690435788946523
 20
8.131931590444608
 10
3.693849698094481
 20
8.131931590444608
  0
LWPOLYLINE
  5
141
100
AcDbEntity
  8
USP-GEO
100
AcDbPolyline
 90
        4
 70
   128
 43
0.0
 10
3.966962429931413
 20
9.360938883710794
 10
3.963548520783454
 20
9.360938883710794
 10
4.031826703742687
 20
9.49749524962926
 10
4.031826703742687
 20
9.637465524695684
  0
LWPOLYLINE
  5
142
100
AcDbEntity
  8
USP-GEO
100
AcDbPolyline
 90
        2
 70
   129
 43
0.0
 10
4.103518795849879
 20
9.910578256532616
 10
4.10010488670192
 20
9.910578256532616
  0
LWPOLYLINE
  5
143
100
AcDbEntity
  8
USP-GEO
100
AcDbPolyline
 90
        3
 70
   128
 43
0.0
 10
5.124277631090407
 20
14.01068314323453
 10
4.987721265171941
 20
14.01068314323453
 10
4.991135174319907
 20
14.01068314323453
  0
LWPOLYLINE
  5
144
100
AcDbEntity
  8
USP-GEO
100
AcDbPolyline
 90
        2
 70
   128
 43
0.0
 10
5.055999448131174
 20
13.66929222843836
 10
4.919443082212708
 20
13.73757041139759
  0
LWPOLYLINE
  5
145
100
AcDbEntity
  8
USP-GEO
100
AcDbPolyline
 90
        2
 70
   129
 43
0.0
 10
4.171796978809112
 20
10.11541280541031
 10
4.168383069661153
 20
10.11541280541031
  0
LWPOLYLINE
  5
146
100
AcDbEntity
  8
USP-GEO
100
AcDbPolyline
 90
        2
 70
   129
 43
0.0
 10
4.171796978809112
 20
10.11541280541031
 10
4.168383069661153
 20
10.11541280541031
  0
LWPOLYLINE
  5
147
100
AcDbEntity
  8
USP-GEO
100
AcDbPolyline
 90
        2
 70
   129
 43
0.0
 10
4.171796978809112
 20
10.11541280541031
 10
4.168383069661153
 20
10.11541280541031
  0
LWPOLYLINE
  5
148
100
AcDbEntity
  8
USP-GEO
100
AcDbPolyline
 90
        2
 70
   129
 43
0.0
 10
4.649744259523743
 20
12.02720192826882
 10
4.646330350375777
 20
12.02720192826882
  0
LWPOLYLINE
  5
149
100
AcDbEntity
  8
USP-GEO
100
AcDbPolyline
 90
        2
 70
   128
 43
0.0
 10
4.646330350375777
 20
12.02720192826882
 10
4.649744259523743
 20
12.02720192826882
  0
LWPOLYLINE
  5
14A
100
AcDbEntity
  8
USP-GEO
100
AcDbPolyline
 90
        2
 70
   129
 43
0.0
 10
4.649744259523743
 20
12.02720192826882
 10
4.646330350375777
 20
12.02720192826882
  0
LWPOLYLINE
  5
14B
100
AcDbEntity
  8
USP-GEO
100
AcDbPolyline
 90
        2
 70
   129
 43
0.0
 10
4.58146607656451
 20
11.89064556235035
 10
4.578052167416544
 20
11.89064556235035
  0
LWPOLYLINE
  5
14C
100
AcDbEntity
  8
USP-GEO
100
AcDbPolyline
 90
        2
 70
   129
 43
0.0
 10
4.646330350375777
 20
12.02720192826882
 10
4.646330350375777
 20
11.95892374530959
  0
LWPOLYLINE
  5
14D
100
AcDbEntity
  8
USP-GEO
100
AcDbPolyline
 90
       12
 70
   129
 43
0.0
 10
4.304939435579619
 20
13.18793103857577
 10
4.304939435579619
 20
13.25962313068297
 10
4.373217618538852
 20
13.3279013136422
 10
4.441495801498085
 20
13.39617949660144
 10
4.71460853333501
 20
13.73757041139759
 10
4.782886716294243
 20
13.80584859435683
 10
4.851164899253475
 20
13.94240496027529
 10
4.782886716294243
 20
13.80584859435683
 10
4.71460853333501
 20
13.73757041139759
 10
4.441495801498085
 20
13.39617949660144
 10
4.373217618538852
 20
13.3279013136422
 10
4.304939435579619
 20
13.25962313068297
  0
LWPOLYLINE
  5
14E
100
AcDbEntity
  8
USP-GEO
100
AcDbPolyline
 90
        2
 70
   128
 43
0.0
 10
4.851164899253475
 20
13.25962313068297
 10
4.441495801498085
 20
13.39617949660144
  0
LWPOLYLINE
  5
14F
100
AcDbEntity
  8
USP-GEO
100
AcDbPolyline
 90
        2
 70
   129
 43
0.0
 10
4.304939435579619
 20
13.18793103857577
 10
4.373217618538852
 20
13.25962313068297
  0
LWPOLYLINE
  5
150
100
AcDbEntity
  8
USP-GEO
100
AcDbPolyline
 90
       14
 70
   128
 43
0.0
 10
4.987721265171941
 20
13.94240496027529
 10
4.987721265171941
 20
13.80584859435683
 10
4.919443082212708
 20
13.73757041139759
 10
4.919443082212708
 20
13.66929222843836
 10
4.851164899253475
 20
13.3279013136422
 10
4.851164899253475
 20
13.25962313068297
 10
4.919443082212708
 20
13.66929222843836
 10
4.919443082212708
 20
13.73757041139759
 10
4.987721265171941
 20
13.87412677731606
 10
4.919443082212708
 20
13.73757041139759
 10
4.987721265171941
 20
13.80584859435683
 10
4.987721265171941
 20
13.94240496027529
 10
4.987721265171941
 20
14.01068314323453
 10
4.987721265171941
 20
13.87412677731606
  0
LWPOLYLINE
  5
151
100
AcDbEntity
  8
USP-GEO
100
AcDbPolyline
 90
        4
 70
   128
 43
0.0
 10
4.854578808401441
 20
13.3279013136422
 10
4.851164899253475
 20
13.3279013136422
 10
4.919443082212708
 20
13.66929222843836
 10
4.71460853333501
 20
13.73757041139759
  0
LWPOLYLINE
  5
152
100
AcDbEntity
  8
USP-GEO
100
AcDbPolyline
 90
        3
 70
   128
 43
0.0
 10
4.782886716294243
 20
13.18793103857577
 10
4.851164899253475
 20
13.25962313068297
 10
4.919443082212708
 20
13.66929222843836
  0
LWPOLYLINE
  5
153
100
AcDbEntity
  8
USP-GEO
100
AcDbPolyline
 90
       10
 70
   128
 43
0.0
 10
4.987721265171941
 20
13.3279013136422
 10
4.851164899253475
 20
13.3279013136422
 10
4.851164899253475
 20
13.25962313068297
 10
4.782886716294243
 20
13.18793103857577
 10
4.782886716294243
 20
13.05137467265731
 10
4.782886716294243
 20
13.11965285561654
 10
4.782886716294243
 20
13.18793103857577
 10
4.851164899253475
 20
13.25962313068297
 10
4.782886716294243
 20
13.18793103857577
 10
4.782886716294243
 20
13.11965285561654
  0
LWPOLYLINE
  5
154
100
AcDbEntity
  8
USP-GEO
100
AcDbPolyline
 90
        2
 70
   128
 43
0.0
 10
5.19255581404964
 20
53.51302589429854
 10
5.19255581404964
 20
53.92269499205394
  0
LWPOLYLINE
  5
155
100
AcDbEntity
  8
USP-GEO
100
AcDbPolyline
 90
        2
 70
   129
 43
0.0
 10
5.055999448131174
 20
53.92269499205394
 10
5.19255581404964
 20
53.92269499205394
  0
ENDBLK
  5
157
100
AcDbEntity
  8
0
100
AcDbBlockEnd
  0
ENDSEC
  0
SECTION
  2
ENTITIES
  0
INSERT
  5
3
100
AcDbEntity
  8
USP
100
AcDbBlockReference
  2
STAD14RJ_T
 10
3.965985914573266
 20
63.36086904674816
 30
0.0
  0
INSERT
  5
4F
100
AcDbEntity
  8
USP
100
AcDbBlockReference
  2
STAD14RJ_F
 10
3.965985914573266
 20
2.876640672311978
 30
0.0
  0
INSERT
  5
119
100
AcDbEntity
  8
USP
100
AcDbBlockReference
  2
STAD14RJ_S
 10
16.80911212920491
 20
2.876640672311978
 30
0.0
  0
ENDSEC
  0
SECTION
  2
OBJECTS
  0
DICTIONARY
  5
170
102
{ACAD_XDICTIONARY
360
171
102
}
100
AcDbDictionary
  3
ACAD_GROUP
350
16E
  3
ACAD_MLINESTYLE
350
16F
  0
DICTIONARY
  5
E
100
AcDbDictionary
280
     1
  3
ACAD_XREC_ROUNDTRIP
360
F
  0
DICTIONARY
  5
9
100
AcDbDictionary
280
     1
  3
ACAD_XREC_ROUNDTRIP
360
A
  0
DICTIONARY
  5
158
100
AcDbDictionary
280
     1
  3
ACAD_LAYOUTSELFREF
360
159
  0
DICTIONARY
  5
15D
100
AcDbDictionary
280
     1
  3
ACAD_LAYOUTSELFREF
360
15E
  0
DICTIONARY
  5
171
100
AcDbDictionary
280
     1
  3
ACAD_XREC_ROUNDTRIP
360
172
  0
DICTIONARY
  5
16E
102
{ACAD_REACTORS
330
170
102
}
100
AcDbDictionary
  0
DICTIONARY
  5
16F
102
{ACAD_REACTORS
330
170
102
}
100
AcDbDictionary
  3
STANDARD
350
173
  0
XRECORD
  5
F
102
{ACAD_REACTORS
330
E
102
}
100
AcDbXrecord
102
EXTNAMES
  1
USP-GEO
  2
USP-Geo
  0
XRECORD
  5
A
102
{ACAD_REACTORS
330
9
102
}
100
AcDbXrecord
102
EXTNAMES
  1
USP-TXT
  2
USP-Txt
  0
XRECORD
  5
159
102
{ACAD_REACTORS
330
158
102
}
100
AcDbXrecord
340
18
  0
XRECORD
  5
15E
102
{ACAD_REACTORS
330
15D
102
}
100
AcDbXrecord
340
15
  0
XRECORD
  5
172
102
{ACAD_REACTORS
330
171
102
}
100
AcDbXrecord
102
EXTNAMES
  1
ACDBVARIABLEDICTIONARY
  2
AcDbVariableDictionary
  0
MLINESTYLE
  5
173
102
{ACAD_REACTORS
330
16F
102
}
100
AcDbMlineStyle
  2
STANDARD
 70
     0
  3

 62
     0
 51
90.0
 52
90.0
 71
     2
 49
0.5
 62
   256
  6
BYLAYER
 49
-0.5
 62
   256
  6
BYLAYER
  0
ENDSEC
  0
EOF
