  0
SECTION
  2
HEADER
  9
$ACADVER
  1
AC1014
  9
$ACADMAINTVER
 70
     9
  9
$DWGCODEPAGE
  3
ANSI_1252
  9
$INSBASE
 10
0.0
 20
0.0
 30
0.0
  9
$EXTMIN
 10
-0.1714161723331653
 20
0.00201689310056
 30
0.0
  9
$EXTMAX
 10
27.48720654996199
 20
63.00136735877043
 30
0.0
  9
$LIMMIN
 10
0.0
 20
0.0
  9
$LIMMAX
 10
12.0
 20
9.0
  9
$ORTHOMODE
 70
     1
  9
$REGENMODE
 70
     1
  9
$FILLMODE
 70
     1
  9
$QTEXTMODE
 70
     0
  9
$MIRRTEXT
 70
     0
  9
$DRAGMODE
 70
     2
  9
$LTSCALE
 40
1.5
  9
$OSMODE
 70
     0
  9
$ATTMODE
 70
     1
  9
$TEXTSIZE
 40
0.75
  9
$TRACEWID
 40
0.05
  9
$TEXTSTYLE
  7
STANDARD
  9
$CLAYER
  8
USP
  9
$CELTYPE
  6
BYLAYER
  9
$CECOLOR
 62
   256
  9
$CELTSCALE
 40
1.0
  9
$DELOBJ
 70
     1
  9
$DISPSILH
 70
     1
  9
$DIMSCALE
 40
3.0
  9
$DIMASZ
 40
0.125
  9
$DIMEXO
 40
0.0625
  9
$DIMDLI
 40
0.37890625
  9
$DIMRND
 40
0.0
  9
$DIMDLE
 40
0.0
  9
$DIMEXE
 40
0.09375
  9
$DIMTP
 40
0.0
  9
$DIMTM
 40
0.0
  9
$DIMTXT
 40
0.109375
  9
$DIMCEN
 40
0.0
  9
$DIMTSZ
 40
0.0
  9
$DIMTOL
 70
     0
  9
$DIMLIM
 70
     0
  9
$DIMTIH
 70
     1
  9
$DIMTOH
 70
     1
  9
$DIMSE1
 70
     0
  9
$DIMSE2
 70
     0
  9
$DIMTAD
 70
     0
  9
$DIMZIN
 70
     8
  9
$DIMBLK
  1

  9
$DIMASO
 70
     1
  9
$DIMSHO
 70
     1
  9
$DIMPOST
  1

  9
$DIMAPOST
  1

  9
$DIMALT
 70
     0
  9
$DIMALTD
 70
     2
  9
$DIMALTF
 40
25.4
  9
$DIMLFAC
 40
1.0
  9
$DIMTOFL
 70
     0
  9
$DIMTVP
 40
0.0
  9
$DIMTIX
 70
     0
  9
$DIMSOXD
 70
     0
  9
$DIMSAH
 70
     0
  9
$DIMBLK1
  1

  9
$DIMBLK2
  1

  9
$DIMSTYLE
  2
STANDARD
  9
$DIMCLRD
 70
     0
  9
$DIMCLRE
 70
     0
  9
$DIMCLRT
 70
   256
  9
$DIMTFAC
 40
1.0
  9
$DIMGAP
 40
0.08984375
  9
$DIMJUST
 70
     0
  9
$DIMSD1
 70
     0
  9
$DIMSD2
 70
     0
  9
$DIMTOLJ
 70
     1
  9
$DIMTZIN
 70
     0
  9
$DIMALTZ
 70
     0
  9
$DIMALTTZ
 70
     0
  9
$DIMFIT
 70
     3
  9
$DIMUPT
 70
     1
  9
$DIMUNIT
 70
     7
  9
$DIMDEC
 70
     4
  9
$DIMTDEC
 70
     4
  9
$DIMALTU
 70
     2
  9
$DIMALTTD
 70
     2
  9
$DIMTXSTY
  7
STANDARD
  9
$DIMAUNIT
 70
     0
  9
$LUNITS
 70
     5
  9
$LUPREC
 70
     6
  9
$SKETCHINC
 40
0.1
  9
$FILLETRAD
 40
0.0
  9
$AUNITS
 70
     0
  9
$AUPREC
 70
     1
  9
$MENU
  1
CUSTOM
  9
$ELEVATION
 40
0.0
  9
$PELEVATION
 40
0.0
  9
$THICKNESS
 40
0.0
  9
$LIMCHECK
 70
     0
  9
$BLIPMODE
 70
     0
  9
$CHAMFERA
 40
0.0
  9
$CHAMFERB
 40
0.0
  9
$CHAMFERC
 40
0.0
  9
$CHAMFERD
 40
0.0
  9
$SKPOLY
 70
     0
  9
$TDCREATE
 40
2451263.663231366
  9
$TDUPDATE
 40
2452768.669347141
  9
$TDINDWG
 40
0.6201089468
  9
$TDUSRTIMER
 40
0.6201089468
  9
$USRTIMER
 70
     1
  9
$ANGBASE
 50
0.0
  9
$ANGDIR
 70
     0
  9
$PDMODE
 70
     0
  9
$PDSIZE
 40
0.0
  9
$PLINEWID
 40
0.0
  9
$COORDS
 70
     2
  9
$SPLFRAME
 70
     0
  9
$SPLINETYPE
 70
     6
  9
$SPLINESEGS
 70
     8
  9
$ATTDIA
 70
     0
  9
$ATTREQ
 70
     0
  9
$HANDLING
 70
     1
  9
$HANDSEED
  5
178
  9
$SURFTAB1
 70
     6
  9
$SURFTAB2
 70
     6
  9
$SURFTYPE
 70
     6
  9
$SURFU
 70
     6
  9
$SURFV
 70
     6
  9
$UCSNAME
  2

  9
$UCSORG
 10
0.0
 20
0.0
 30
0.0
  9
$UCSXDIR
 10
1.0
 20
0.0
 30
0.0
  9
$UCSYDIR
 10
0.0
 20
1.0
 30
0.0
  9
$PUCSNAME
  2

  9
$PUCSORG
 10
0.0
 20
0.0
 30
0.0
  9
$PUCSXDIR
 10
1.0
 20
0.0
 30
0.0
  9
$PUCSYDIR
 10
0.0
 20
1.0
 30
0.0
  9
$USERI1
 70
     0
  9
$USERI2
 70
     0
  9
$USERI3
 70
     0
  9
$USERI4
 70
     0
  9
$USERI5
 70
     0
  9
$USERR1
 40
0.0
  9
$USERR2
 40
0.0
  9
$USERR3
 40
0.0
  9
$USERR4
 40
0.0
  9
$USERR5
 40
0.0
  9
$WORLDVIEW
 70
     1
  9
$SHADEDGE
 70
     3
  9
$SHADEDIF
 70
    70
  9
$TILEMODE
 70
     1
  9
$MAXACTVP
 70
    16
  9
$PINSBASE
 10
0.0
 20
0.0
 30
0.0
  9
$PLIMCHECK
 70
     0
  9
$PEXTMIN
 10
1.000000000000000E+20
 20
1.000000000000000E+20
 30
1.000000000000000E+20
  9
$PEXTMAX
 10
-1.000000000000000E+20
 20
-1.000000000000000E+20
 30
-1.000000000000000E+20
  9
$PLIMMIN
 10
0.0
 20
0.0
  9
$PLIMMAX
 10
12.0
 20
9.0
  9
$UNITMODE
 70
     0
  9
$VISRETAIN
 70
     0
  9
$PLINEGEN
 70
     0
  9
$PSLTSCALE
 70
     0
  9
$TREEDEPTH
 70
  3020
  9
$PICKSTYLE
 70
     0
  9
$CMLSTYLE
  2
STANDARD
  9
$CMLJUST
 70
     0
  9
$CMLSCALE
 40
1.0
  9
$PROXYGRAPHICS
 70
     1
  9
$MEASUREMENT
 70
     0
  0
ENDSEC
  0
SECTION
  2
CLASSES
  0
CLASS
  1
ACDBDICTIONARYWDFLT
  2
AcDbDictionaryWithDefault
  3
AutoCAD 2000
 90
        0
280
     0
281
     0
  0
CLASS
  1
ACDBPLACEHOLDER
  2
AcDbPlaceHolder
  3
AutoCAD 2000
 90
        0
280
     0
281
     0
  0
CLASS
  1
LAYOUT
  2
AcDbLayout
  3
AutoCAD 2000
 90
        0
280
     0
281
     0
  0
CLASS
  1
DICTIONARYVAR
  2
AcDbDictionaryVar
  3
"AutoCAD"
 90
        0
280
     0
281
     0
  0
CLASS
  1
LONG_TRANSACTION
  2
AcDbLongTransaction
  3
AutoCAD 2000
 90
        0
280
     0
281
     0
  0
CLASS
  1
LWPOLYLINE
  2
AcDbPolyline
  3
"AutoCAD"
 90
        0
280
     0
281
     1
  0
CLASS
  1
HATCH
  2
AcDbHatch
  3
"ACAD_SEDONA"
 90
        0
280
     0
281
     1
  0
CLASS
  1
XRECORD
  2
AcDbXrecord
  3
"<Built In>"
 90
        0
280
     0
281
     0
  0
CLASS
  1
LONG_TRANSACTION
  2
AcDbLongTransaction
  3
AutoCAD 2000
 90
        0
280
     0
281
     0
  0
CLASS
  1
LWPOLYLINE
  2
AcDbPolyline
  3
"AutoCAD"
 90
        0
280
     0
281
     1
  0
CLASS
  1
HATCH
  2
AcDbHatch
  3
"ACAD_SEDONA"
 90
        0
280
     0
281
     1
  0
CLASS
  1
XRECORD
  2
AcDbXrecord
  3
"<Built In>"
 90
        0
280
     0
281
     0
  0
ENDSEC
  0
SECTION
  2
TABLES
  0
TABLE
  2
VPORT
  5
168
100
AcDbSymbolTable
 70
     1
  0
VPORT
  5
169
100
AcDbSymbolTableRecord
100
AcDbViewportTableRecord
  2
*ACTIVE
 70
     0
 10
0.0
 20
0.0
 11
1.0
 21
1.0
 12
0.2836892549322982
 22
26.07239364522424
 13
0.0
 23
0.0
 14
1.0
 24
1.0
 15
0.0
 25
0.0
 16
0.0
 26
0.0
 36
1.0
 17
18.06596660309899
 27
8.119903606830565
 37
5.823974399722915
 40
86.37490402429456
 41
1.457627118644067
 42
50.0
 43
10.55307667737539
 44
10.55307667737539
 50
0.0
 51
0.0
 71
     0
 72
   100
 73
     1
 74
     1
 75
     0
 76
     0
 77
     0
 78
     0
  0
ENDTAB
  0
TABLE
  2
LTYPE
  5
163
100
AcDbSymbolTable
 70
     1
  0
LTYPE
  5
164
100
AcDbSymbolTableRecord
100
AcDbLinetypeTableRecord
  2
BYBLOCK
 70
     0
  3

 72
    65
 73
     0
 40
0.0
  0
LTYPE
  5
165
100
AcDbSymbolTableRecord
100
AcDbLinetypeTableRecord
  2
BYLAYER
 70
     0
  3

 72
    65
 73
     0
 40
0.0
  0
LTYPE
  5
5
100
AcDbSymbolTableRecord
100
AcDbLinetypeTableRecord
  2
CONTINUOUS
 70
     0
  3
Solid line
 72
    65
 73
     0
 40
0.0
  0
ENDTAB
  0
TABLE
  2
LAYER
  5
161
100
AcDbSymbolTable
 70
     4
  0
LAYER
  5
5D
100
AcDbSymbolTableRecord
100
AcDbLayerTableRecord
  2
0
 70
     0
 62
     7
  6
CONTINUOUS
  0
LAYER
  5
D
102
{ACAD_XDICTIONARY
360
E
102
}
100
AcDbSymbolTableRecord
100
AcDbLayerTableRecord
  2
USP-GEO
 70
     0
 62
     7
  6
CONTINUOUS
  0
LAYER
  5
8
102
{ACAD_XDICTIONARY
360
9
102
}
100
AcDbSymbolTableRecord
100
AcDbLayerTableRecord
  2
USP-TXT
 70
     0
 62
     7
  6
CONTINUOUS
  0
LAYER
  5
4
100
AcDbSymbolTableRecord
100
AcDbLayerTableRecord
  2
USP
 70
     0
 62
     7
  6
CONTINUOUS
  0
ENDTAB
  0
TABLE
  2
STYLE
  5
162
100
AcDbSymbolTable
 70
     1
  0
STYLE
  5
B
100
AcDbSymbolTableRecord
100
AcDbTextStyleTableRecord
  2
STANDARD
 70
     0
 40
0.0
 41
1.0
 50
0.0
 71
     0
 42
0.75
  3
txt
  4

  0
ENDTAB
  0
TABLE
  2
VIEW
  5
166
100
AcDbSymbolTable
 70
     0
  0
ENDTAB
  0
TABLE
  2
UCS
  5
167
100
AcDbSymbolTable
 70
     0
  0
ENDTAB
  0
TABLE
  2
APPID
  5
16A
100
AcDbSymbolTable
 70
     1
  0
APPID
  5
16B
100
AcDbSymbolTableRecord
100
AcDbRegAppTableRecord
  2
ACAD
 70
     0
  0
ENDTAB
  0
TABLE
  2
DIMSTYLE
  5
16C
100
AcDbSymbolTable
 70
     1
  0
DIMSTYLE
105
174
100
AcDbSymbolTableRecord
100
AcDbDimStyleTableRecord
  2
STANDARD
 70
     0
  3

  4

  5

  6

  7

 40
1.0
 41
0.18
 42
0.0625
 43
0.38
 44
0.18
 45
0.0
 46
0.0
 47
0.0
 48
0.0
140
0.18
141
0.09
142
0.0
143
25.4
144
1.0
145
0.0
146
1.0
147
0.09
 71
     0
 72
     0
 73
     1
 74
     1
 75
     0
 76
     0
 77
     0
 78
     0
170
     0
171
     2
172
     0
173
     0
174
     0
175
     0
176
     0
177
     0
178
     0
270
     2
271
     4
272
     4
273
     2
274
     2
340
B
275
     0
280
     0
281
     0
282
     0
283
     1
284
     0
285
     0
286
     0
287
     3
288
     0
  0
ENDTAB
  0
TABLE
  2
BLOCK_RECORD
  5
1
100
AcDbSymbolTable
 70
     3
  0
BLOCK_RECORD
  5
2
102
{ACAD_XDICTIONARY
360
158
102
}
100
AcDbSymbolTableRecord
100
AcDbBlockTableRecord
  2
*MODEL_SPACE
  0
BLOCK_RECORD
  5
15C
102
{ACAD_XDICTIONARY
360
15D
102
}
100
AcDbSymbolTableRecord
100
AcDbBlockTableRecord
  2
*PAPER_SPACE
  0
BLOCK_RECORD
  5
6
100
AcDbSymbolTableRecord
100
AcDbBlockTableRecord
  2
STAD14_T
  0
BLOCK_RECORD
  5
60
100
AcDbSymbolTableRecord
100
AcDbBlockTableRecord
  2
STAD14_F
  0
BLOCK_RECORD
  5
12C
100
AcDbSymbolTableRecord
100
AcDbBlockTableRecord
  2
STAD14_S
  0
ENDTAB
  0
ENDSEC
  0
SECTION
  2
BLOCKS
  0
BLOCK
  5
15A
100
AcDbEntity
  8
0
100
AcDbBlockBegin
  2
*MODEL_SPACE
 70
     0
 10
0.0
 20
0.0
 30
0.0
  3
*MODEL_SPACE
  1

  0
ENDBLK
  5
15B
100
AcDbEntity
  8
0
100
AcDbBlockEnd
  0
BLOCK
  5
15F
100
AcDbEntity
 67
     1
  8
0
100
AcDbBlockBegin
  2
*PAPER_SPACE
 70
     0
 10
0.0
 20
0.0
 30
0.0
  3
*PAPER_SPACE
  1

  0
ENDBLK
  5
160
100
AcDbEntity
 67
     1
  8
0
100
AcDbBlockEnd
  0
BLOCK
  5
5C
100
AcDbEntity
  8
0
100
AcDbBlockBegin
  2
STAD14_T
 70
     0
 10
0.0
 20
0.0
 30
0.0
  3
STAD14_T
  1

  0
TEXT
  5
7
100
AcDbEntity
  8
USP-TXT
100
AcDbText
 10
-2.685972628911939
 20
-3.616028705626753
 30
0.0
 40
0.5
  1
STAD14 - TOP VIEW
 72
     1
 11
1.480694037754727
 21
-3.616028705626753
 31
0.0
100
AcDbText
  0
LWPOLYLINE
  5
C
100
AcDbEntity
  8
USP-GEO
100
AcDbPolyline
 90
       10
 70
   128
 43
0.0
 10
1.826503685637995
 20
1.512131278471393
 10
2.329499537104574
 20
1.512131278471393
 10
2.455248499971219
 20
1.512131278471393
 10
2.518122981404538
 20
1.512131278471393
 10
2.580997462837864
 20
1.575005759904712
 10
2.580997462837864
 20
1.952252648504646
 10
2.580997462837864
 20
2.078001611371291
 10
2.518122981404538
 20
2.078001611371291
 10
2.518122981404538
 20
2.14087609280461
 10
2.455248499971219
 20
2.14087609280461
  0
LWPOLYLINE
  5
10
100
AcDbEntity
  8
USP-GEO
100
AcDbPolyline
 90
        8
 70
   128
 43
0.0
 10
0.9462609455714883
 20
0.0
 10
2.015127129937965
 20
0.0
 10
2.015127129937965
 20
0.0628744814333189
 10
2.958244351437791
 20
0.0628744814333189
 10
2.958244351437791
 20
1.512131278471393
 10
2.958244351437791
 20
1.763629204204683
 10
2.958244351437791
 20
1.889378167071321
 10
2.958244351437791
 20
1.763629204204683
  0
LWPOLYLINE
  5
11
100
AcDbEntity
  8
USP-GEO
100
AcDbPolyline
 90
        5
 70
   128
 43
0.0
 10
1.826503685637995
 20
0.0628744814333189
 10
2.958244351437791
 20
0.0628744814333189
 10
2.958244351437791
 20
1.512131278471393
 10
2.958244351437791
 20
1.763629204204683
 10
2.958244351437791
 20
1.826503685638002
  0
LWPOLYLINE
  5
12
100
AcDbEntity
  8
USP-GEO
100
AcDbPolyline
 90
        3
 70
   128
 43
0.0
 10
0.0
 20
4.973371481375764
 10
0.3803906126715972
 20
4.973371481375764
 10
2.580997462837864
 20
4.973371481375764
  0
LWPOLYLINE
  5
13
100
AcDbEntity
  8
USP-GEO
100
AcDbPolyline
 90
        3
 70
   128
 43
0.0
 10
2.958244351437791
 20
4.973371481375764
 10
2.580997462837864
 20
4.973371481375764
 10
0.3803906126715972
 20
4.973371481375764
  0
LWPOLYLINE
  5
14
100
AcDbEntity
  8
USP-GEO
100
AcDbPolyline
 90
       10
 70
   129
 43
0.0
 10
0.0
 20
4.973371481375764
 10
0.3803906126715972
 20
4.973371481375764
 10
0.3803906126715972
 20
5.099120444242409
 10
2.580997462837864
 20
5.099120444242409
 10
2.580997462837864
 20
4.973371481375764
 10
2.958244351437791
 20
4.973371481375764
 10
2.958244351437791
 20
5.099120444242409
 10
2.580997462837864
 20
5.099120444242409
 10
0.3803906126715972
 20
5.099120444242409
 10
0.0
 20
5.099120444242409
  0
LWPOLYLINE
  5
15
100
AcDbEntity
  8
USP-GEO
100
AcDbPolyline
 90
        5
 70
   128
 43
0.0
 10
0.8833864641381694
 20
3.46124020290437
 10
0.9462609455714883
 20
3.272616758604407
 10
1.009135427004814
 20
3.209742277171081
 10
1.197758871304777
 20
3.021118832871117
 10
1.200902595376447
 20
3.021118832871117
  0
LWPOLYLINE
  5
16
100
AcDbEntity
  8
USP-GEO
100
AcDbPolyline
 90
        9
 70
   128
 43
0.0
 10
2.078001611371284
 20
3.46124020290437
 10
2.015127129937965
 20
3.46124020290437
 10
1.889378167071321
 20
3.272616758604407
 10
1.700754722771357
 20
3.083993314304443
 10
1.449256797038067
 20
3.083993314304443
 10
1.260633352738103
 20
3.083993314304443
 10
1.072009908438133
 20
3.272616758604407
 10
0.9462609455714883
 20
3.46124020290437
 10
0.8833864641381694
 20
3.46124020290437
  0
LWPOLYLINE
  5
17
100
AcDbEntity
  8
USP-GEO
100
AcDbPolyline
 90
        5
 70
   128
 43
0.0
 10
1.766772928276338
 20
3.021118832871117
 10
1.763629204204676
 20
3.021118832871117
 10
1.952252648504639
 20
3.209742277171081
 10
2.015127129937965
 20
3.272616758604407
 10
2.078001611371284
 20
3.46124020290437
  0
LWPOLYLINE
  5
18
100
AcDbEntity
  8
USP-GEO
100
AcDbPolyline
 90
        2
 70
   129
 43
0.0
 10
0.506139575538235
 20
1.512131278471393
 10
0.506139575538235
 20
4.218877704175902
  0
LWPOLYLINE
  5
19
100
AcDbEntity
  8
USP-GEO
100
AcDbPolyline
 90
        9
 70
   128
 43
0.0
 10
1.134884389871459
 20
1.512131278471393
 10
0.6318885384048798
 20
1.512131278471393
 10
0.6318885384048798
 20
4.218877704175902
 10
0.6318885384048798
 20
4.721873555642474
 10
0.569014056971561
 20
4.721873555642474
 10
0.506139575538235
 20
4.7847480370758
 10
0.1886234442999637
 20
4.847622518509119
 10
0.1257489628666377
 20
4.910496999942438
 10
0.1288926869383076
 20
4.910496999942438
  0
LWPOLYLINE
  5
1A
100
AcDbEntity
  8
USP-GEO
100
AcDbPolyline
 90
        7
 70
   128
 43
0.0
 10
0.6350322624765497
 20
4.721873555642474
 10
0.6318885384048798
 20
4.721873555642474
 10
0.6318885384048798
 20
4.218877704175902
 10
0.6318885384048798
 20
1.512131278471393
 10
0.506139575538235
 20
1.512131278471393
 10
0.4432650941049161
 20
1.512131278471393
 10
0.3803906126715972
 20
1.575005759904712
  0
LWPOLYLINE
  5
1B
100
AcDbEntity
  8
USP-GEO
100
AcDbPolyline
 90
       13
 70
   128
 43
0.0
 10
1.826503685637995
 20
0.0
 10
1.826503685637995
 20
0.0628744814333189
 10
1.826503685637995
 20
1.512131278471393
 10
1.826503685637995
 20
1.763629204204683
 10
1.826503685637995
 20
1.826503685638002
 10
1.637880241338031
 20
1.826503685638002
 10
1.449256797038067
 20
1.889378167071321
 10
1.323507834171422
 20
1.826503685638002
 10
1.134884389871459
 20
1.826503685638002
 10
1.134884389871459
 20
1.763629204204683
 10
1.134884389871459
 20
1.512131278471393
 10
1.134884389871459
 20
0.0628744814333189
 10
0.0
 20
0.0628744814333189
  0
LWPOLYLINE
  5
1C
100
AcDbEntity
  8
USP-GEO
100
AcDbPolyline
 90
        2
 70
   129
 43
0.0
 10
0.0
 20
0.0628744814333189
 10
0.0
 20
1.512131278471393
  0
LWPOLYLINE
  5
1D
100
AcDbEntity
  8
USP-GEO
100
AcDbPolyline
 90
        3
 70
   128
 43
0.0
 10
0.9462609455714883
 20
0.0628744814333189
 10
0.0
 20
0.0628744814333189
 10
0.0031437240716627
 20
0.0628744814333189
  0
LWPOLYLINE
  5
1E
100
AcDbEntity
  8
USP-GEO
100
AcDbPolyline
 90
        2
 70
   129
 43
0.0
 10
0.9462609455714883
 20
0.0
 10
0.9462609455714883
 20
0.0628744814333189
  0
LWPOLYLINE
  5
1F
100
AcDbEntity
  8
USP-GEO
100
AcDbPolyline
 90
        6
 70
   129
 43
0.0
 10
0.0
 20
1.763629204204683
 10
0.0
 20
1.826503685638002
 10
0.0628744814333189
 20
1.826503685638002
 10
0.0628744814333189
 20
1.952252648504646
 10
0.0
 20
1.952252648504646
 10
0.0
 20
1.889378167071321
  0
LWPOLYLINE
  5
20
100
AcDbEntity
  8
USP-GEO
100
AcDbPolyline
 90
        4
 70
   128
 43
0.0
 10
0.0628744814333189
 20
1.826503685638002
 10
0.3803906126715972
 20
1.952252648504646
 10
0.3803906126715972
 20
2.078001611371291
 10
0.0628744814333189
 20
1.952252648504646
  0
LWPOLYLINE
  5
21
100
AcDbEntity
  8
USP-GEO
100
AcDbPolyline
 90
        9
 70
   128
 43
0.0
 10
0.1257489628666377
 20
1.826503685638002
 10
0.0628744814333189
 20
1.826503685638002
 10
0.0
 20
1.763629204204683
 10
0.0
 20
1.700754722771357
 10
0.1257489628666377
 20
1.637880241338038
 10
0.1257489628666377
 20
1.826503685638002
 10
0.3803906126715972
 20
1.952252648504646
 10
0.3803906126715972
 20
1.575005759904712
 10
0.1257489628666377
 20
1.637880241338038
  0
LWPOLYLINE
  5
22
100
AcDbEntity
  8
USP-GEO
100
AcDbPolyline
 90
        2
 70
   128
 43
0.0
 10
0.4432650941049161
 20
1.512131278471393
 10
0.0
 20
1.512131278471393
  0
LWPOLYLINE
  5
23
100
AcDbEntity
  8
USP-GEO
100
AcDbPolyline
 90
        3
 70
   128
 43
0.0
 10
0.0
 20
1.512131278471393
 10
0.0
 20
1.763629204204683
 10
0.0
 20
1.889378167071321
  0
LWPOLYLINE
  5
24
100
AcDbEntity
  8
USP-GEO
100
AcDbPolyline
 90
        2
 70
   128
 43
0.0
 10
0.0
 20
1.763629204204683
 10
0.0
 20
1.512131278471393
  0
LWPOLYLINE
  5
25
100
AcDbEntity
  8
USP-GEO
100
AcDbPolyline
 90
        2
 70
   129
 43
0.0
 10
0.0031437240716627
 20
1.763629204204683
 10
0.0
 20
1.763629204204683
  0
LWPOLYLINE
  5
26
100
AcDbEntity
  8
USP-GEO
100
AcDbPolyline
 90
        2
 70
   128
 43
0.0
 10
0.0
 20
1.952252648504646
 10
0.0031437240716627
 20
1.952252648504646
  0
LWPOLYLINE
  5
27
100
AcDbEntity
  8
USP-GEO
100
AcDbPolyline
 90
        4
 70
   128
 43
0.0
 10
0.506139575538235
 20
2.14087609280461
 10
0.4432650941049161
 20
2.14087609280461
 10
0.4432650941049161
 20
2.078001611371291
 10
0.3803906126715972
 20
2.078001611371291
  0
LWPOLYLINE
  5
28
100
AcDbEntity
  8
USP-GEO
100
AcDbPolyline
 90
        7
 70
   128
 43
0.0
 10
0.4432650941049161
 20
1.952252648504646
 10
0.4432650941049161
 20
2.015127129937965
 10
0.506139575538235
 20
2.015127129937965
 10
0.4432650941049161
 20
1.952252648504646
 10
0.3803906126715972
 20
1.952252648504646
 10
0.4432650941049161
 20
1.952252648504646
 10
0.4464088181765789
 20
1.952252648504646
  0
LWPOLYLINE
  5
29
100
AcDbEntity
  8
USP-GEO
100
AcDbPolyline
 90
       11
 70
   128
 43
0.0
 10
1.134884389871459
 20
0.0
 10
1.826503685637995
 20
0.0
 10
1.826503685637995
 20
0.0628744814333189
 10
1.826503685637995
 20
1.512131278471393
 10
1.826503685637995
 20
1.763629204204683
 10
1.449256797038067
 20
1.763629204204683
 10
1.134884389871459
 20
1.763629204204683
 10
1.134884389871459
 20
1.512131278471393
 10
1.134884389871459
 20
0.0628744814333189
 10
1.134884389871459
 20
0.0
 10
1.134884389871459
 20
0.0628744814333189
  0
LWPOLYLINE
  5
2A
100
AcDbEntity
  8
USP-GEO
100
AcDbPolyline
 90
        2
 70
   128
 43
0.0
 10
2.015127129937965
 20
0.0
 10
2.015127129937965
 20
0.0628744814333189
  0
LWPOLYLINE
  5
2B
100
AcDbEntity
  8
USP-GEO
100
AcDbPolyline
 90
        3
 70
   128
 43
0.0
 10
1.763629204204676
 20
3.021118832871117
 10
1.449256797038067
 20
2.958244351437798
 10
1.197758871304777
 20
3.021118832871117
  0
LWPOLYLINE
  5
2C
100
AcDbEntity
  8
USP-GEO
100
AcDbPolyline
 90
        2
 70
   128
 43
0.0
 10
1.826503685637995
 20
1.575005759904712
 10
1.134884389871459
 20
1.575005759904712
  0
LWPOLYLINE
  5
2D
100
AcDbEntity
  8
USP-GEO
100
AcDbPolyline
 90
        2
 70
   129
 43
0.0
 10
1.449256797038067
 20
1.889378167071321
 10
1.449256797038067
 20
1.763629204204683
  0
LWPOLYLINE
  5
2E
100
AcDbEntity
  8
USP-GEO
100
AcDbPolyline
 90
        2
 70
   128
 43
0.0
 10
1.449256797038067
 20
1.763629204204683
 10
1.449256797038067
 20
1.889378167071321
  0
LWPOLYLINE
  5
2F
100
AcDbEntity
  8
USP-GEO
100
AcDbPolyline
 90
        7
 70
   128
 43
0.0
 10
0.8865301882098322
 20
3.967379778442612
 10
0.8833864641381694
 20
3.967379778442612
 10
0.8833864641381694
 20
3.904505297009293
 10
0.9462609455714883
 20
3.778756334142649
 10
1.009135427004814
 20
3.653007371276004
 10
1.197758871304777
 20
3.524114684337696
 10
1.200902595376447
 20
3.524114684337696
  0
LWPOLYLINE
  5
30
100
AcDbEntity
  8
USP-GEO
100
AcDbPolyline
 90
       10
 70
   128
 43
0.0
 10
2.081145335442954
 20
3.967379778442612
 10
2.078001611371284
 20
3.967379778442612
 10
2.015127129937965
 20
3.967379778442612
 10
1.889378167071321
 20
3.778756334142649
 10
1.700754722771357
 20
3.586989165771015
 10
1.449256797038067
 20
3.524114684337696
 10
1.260633352738103
 20
3.586989165771015
 10
1.072009908438133
 20
3.778756334142649
 10
0.9462609455714883
 20
3.967379778442612
 10
0.8833864641381694
 20
3.967379778442612
  0
LWPOLYLINE
  5
31
100
AcDbEntity
  8
USP-GEO
100
AcDbPolyline
 90
        7
 70
   128
 43
0.0
 10
0.9462609455714883
 20
4.470375629909185
 10
0.8833864641381694
 20
4.470375629909185
 10
0.8833864641381694
 20
4.407501148475866
 10
0.9462609455714883
 20
4.218877704175902
 10
1.009135427004814
 20
4.156003222742576
 10
1.197758871304777
 20
4.030254259875931
 10
1.200902595376447
 20
4.030254259875931
  0
LWPOLYLINE
  5
32
100
AcDbEntity
  8
USP-GEO
100
AcDbPolyline
 90
       17
 70
   128
 43
0.0
 10
1.766772928276338
 20
4.030254259875931
 10
1.763629204204676
 20
4.030254259875931
 10
1.952252648504639
 20
4.156003222742576
 10
2.015127129937965
 20
4.218877704175902
 10
2.078001611371284
 20
4.407501148475866
 10
2.078001611371284
 20
4.470375629909185
 10
2.015127129937965
 20
4.470375629909185
 10
1.889378167071321
 20
4.218877704175902
 10
1.700754722771357
 20
4.093128741309257
 10
1.449256797038067
 20
4.030254259875931
 10
1.260633352738103
 20
4.093128741309257
 10
1.072009908438133
 20
4.218877704175902
 10
0.9462609455714883
 20
4.470375629909185
 10
1.197758871304777
 20
4.470375629909185
 10
1.449256797038067
 20
4.470375629909185
 10
1.763629204204676
 20
4.470375629909185
 10
2.015127129937965
 20
4.470375629909185
  0
LWPOLYLINE
  5
33
100
AcDbEntity
  8
USP-GEO
100
AcDbPolyline
 90
        3
 70
   128
 43
0.0
 10
0.9462609455714883
 20
3.46124020290437
 10
1.197758871304777
 20
3.524114684337696
 10
1.260633352738103
 20
3.524114684337696
  0
LWPOLYLINE
  5
34
100
AcDbEntity
  8
USP-GEO
100
AcDbPolyline
 90
        3
 70
   128
 43
0.0
 10
0.9462609455714883
 20
3.967379778442612
 10
1.197758871304777
 20
3.967379778442612
 10
1.260633352738103
 20
3.967379778442612
  0
LWPOLYLINE
  5
35
100
AcDbEntity
  8
USP-GEO
100
AcDbPolyline
 90
       11
 70
   128
 43
0.0
 10
0.506139575538235
 20
4.407501148475866
 10
0.569014056971561
 20
4.344626667042547
 10
0.6318885384048798
 20
4.281752185609221
 10
0.6318885384048798
 20
4.218877704175902
 10
0.506139575538235
 20
4.218877704175902
 10
0.4432650941049161
 20
4.281752185609221
 10
0.3803906126715972
 20
4.344626667042547
 10
0.1257489628666377
 20
4.658999074209155
 10
0.0628744814333189
 20
4.721873555642474
 10
0.0
 20
4.7847480370758
 10
0.0
 20
4.910496999942438
  0
LWPOLYLINE
  5
36
100
AcDbEntity
  8
USP-GEO
100
AcDbPolyline
 90
        3
 70
   128
 43
0.0
 10
0.506139575538235
 20
4.7847480370758
 10
0.506139575538235
 20
4.407501148475866
 10
0.1886234442999637
 20
4.658999074209155
  0
LWPOLYLINE
  5
37
100
AcDbEntity
  8
USP-GEO
100
AcDbPolyline
 90
        3
 70
   128
 43
0.0
 10
0.3803906126715972
 20
5.099120444242409
 10
0.0
 20
5.099120444242409
 10
0.0
 20
4.973371481375764
  0
LWPOLYLINE
  5
38
100
AcDbEntity
  8
USP-GEO
100
AcDbPolyline
 90
        2
 70
   129
 43
0.0
 10
0.0031437240716627
 20
4.973371481375764
 10
0.0
 20
4.973371481375764
  0
LWPOLYLINE
  5
39
100
AcDbEntity
  8
USP-GEO
100
AcDbPolyline
 90
        2
 70
   129
 43
0.0
 10
0.1257489628666377
 20
4.973371481375764
 10
0.1257489628666377
 20
4.910496999942438
  0
LWPOLYLINE
  5
3A
100
AcDbEntity
  8
USP-GEO
100
AcDbPolyline
 90
        2
 70
   128
 43
0.0
 10
0.1257489628666377
 20
4.973371481375764
 10
0.0
 20
4.973371481375764
  0
LWPOLYLINE
  5
3B
100
AcDbEntity
  8
USP-GEO
100
AcDbPolyline
 90
        2
 70
   129
 43
0.0
 10
0.0
 20
4.910496999942438
 10
0.0
 20
4.973371481375764
  0
LWPOLYLINE
  5
3C
100
AcDbEntity
  8
USP-GEO
100
AcDbPolyline
 90
        5
 70
   128
 43
0.0
 10
0.1886234442999637
 20
4.847622518509119
 10
0.1886234442999637
 20
4.658999074209155
 10
0.1257489628666377
 20
4.721873555642474
 10
0.1257489628666377
 20
4.7847480370758
 10
0.1257489628666377
 20
4.910496999942438
  0
LWPOLYLINE
  5
3D
100
AcDbEntity
  8
USP-GEO
100
AcDbPolyline
 90
        2
 70
   129
 43
0.0
 10
0.8865301882098322
 20
3.46124020290437
 10
0.8833864641381694
 20
3.46124020290437
  0
LWPOLYLINE
  5
3E
100
AcDbEntity
  8
USP-GEO
100
AcDbPolyline
 90
        3
 70
   128
 43
0.0
 10
1.763629204204676
 20
3.524114684337696
 10
1.449256797038067
 20
3.46124020290437
 10
1.197758871304777
 20
3.524114684337696
  0
LWPOLYLINE
  5
3F
100
AcDbEntity
  8
USP-GEO
100
AcDbPolyline
 90
        2
 70
   128
 43
0.0
 10
1.449256797038067
 20
3.46124020290437
 10
1.637880241338031
 20
3.46124020290437
  0
LWPOLYLINE
  5
40
100
AcDbEntity
  8
USP-GEO
100
AcDbPolyline
 90
        3
 70
   129
 43
0.0
 10
1.449256797038067
 20
3.967379778442612
 10
1.700754722771357
 20
3.967379778442612
 10
1.763629204204676
 20
4.030254259875931
  0
LWPOLYLINE
  5
41
100
AcDbEntity
  8
USP-GEO
100
AcDbPolyline
 90
        3
 70
   129
 43
0.0
 10
1.197758871304777
 20
4.030254259875931
 10
1.260633352738103
 20
3.967379778442612
 10
1.449256797038067
 20
3.967379778442612
  0
LWPOLYLINE
  5
42
100
AcDbEntity
  8
USP-GEO
100
AcDbPolyline
 90
        6
 70
   128
 43
0.0
 10
1.766772928276338
 20
3.524114684337696
 10
1.763629204204676
 20
3.524114684337696
 10
1.952252648504639
 20
3.653007371276004
 10
2.015127129937965
 20
3.778756334142649
 10
2.078001611371284
 20
3.904505297009293
 10
2.078001611371284
 20
3.967379778442612
  0
LWPOLYLINE
  5
43
100
AcDbEntity
  8
USP-GEO
100
AcDbPolyline
 90
        3
 70
   128
 43
0.0
 10
1.700754722771357
 20
3.524114684337696
 10
1.763629204204676
 20
3.524114684337696
 10
2.015127129937965
 20
3.46124020290437
  0
LWPOLYLINE
  5
44
100
AcDbEntity
  8
USP-GEO
100
AcDbPolyline
 90
        3
 70
   128
 43
0.0
 10
1.700754722771357
 20
3.967379778442612
 10
1.763629204204676
 20
3.967379778442612
 10
2.015127129937965
 20
3.967379778442612
  0
LWPOLYLINE
  5
45
100
AcDbEntity
  8
USP-GEO
100
AcDbPolyline
 90
        2
 70
   129
 43
0.0
 10
2.081145335442954
 20
3.46124020290437
 10
2.078001611371284
 20
3.46124020290437
  0
LWPOLYLINE
  5
46
100
AcDbEntity
  8
USP-GEO
100
AcDbPolyline
 90
        2
 70
   128
 43
0.0
 10
2.078001611371284
 20
4.407501148475866
 10
2.081145335442954
 20
4.407501148475866
  0
LWPOLYLINE
  5
47
100
AcDbEntity
  8
USP-GEO
100
AcDbPolyline
 90
        2
 70
   129
 43
0.0
 10
2.455248499971219
 20
4.218877704175902
 10
2.455248499971219
 20
1.512131278471393
  0
LWPOLYLINE
  5
48
100
AcDbEntity
  8
USP-GEO
100
AcDbPolyline
 90
       15
 70
   128
 43
0.0
 10
2.521266705476207
 20
4.281752185609221
 10
2.518122981404538
 20
4.281752185609221
 10
2.455248499971219
 20
4.218877704175902
 10
2.329499537104574
 20
4.218877704175902
 10
2.329499537104574
 20
1.512131278471393
 10
2.329499537104574
 20
4.218877704175902
 10
2.329499537104574
 20
4.721873555642474
 10
2.329499537104574
 20
4.218877704175902
 10
2.329499537104574
 20
4.281752185609221
 10
2.392374018537893
 20
4.344626667042547
 10
2.455248499971219
 20
4.407501148475866
 10
2.455248499971219
 20
4.7847480370758
 10
2.392374018537893
 20
4.721873555642474
 10
2.329499537104574
 20
4.721873555642474
 10
2.332643261176237
 20
4.721873555642474
  0
LWPOLYLINE
  5
49
100
AcDbEntity
  8
USP-GEO
100
AcDbPolyline
 90
        2
 70
   128
 43
0.0
 10
2.958244351437791
 20
0.0628744814333189
 10
2.961388075509461
 20
0.0628744814333189
  0
LWPOLYLINE
  5
4A
100
AcDbEntity
  8
USP-GEO
100
AcDbPolyline
 90
        7
 70
   128
 43
0.0
 10
2.580997462837864
 20
1.575005759904712
 10
2.832495388571146
 20
1.637880241338038
 10
2.832495388571146
 20
1.826503685638002
 10
2.580997462837864
 20
1.952252648504646
 10
2.895369870004472
 20
1.826503685638002
 10
2.895369870004472
 20
1.952252648504646
 10
2.580997462837864
 20
2.078001611371291
  0
LWPOLYLINE
  5
4B
100
AcDbEntity
  8
USP-GEO
100
AcDbPolyline
 90
        2
 70
   128
 43
0.0
 10
2.958244351437791
 20
1.512131278471393
 10
2.518122981404538
 20
1.512131278471393
  0
LWPOLYLINE
  5
4C
100
AcDbEntity
  8
USP-GEO
100
AcDbPolyline
 90
        3
 70
   129
 43
0.0
 10
2.455248499971219
 20
2.015127129937965
 10
2.518122981404538
 20
1.952252648504646
 10
2.518122981404538
 20
2.015127129937965
  0
LWPOLYLINE
  5
4D
100
AcDbEntity
  8
USP-GEO
100
AcDbPolyline
 90
        2
 70
   129
 43
0.0
 10
2.518122981404538
 20
1.952252648504646
 10
2.580997462837864
 20
1.952252648504646
  0
LWPOLYLINE
  5
4E
100
AcDbEntity
  8
USP-GEO
100
AcDbPolyline
 90
        3
 70
   128
 43
0.0
 10
2.958244351437791
 20
1.889378167071321
 10
2.958244351437791
 20
1.952252648504646
 10
2.895369870004472
 20
1.952252648504646
  0
LWPOLYLINE
  5
4F
100
AcDbEntity
  8
USP-GEO
100
AcDbPolyline
 90
        3
 70
   128
 43
0.0
 10
2.958244351437791
 20
1.763629204204683
 10
2.958244351437791
 20
1.700754722771357
 10
2.832495388571146
 20
1.637880241338038
  0
LWPOLYLINE
  5
50
100
AcDbEntity
  8
USP-GEO
100
AcDbPolyline
 90
        4
 70
   128
 43
0.0
 10
2.958244351437791
 20
1.763629204204683
 10
2.895369870004472
 20
1.826503685638002
 10
2.958244351437791
 20
1.826503685638002
 10
2.961388075509461
 20
1.826503685638002
  0
LWPOLYLINE
  5
51
100
AcDbEntity
  8
USP-GEO
100
AcDbPolyline
 90
        2
 70
   128
 43
0.0
 10
2.832495388571146
 20
1.826503685638002
 10
2.895369870004472
 20
1.826503685638002
  0
LWPOLYLINE
  5
52
100
AcDbEntity
  8
USP-GEO
100
AcDbPolyline
 90
        2
 70
   129
 43
0.0
 10
2.961388075509461
 20
1.763629204204683
 10
2.958244351437791
 20
1.763629204204683
  0
LWPOLYLINE
  5
53
100
AcDbEntity
  8
USP-GEO
100
AcDbPolyline
 90
        4
 70
   128
 43
0.0
 10
2.455248499971219
 20
4.7847480370758
 10
2.769620907137827
 20
4.847622518509119
 10
2.769620907137827
 20
4.658999074209155
 10
2.455248499971219
 20
4.407501148475866
  0
LWPOLYLINE
  5
54
100
AcDbEntity
  8
USP-GEO
100
AcDbPolyline
 90
        6
 70
   128
 43
0.0
 10
2.958244351437791
 20
4.910496999942438
 10
2.958244351437791
 20
4.7847480370758
 10
2.895369870004472
 20
4.721873555642474
 10
2.832495388571146
 20
4.658999074209155
 10
2.580997462837864
 20
4.344626667042547
 10
2.518122981404538
 20
4.281752185609221
  0
LWPOLYLINE
  5
55
100
AcDbEntity
  8
USP-GEO
100
AcDbPolyline
 90
        3
 70
   128
 43
0.0
 10
2.958244351437791
 20
4.973371481375764
 10
2.958244351437791
 20
5.099120444242409
 10
2.580997462837864
 20
5.099120444242409
  0
LWPOLYLINE
  5
56
100
AcDbEntity
  8
USP-GEO
100
AcDbPolyline
 90
        2
 70
   128
 43
0.0
 10
2.832495388571146
 20
4.973371481375764
 10
2.958244351437791
 20
4.973371481375764
  0
LWPOLYLINE
  5
57
100
AcDbEntity
  8
USP-GEO
100
AcDbPolyline
 90
        4
 70
   128
 43
0.0
 10
2.832495388571146
 20
4.910496999942438
 10
2.832495388571146
 20
4.7847480370758
 10
2.769620907137827
 20
4.721873555642474
 10
2.769620907137827
 20
4.658999074209155
  0
LWPOLYLINE
  5
58
100
AcDbEntity
  8
USP-GEO
100
AcDbPolyline
 90
        2
 70
   129
 43
0.0
 10
2.832495388571146
 20
4.910496999942438
 10
2.832495388571146
 20
4.973371481375764
  0
LWPOLYLINE
  5
59
100
AcDbEntity
  8
USP-GEO
100
AcDbPolyline
 90
        4
 70
   128
 43
0.0
 10
2.835639112642816
 20
4.910496999942438
 10
2.832495388571146
 20
4.910496999942438
 10
2.769620907137827
 20
4.910496999942438
 10
2.769620907137827
 20
4.847622518509119
  0
LWPOLYLINE
  5
5A
100
AcDbEntity
  8
USP-GEO
100
AcDbPolyline
 90
        2
 70
   129
 43
0.0
 10
2.958244351437791
 20
4.973371481375764
 10
2.958244351437791
 20
4.910496999942438
  0
LWPOLYLINE
  5
5B
100
AcDbEntity
  8
USP-GEO
100
AcDbPolyline
 90
        2
 70
   129
 43
0.0
 10
2.961388075509461
 20
4.973371481375764
 10
2.958244351437791
 20
4.973371481375764
  0
ENDBLK
  5
5E
100
AcDbEntity
  8
0
100
AcDbBlockEnd
  0
BLOCK
  5
129
100
AcDbEntity
  8
0
100
AcDbBlockBegin
  2
STAD14_F
 70
     0
 10
0.0
 20
0.0
 30
0.0
  3
STAD14_F
  1

  0
LWPOLYLINE
  5
61
100
AcDbEntity
  8
USP-GEO
100
AcDbPolyline
 90
        8
 70
   129
 43
0.0
 10
0.0
 20
14.03358425591745
 10
0.0
 20
14.1593332187841
 10
0.0
 20
46.00525806476164
 10
0.3803906126715972
 20
46.38250495336158
 10
2.580997462837864
 20
46.38250495336158
 10
2.958244351437791
 20
46.00525806476164
 10
2.958244351437791
 20
14.1593332187841
 10
0.0
 20
14.1593332187841
  0
LWPOLYLINE
  5
62
100
AcDbEntity
  8
USP-GEO
100
AcDbPolyline
 90
        8
 70
   128
 43
0.0
 10
2.832495388571146
 20
14.03358425591745
 10
2.958244351437791
 20
14.03358425591745
 10
2.958244351437791
 20
14.1593332187841
 10
2.958244351437791
 20
46.00525806476164
 10
2.580997462837864
 20
46.38250495336158
 10
0.3803906126715972
 20
46.38250495336158
 10
0.0
 20
46.00525806476164
 10
0.0
 20
14.1593332187841
  0
TEXT
  5
63
100
AcDbEntity
  8
USP-TXT
100
AcDbText
 10
-3.185972628911938
 20
-3.840750885057289
 30
0.0
 40
0.5
  1
STAD14 - FRONT VIEW
 72
     1
 11
1.480694037754727
 21
-3.840750885057289
 31
0.0
100
AcDbText
  0
LWPOLYLINE
  5
64
100
AcDbEntity
  8
USP-GEO
100
AcDbPolyline
 90
        4
 70
   128
 43
0.0
 10
2.015127129937965
 20
0.3772468885999345
 10
2.015127129937965
 20
0.6916192957665431
 10
2.958244351437791
 20
0.6916192957665431
 10
2.958244351437791
 20
0.8173682586331878
  0
LWPOLYLINE
  5
65
100
AcDbEntity
  8
USP-GEO
100
AcDbPolyline
 90
       10
 70
   128
 43
0.0
 10
2.015127129937965
 20
0.2514979257332897
 10
2.958244351437791
 20
0.2514979257332897
 10
2.958244351437791
 20
0.6916192957665431
 10
2.958244351437791
 20
0.8173682586331878
 10
2.958244351437791
 20
1.260633352738111
 10
2.958244351437791
 20
1.386382315604748
 10
2.958244351437791
 20
1.260633352738111
 10
2.958244351437791
 20
0.8173682586331878
 10
1.826503685637995
 20
0.8173682586331878
 10
1.826503685637995
 20
1.386382315604748
  0
LWPOLYLINE
  5
66
100
AcDbEntity
  8
USP-GEO
100
AcDbPolyline
 90
       11
 70
   128
 43
0.0
 10
2.081145335442954
 20
19.00695573729321
 10
2.078001611371284
 20
19.00695573729321
 10
1.952252648504639
 20
19.00695573729321
 10
2.078001611371284
 20
19.00695573729321
 10
2.14087609280461
 20
19.00695573729321
 10
2.14087609280461
 20
18.94408125585989
 10
2.14087609280461
 20
18.88120677442657
 10
2.078001611371284
 20
18.88120677442657
 10
1.952252648504639
 20
18.88120677442657
 10
2.078001611371284
 20
18.88120677442657
 10
2.081145335442954
 20
18.88120677442657
  0
LWPOLYLINE
  5
67
100
AcDbEntity
  8
USP-GEO
100
AcDbPolyline
 90
       10
 70
   128
 43
0.0
 10
2.081145335442954
 20
21.83945112586436
 10
2.078001611371284
 20
21.83945112586436
 10
1.952252648504639
 20
21.83945112586436
 10
2.078001611371284
 20
21.83945112586436
 10
2.14087609280461
 20
21.90232560729769
 10
2.14087609280461
 20
21.965200088731
 10
2.078001611371284
 20
22.02807457016433
 10
1.952252648504639
 20
22.02807457016433
 10
2.078001611371284
 20
22.02807457016433
 10
2.081145335442954
 20
22.02807457016433
  0
LWPOLYLINE
  5
68
100
AcDbEntity
  8
USP-GEO
100
AcDbPolyline
 90
       10
 70
   128
 43
0.0
 10
2.081145335442954
 20
25.04919340303545
 10
2.078001611371284
 20
25.04919340303545
 10
1.952252648504639
 20
25.04919340303545
 10
2.078001611371284
 20
25.04919340303545
 10
2.14087609280461
 20
24.98631892160212
 10
2.14087609280461
 20
24.92344444016881
 10
2.078001611371284
 20
24.86056995873549
 10
1.952252648504639
 20
24.86056995873549
 10
2.078001611371284
 20
24.86056995873549
 10
2.081145335442954
 20
24.86056995873549
  0
LWPOLYLINE
  5
69
100
AcDbEntity
  8
USP-GEO
100
AcDbPolyline
 90
        5
 70
   128
 43
0.0
 10
2.015127129937965
 20
7.680117907080273
 10
2.078001611371284
 20
7.931615832813562
 10
2.078001611371284
 20
7.994490314246881
 10
2.078001611371284
 20
8.057364795680207
 10
2.015127129937965
 20
8.120239277113526
  0
LWPOLYLINE
  5
6A
100
AcDbEntity
  8
USP-GEO
100
AcDbPolyline
 90
        8
 70
   128
 43
0.0
 10
2.078001611371284
 20
7.931615832813562
 10
1.952252648504639
 20
7.994490314246881
 10
1.763629204204676
 20
8.057364795680207
 10
1.449256797038067
 20
8.057364795680207
 10
1.197758871304777
 20
8.057364795680207
 10
1.009135427004814
 20
7.994490314246881
 10
0.8833864641381694
 20
7.931615832813562
 10
0.9462609455714883
 20
7.680117907080273
  0
LWPOLYLINE
  5
6B
100
AcDbEntity
  8
USP-GEO
100
AcDbPolyline
 90
        3
 70
   128
 43
0.0
 10
0.8833864641381694
 20
7.931615832813562
 10
0.8833864641381694
 20
7.994490314246881
 10
0.8865301882098322
 20
7.994490314246881
  0
LWPOLYLINE
  5
6C
100
AcDbEntity
  8
USP-GEO
100
AcDbPolyline
 90
        2
 70
   129
 43
0.0
 10
0.506139575538235
 20
2.3923740185379
 10
0.506139575538235
 20
13.0275925529843
  0
LWPOLYLINE
  5
6D
100
AcDbEntity
  8
USP-GEO
100
AcDbPolyline
 90
        2
 70
   129
 43
0.0
 10
0.6318885384048798
 20
13.0275925529843
 10
0.6318885384048798
 20
2.3923740185379
  0
LWPOLYLINE
  5
6E
100
AcDbEntity
  8
USP-GEO
100
AcDbPolyline
 90
        5
 70
   128
 43
0.0
 10
1.134884389871459
 20
0.8173682586331878
 10
0.0
 20
0.8173682586331878
 10
0.0
 20
0.6916192957665431
 10
0.0
 20
0.2514979257332897
 10
0.9462609455714883
 20
0.2514979257332897
  0
LWPOLYLINE
  5
6F
100
AcDbEntity
  8
USP-GEO
100
AcDbPolyline
 90
        5
 70
   128
 43
0.0
 10
0.9462609455714883
 20
0.3772468885999345
 10
2.015127129937965
 20
0.3772468885999345
 10
2.015127129937965
 20
0.0
 10
2.015127129937965
 20
0.3772468885999345
 10
2.015127129937965
 20
0.6916192957665431
  0
LWPOLYLINE
  5
70
100
AcDbEntity
  8
USP-GEO
100
AcDbPolyline
 90
        2
 70
   128
 43
0.0
 10
0.9462609455714883
 20
0.0
 10
2.015127129937965
 20
0.0
  0
LWPOLYLINE
  5
71
100
AcDbEntity
  8
USP-GEO
100
AcDbPolyline
 90
        6
 70
   128
 43
0.0
 10
0.9462609455714883
 20
0.6916192957665431
 10
0.9462609455714883
 20
0.3772468885999345
 10
0.9462609455714883
 20
0.0
 10
0.9462609455714883
 20
0.3772468885999345
 10
0.9462609455714883
 20
0.6916192957665431
 10
0.0
 20
0.6916192957665431
  0
LWPOLYLINE
  5
72
100
AcDbEntity
  8
USP-GEO
100
AcDbPolyline
 90
        7
 70
   128
 43
0.0
 10
0.0
 20
0.2514979257332897
 10
0.0
 20
0.6916192957665431
 10
0.0
 20
0.8173682586331878
 10
0.0
 20
1.260633352738111
 10
0.0
 20
1.386382315604748
 10
0.0
 20
1.260633352738111
 10
0.0
 20
0.8173682586331878
  0
LWPOLYLINE
  5
73
100
AcDbEntity
  8
USP-GEO
100
AcDbPolyline
 90
        5
 70
   128
 43
0.0
 10
0.506139575538235
 20
1.952252648504646
 10
0.569014056971561
 20
2.078001611371291
 10
0.6318885384048798
 20
2.140876092804617
 10
0.6318885384048798
 20
2.266625055671255
 10
0.6318885384048798
 20
2.3923740185379
  0
LWPOLYLINE
  5
74
100
AcDbEntity
  8
USP-GEO
100
AcDbPolyline
 90
       15
 70
   128
 43
0.0
 10
0.1257489628666377
 20
1.386382315604748
 10
0.1257489628666377
 20
1.512131278471393
 10
0.1886234442999637
 20
1.575005759904719
 10
0.1886234442999637
 20
1.637880241338038
 10
0.1257489628666377
 20
1.449256797038074
 10
0.1257489628666377
 20
1.260633352738111
 10
0.0
 20
1.260633352738111
 10
0.0
 20
1.512131278471393
 10
0.1257489628666377
 20
1.700754722771364
 10
0.3803906126715972
 20
2.140876092804617
 10
0.4432650941049161
 20
2.266625055671255
 10
0.506139575538235
 20
2.3923740185379
 10
0.6318885384048798
 20
2.3923740185379
 10
0.569014056971561
 20
2.203750574237936
 10
0.506139575538235
 20
2.078001611371291
  0
LWPOLYLINE
  5
75
100
AcDbEntity
  8
USP-GEO
100
AcDbPolyline
 90
        5
 70
   128
 43
0.0
 10
0.2514979257332826
 20
1.889378167071328
 10
0.0628744814333189
 20
1.700754722771364
 10
0.0
 20
1.575005759904719
 10
0.0
 20
1.512131278471393
 10
0.0
 20
1.386382315604748
  0
LWPOLYLINE
  5
76
100
AcDbEntity
  8
USP-GEO
100
AcDbPolyline
 90
        4
 70
   128
 43
0.0
 10
0.1886234442999637
 20
1.575005759904719
 10
0.506139575538235
 20
1.952252648504646
 10
0.506139575538235
 20
2.078001611371291
 10
0.1886234442999637
 20
1.637880241338038
  0
LWPOLYLINE
  5
77
100
AcDbEntity
  8
USP-GEO
100
AcDbPolyline
 90
        3
 70
   128
 43
0.0
 10
0.0
 20
1.512131278471393
 10
0.0
 20
1.449256797038074
 10
0.0
 20
1.260633352738111
  0
LWPOLYLINE
  5
78
100
AcDbEntity
  8
USP-GEO
100
AcDbPolyline
 90
        2
 70
   128
 43
0.0
 10
0.6318885384048798
 20
2.266625055671255
 10
0.6318885384048798
 20
2.3923740185379
  0
LWPOLYLINE
  5
79
100
AcDbEntity
  8
USP-GEO
100
AcDbPolyline
 90
        2
 70
   129
 43
0.0
 10
1.449256797038067
 20
1.323507834171429
 10
1.449256797038067
 20
0.5658703328998982
  0
LWPOLYLINE
  5
7A
100
AcDbEntity
  8
USP-GEO
100
AcDbPolyline
 90
        2
 70
   128
 43
0.0
 10
1.449256797038067
 20
0.5658703328998982
 10
1.449256797038067
 20
1.323507834171429
  0
LWPOLYLINE
  5
7B
100
AcDbEntity
  8
USP-GEO
100
AcDbPolyline
 90
        2
 70
   129
 43
0.0
 10
1.134884389871459
 20
0.8173682586331878
 10
1.134884389871459
 20
0.5658703328998982
  0
LWPOLYLINE
  5
7C
100
AcDbEntity
  8
USP-GEO
100
AcDbPolyline
 90
        2
 70
   128
 43
0.0
 10
1.826503685637995
 20
0.8173682586331878
 10
1.826503685637995
 20
0.5658703328998982
  0
LWPOLYLINE
  5
7D
100
AcDbEntity
  8
USP-GEO
100
AcDbPolyline
 90
       10
 70
   128
 43
0.0
 10
1.134884389871459
 20
0.5658703328998982
 10
1.826503685637995
 20
0.5658703328998982
 10
1.826503685637995
 20
0.8173682586331878
 10
1.826503685637995
 20
1.386382315604748
 10
1.826503685637995
 20
1.575005759904719
 10
1.637880241338031
 20
1.700754722771364
 10
1.449256797038067
 20
1.763629204204683
 10
1.323507834171422
 20
1.700754722771364
 10
1.134884389871459
 20
1.575005759904719
 10
1.134884389871459
 20
1.386382315604748
  0
LWPOLYLINE
  5
7E
100
AcDbEntity
  8
USP-GEO
100
AcDbPolyline
 90
        7
 70
   128
 43
0.0
 10
1.134884389871459
 20
1.323507834171429
 10
1.134884389871459
 20
1.512131278471393
 10
1.323507834171422
 20
1.637880241338038
 10
1.449256797038067
 20
1.700754722771364
 10
1.637880241338031
 20
1.637880241338038
 10
1.826503685637995
 20
1.512131278471393
 10
1.826503685637995
 20
1.323507834171429
  0
LWPOLYLINE
  5
7F
100
AcDbEntity
  8
USP-GEO
100
AcDbPolyline
 90
        2
 70
   129
 43
0.0
 10
1.134884389871459
 20
1.386382315604748
 10
1.134884389871459
 20
0.8173682586331878
  0
LWPOLYLINE
  5
80
100
AcDbEntity
  8
USP-GEO
100
AcDbPolyline
 90
       11
 70
   129
 43
0.0
 10
0.9462609455714883
 20
7.680117907080273
 10
1.072009908438133
 20
7.742992388513599
 10
1.260633352738103
 20
7.805866869946918
 10
1.449256797038067
 20
7.805866869946918
 10
1.700754722771357
 20
7.805866869946918
 10
1.889378167071321
 20
7.742992388513599
 10
2.015127129937965
 20
7.680117907080273
 10
1.889378167071321
 20
7.488350738708639
 10
1.637880241338031
 20
7.299727294408675
 10
1.323507834171422
 20
7.299727294408675
 10
1.072009908438133
 20
7.488350738708639
  0
LWPOLYLINE
  5
81
100
AcDbEntity
  8
USP-GEO
100
AcDbPolyline
 90
       13
 70
   129
 43
0.0
 10
1.197758871304777
 20
8.245988239980171
 10
1.134884389871459
 20
8.183113758546852
 10
0.9462609455714883
 20
8.120239277113526
 10
1.072009908438133
 20
8.120239277113526
 10
1.260633352738103
 20
8.183113758546852
 10
1.449256797038067
 20
8.183113758546852
 10
1.700754722771357
 20
8.183113758546852
 10
1.889378167071321
 20
8.120239277113526
 10
2.015127129937965
 20
8.120239277113526
 10
1.826503685637995
 20
8.183113758546852
 10
1.700754722771357
 20
8.245988239980171
 10
1.449256797038067
 20
8.245988239980171
 10
1.260633352738103
 20
8.245988239980171
  0
LWPOLYLINE
  5
82
100
AcDbEntity
  8
USP-GEO
100
AcDbPolyline
 90
       14
 70
   129
 43
0.0
 10
1.197758871304777
 20
10.13222268297983
 10
1.134884389871459
 20
10.13222268297983
 10
0.9462609455714883
 20
10.00647372011318
 10
1.072009908438133
 20
10.0693482015465
 10
1.260633352738103
 20
10.13222268297983
 10
1.449256797038067
 20
10.13222268297983
 10
1.700754722771357
 20
10.13222268297983
 10
1.889378167071321
 20
10.0693482015465
 10
2.015127129937965
 20
10.00647372011318
 10
1.826503685637995
 20
10.13222268297983
 10
1.763629204204676
 20
10.13222268297983
 10
1.700754722771357
 20
10.19509716441314
 10
1.449256797038067
 20
10.19509716441314
 10
1.260633352738103
 20
10.19509716441314
  0
LWPOLYLINE
  5
83
100
AcDbEntity
  8
USP-GEO
100
AcDbPolyline
 90
       10
 70
   128
 43
0.0
 10
2.078001611371284
 20
9.880724757246539
 10
1.952252648504639
 20
9.943599238679865
 10
1.763629204204676
 20
9.943599238679865
 10
1.449256797038067
 20
10.00647372011318
 10
1.197758871304777
 20
9.943599238679865
 10
1.009135427004814
 20
9.943599238679865
 10
0.8833864641381694
 20
9.880724757246539
 10
0.8833864641381694
 20
9.943599238679865
 10
0.8833864641381694
 20
10.00647372011318
 10
0.9462609455714883
 20
10.00647372011318
  0
LWPOLYLINE
  5
84
100
AcDbEntity
  8
USP-GEO
100
AcDbPolyline
 90
       14
 70
   129
 43
0.0
 10
1.197758871304777
 20
12.08447533148447
 10
1.134884389871459
 20
12.08447533148447
 10
0.9462609455714883
 20
11.95872636861783
 10
1.072009908438133
 20
12.02160085005115
 10
1.260633352738103
 20
12.08447533148447
 10
1.449256797038067
 20
12.08447533148447
 10
1.700754722771357
 20
12.08447533148447
 10
1.889378167071321
 20
12.02160085005115
 10
2.015127129937965
 20
11.95872636861783
 10
1.826503685637995
 20
12.08447533148447
 10
1.763629204204676
 20
12.08447533148447
 10
1.700754722771357
 20
12.14734981291779
 10
1.449256797038067
 20
12.14734981291779
 10
1.260633352738103
 20
12.14734981291779
  0
LWPOLYLINE
  5
85
100
AcDbEntity
  8
USP-GEO
100
AcDbPolyline
 90
       10
 70
   128
 43
0.0
 10
2.078001611371284
 20
11.83297740575118
 10
1.952252648504639
 20
11.8958518871845
 10
1.763629204204676
 20
11.8958518871845
 10
1.449256797038067
 20
11.8958518871845
 10
1.197758871304777
 20
11.8958518871845
 10
1.009135427004814
 20
11.8958518871845
 10
0.8833864641381694
 20
11.83297740575118
 10
0.8833864641381694
 20
11.8958518871845
 10
0.8833864641381694
 20
11.95872636861783
 10
0.9462609455714883
 20
11.95872636861783
  0
LWPOLYLINE
  5
86
100
AcDbEntity
  8
USP-GEO
100
AcDbPolyline
 90
       13
 70
   128
 43
0.0
 10
2.015127129937965
 20
11.95872636861783
 10
2.078001611371284
 20
11.95872636861783
 10
2.078001611371284
 20
11.8958518871845
 10
2.078001611371284
 20
11.83297740575118
 10
2.015127129937965
 20
11.58147948001789
 10
1.889378167071321
 20
11.64435396145122
 10
1.700754722771357
 20
11.70722844288454
 10
1.449256797038067
 20
11.70722844288454
 10
1.260633352738103
 20
11.70722844288454
 10
1.072009908438133
 20
11.64435396145122
 10
0.9462609455714883
 20
11.58147948001789
 10
0.8833864641381694
 20
11.83297740575118
 10
0.8865301882098322
 20
11.83297740575118
  0
LWPOLYLINE
  5
87
100
AcDbEntity
  8
USP-GEO
100
AcDbPolyline
 90
       12
 70
   128
 43
0.0
 10
2.015127129937965
 20
10.00647372011318
 10
2.078001611371284
 20
10.00647372011318
 10
2.078001611371284
 20
9.943599238679865
 10
2.078001611371284
 20
9.880724757246539
 10
2.015127129937965
 20
9.62922683151325
 10
1.889378167071321
 20
9.692101312946576
 10
1.700754722771357
 20
9.754975794379895
 10
1.449256797038067
 20
9.754975794379895
 10
1.260633352738103
 20
9.754975794379895
 10
1.072009908438133
 20
9.692101312946576
 10
0.9462609455714883
 20
9.62922683151325
 10
0.8833864641381694
 20
9.880724757246539
  0
LWPOLYLINE
  5
88
100
AcDbEntity
  8
USP-GEO
100
AcDbPolyline
 90
        6
 70
   128
 43
0.0
 10
2.015127129937965
 20
11.58147948001789
 10
1.889378167071321
 20
11.3299815542846
 10
1.637880241338031
 20
11.20423259141797
 10
1.323507834171422
 20
11.20423259141797
 10
1.072009908438133
 20
11.3299815542846
 10
0.9462609455714883
 20
11.58147948001789
  0
LWPOLYLINE
  5
89
100
AcDbEntity
  8
USP-GEO
100
AcDbPolyline
 90
        6
 70
   128
 43
0.0
 10
2.015127129937965
 20
9.62922683151325
 10
1.889378167071321
 20
9.377728905779967
 10
1.637880241338031
 20
9.251979942913322
 10
1.323507834171422
 20
9.251979942913322
 10
1.072009908438133
 20
9.377728905779967
 10
0.9462609455714883
 20
9.62922683151325
  0
LWPOLYLINE
  5
8A
100
AcDbEntity
  8
USP-GEO
100
AcDbPolyline
 90
        3
 70
   128
 43
0.0
 10
0.8833864641381694
 20
7.994490314246881
 10
0.8833864641381694
 20
8.057364795680207
 10
0.9462609455714883
 20
8.120239277113526
  0
LWPOLYLINE
  5
8B
100
AcDbEntity
  8
USP-GEO
100
AcDbPolyline
 90
        2
 70
   128
 43
0.0
 10
2.078001611371284
 20
7.994490314246881
 10
2.081145335442954
 20
7.994490314246881
  0
LWPOLYLINE
  5
8C
100
AcDbEntity
  8
USP-GEO
100
AcDbPolyline
 90
       12
 70
   128
 43
0.0
 10
0.1257489628666377
 20
13.9078352930508
 10
0.1257489628666377
 20
13.84496081161749
 10
0.1257489628666377
 20
13.71921184875084
 10
0.1886234442999637
 20
13.65633736731751
 10
0.506139575538235
 20
13.34196496015091
 10
0.569014056971561
 20
13.21621599728426
 10
0.6318885384048798
 20
13.15334151585094
 10
0.6318885384048798
 20
13.0275925529843
 10
0.506139575538235
 20
13.0275925529843
 10
0.4432650941049161
 20
13.09046703441762
 10
0.4432650941049161
 20
13.21621599728426
 10
0.3803906126715972
 20
13.21621599728426
  0
LWPOLYLINE
  5
8D
100
AcDbEntity
  8
USP-GEO
100
AcDbPolyline
 90
       10
 70
   129
 43
0.0
 10
0.4432650941049161
 20
15.04271968292226
 10
0.4432650941049161
 20
15.10559416435559
 10
0.506139575538235
 20
15.10559416435559
 10
0.569014056971561
 20
15.04271968292226
 10
0.569014056971561
 20
14.97984520148895
 10
0.569014056971561
 20
14.91697072005562
 10
0.506139575538235
 20
14.91697072005562
 10
0.4432650941049161
 20
14.91697072005562
 10
0.3803906126715972
 20
14.97984520148895
 10
0.3803906126715972
 20
15.04271968292226
  0
LWPOLYLINE
  5
8E
100
AcDbEntity
  8
USP-GEO
100
AcDbPolyline
 90
        4
 70
   128
 43
0.0
 10
0.1257489628666377
 20
13.53058840445087
 10
0.3803906126715972
 20
13.15334151585094
 10
0.3803906126715972
 20
13.21621599728426
 10
0.1257489628666377
 20
13.5934628858842
  0
LWPOLYLINE
  5
8F
100
AcDbEntity
  8
USP-GEO
100
AcDbPolyline
 90
        3
 70
   128
 43
0.0
 10
0.0
 20
14.03358425591745
 10
0.0
 20
13.9078352930508
 10
0.0031437240716627
 20
13.9078352930508
  0
LWPOLYLINE
  5
90
100
AcDbEntity
  8
USP-GEO
100
AcDbPolyline
 90
        2
 70
   129
 43
0.0
 10
0.1257489628666377
 20
14.03358425591745
 10
0.1257489628666377
 20
13.9078352930508
  0
LWPOLYLINE
  5
91
100
AcDbEntity
  8
USP-GEO
100
AcDbPolyline
 90
       10
 70
   128
 43
0.0
 10
0.1257489628666377
 20
14.03358425591745
 10
0.0
 20
14.03358425591745
 10
0.0
 20
13.9078352930508
 10
0.0
 20
13.78208633018416
 10
0.0628744814333189
 20
13.65633736731751
 10
0.1257489628666377
 20
13.5934628858842
 10
0.1257489628666377
 20
13.53058840445087
 10
0.0628744814333189
 20
13.65633736731751
 10
0.0
 20
13.78208633018416
 10
0.0
 20
13.9078352930508
  0
LWPOLYLINE
  5
92
100
AcDbEntity
  8
USP-GEO
100
AcDbPolyline
 90
        4
 70
   128
 43
0.0
 10
0.506139575538235
 20
12.90184359011765
 10
0.4432650941049161
 20
13.0275925529843
 10
0.4432650941049161
 20
13.09046703441762
 10
0.3803906126715972
 20
13.15334151585094
  0
LWPOLYLINE
  5
93
100
AcDbEntity
  8
USP-GEO
100
AcDbPolyline
 90
       13
 70
   128
 43
0.0
 10
1.012279151076477
 20
20.51594329169294
 10
1.009135427004814
 20
20.51594329169294
 10
0.8833864641381694
 20
20.51594329169294
 10
1.009135427004814
 20
20.51594329169294
 10
1.072009908438133
 20
20.45306881025962
 10
1.072009908438133
 20
20.39019432882629
 10
1.009135427004814
 20
20.39019432882629
 10
1.009135427004814
 20
20.32731984739297
 10
0.8833864641381694
 20
20.32731984739297
 10
0.8833864641381694
 20
20.39019432882629
 10
0.8205119827048505
 20
20.39019432882629
 10
0.8205119827048505
 20
20.45306881025962
 10
0.8236557067765133
 20
20.45306881025962
  0
LWPOLYLINE
  5
94
100
AcDbEntity
  8
USP-GEO
100
AcDbPolyline
 90
       10
 70
   128
 43
0.0
 10
0.506139575538235
 20
18.88120677442657
 10
0.4432650941049161
 20
18.88120677442657
 10
0.3803906126715972
 20
18.88120677442657
 10
0.3803906126715972
 20
18.94408125585989
 10
0.3803906126715972
 20
19.00695573729321
 10
0.4432650941049161
 20
19.00695573729321
 10
0.506139575538235
 20
19.00695573729321
 10
0.569014056971561
 20
19.00695573729321
 10
0.6318885384048798
 20
19.00695573729321
 10
0.6350322624765497
 20
19.00695573729321
  0
LWPOLYLINE
  5
95
100
AcDbEntity
  8
USP-GEO
100
AcDbPolyline
 90
        2
 70
   128
 43
0.0
 10
0.506139575538235
 20
19.00695573729321
 10
0.569014056971561
 20
19.00695573729321
  0
LWPOLYLINE
  5
96
100
AcDbEntity
  8
USP-GEO
100
AcDbPolyline
 90
        5
 70
   128
 43
0.0
 10
0.6350322624765497
 20
18.88120677442657
 10
0.6318885384048798
 20
18.88120677442657
 10
0.569014056971561
 20
18.88120677442657
 10
0.506139575538235
 20
18.88120677442657
 10
0.569014056971561
 20
18.88120677442657
  0
LWPOLYLINE
  5
97
100
AcDbEntity
  8
USP-GEO
100
AcDbPolyline
 90
        3
 70
   128
 43
0.0
 10
0.6318885384048798
 20
19.00695573729321
 10
0.6318885384048798
 20
18.94408125585989
 10
0.6318885384048798
 20
18.88120677442657
  0
LWPOLYLINE
  5
98
100
AcDbEntity
  8
USP-GEO
100
AcDbPolyline
 90
       12
 70
   129
 43
0.0
 10
0.3803906126715972
 20
21.965200088731
 10
0.3803906126715972
 20
21.90232560729769
 10
0.4432650941049161
 20
21.83945112586436
 10
0.506139575538235
 20
21.83945112586436
 10
0.569014056971561
 20
21.83945112586436
 10
0.6318885384048798
 20
21.83945112586436
 10
0.6318885384048798
 20
21.90232560729769
 10
0.6318885384048798
 20
21.965200088731
 10
0.6318885384048798
 20
22.02807457016433
 10
0.569014056971561
 20
22.02807457016433
 10
0.506139575538235
 20
22.02807457016433
 10
0.4432650941049161
 20
22.02807457016433
  0
LWPOLYLINE
  5
99
100
AcDbEntity
  8
USP-GEO
100
AcDbPolyline
 90
        2
 70
   128
 43
0.0
 10
0.506139575538235
 20
22.02807457016433
 10
0.569014056971561
 20
22.02807457016433
  0
LWPOLYLINE
  5
9A
100
AcDbEntity
  8
USP-GEO
100
AcDbPolyline
 90
        2
 70
   128
 43
0.0
 10
0.569014056971561
 20
21.83945112586436
 10
0.506139575538235
 20
21.83945112586436
  0
LWPOLYLINE
  5
9B
100
AcDbEntity
  8
USP-GEO
100
AcDbPolyline
 90
        2
 70
   128
 43
0.0
 10
0.3803906126715972
 20
21.965200088731
 10
0.38353433674326
 20
21.965200088731
  0
LWPOLYLINE
  5
9C
100
AcDbEntity
  8
USP-GEO
100
AcDbPolyline
 90
        3
 70
   128
 43
0.0
 10
0.8205119827048505
 20
20.45306881025962
 10
0.8833864641381694
 20
20.51594329169294
 10
0.8865301882098322
 20
20.51594329169294
  0
LWPOLYLINE
  5
9D
100
AcDbEntity
  8
USP-GEO
100
AcDbPolyline
 90
        2
 70
   128
 43
0.0
 10
1.009135427004814
 20
20.32731984739297
 10
0.8833864641381694
 20
20.32731984739297
  0
LWPOLYLINE
  5
9E
100
AcDbEntity
  8
USP-GEO
100
AcDbPolyline
 90
        7
 70
   128
 43
0.0
 10
1.955396372576309
 20
19.00695573729321
 10
1.952252648504639
 20
19.00695573729321
 10
1.889378167071321
 20
19.00695573729321
 10
1.889378167071321
 20
18.94408125585989
 10
1.889378167071321
 20
18.88120677442657
 10
1.952252648504639
 20
18.88120677442657
 10
1.955396372576309
 20
18.88120677442657
  0
LWPOLYLINE
  5
9F
100
AcDbEntity
  8
USP-GEO
100
AcDbPolyline
 90
        2
 70
   128
 43
0.0
 10
1.072009908438133
 20
20.45306881025962
 10
1.075153632509803
 20
20.45306881025962
  0
LWPOLYLINE
  5
A0
100
AcDbEntity
  8
USP-GEO
100
AcDbPolyline
 90
        5
 70
   128
 43
0.0
 10
1.955396372576309
 20
21.83945112586436
 10
1.952252648504639
 20
21.83945112586436
 10
1.889378167071321
 20
21.90232560729769
 10
1.889378167071321
 20
21.965200088731
 10
1.892521891142983
 20
21.965200088731
  0
LWPOLYLINE
  5
A1
100
AcDbEntity
  8
USP-GEO
100
AcDbPolyline
 90
        3
 70
   128
 43
0.0
 10
1.889378167071321
 20
21.965200088731
 10
1.952252648504639
 20
22.02807457016433
 10
1.955396372576309
 20
22.02807457016433
  0
LWPOLYLINE
  5
A2
100
AcDbEntity
  8
USP-GEO
100
AcDbPolyline
 90
       14
 70
   128
 43
0.0
 10
1.012279151076477
 20
26.36955751313521
 10
1.009135427004814
 20
26.36955751313521
 10
0.8833864641381694
 20
26.36955751313521
 10
1.009135427004814
 20
26.36955751313521
 10
1.072009908438133
 20
26.43243199456853
 10
1.072009908438133
 20
26.49530647600185
 10
1.009135427004814
 20
26.49530647600185
 10
1.009135427004814
 20
26.55818095743518
 10
0.8833864641381694
 20
26.55818095743518
 10
0.8833864641381694
 20
26.49530647600185
 10
0.8205119827048505
 20
26.49530647600185
 10
0.8205119827048505
 20
26.43243199456853
 10
0.8833864641381694
 20
26.36955751313521
 10
0.8865301882098322
 20
26.36955751313521
  0
LWPOLYLINE
  5
A3
100
AcDbEntity
  8
USP-GEO
100
AcDbPolyline
 90
       10
 70
   128
 43
0.0
 10
1.012279151076477
 20
23.53706212456406
 10
1.009135427004814
 20
23.53706212456406
 10
0.8833864641381694
 20
23.53706212456406
 10
1.009135427004814
 20
23.53706212456406
 10
1.072009908438133
 20
23.47418764313073
 10
1.072009908438133
 20
23.41131316169741
 10
1.009135427004814
 20
23.34843868026409
 10
0.8833864641381694
 20
23.34843868026409
 10
1.009135427004814
 20
23.34843868026409
 10
1.012279151076477
 20
23.34843868026409
  0
LWPOLYLINE
  5
A4
100
AcDbEntity
  8
USP-GEO
100
AcDbPolyline
 90
       12
 70
   129
 43
0.0
 10
0.3803906126715972
 20
24.92344444016881
 10
0.3803906126715972
 20
24.98631892160212
 10
0.4432650941049161
 20
25.04919340303545
 10
0.506139575538235
 20
25.04919340303545
 10
0.569014056971561
 20
25.04919340303545
 10
0.6318885384048798
 20
25.04919340303545
 10
0.6318885384048798
 20
24.98631892160212
 10
0.6318885384048798
 20
24.92344444016881
 10
0.6318885384048798
 20
24.86056995873549
 10
0.569014056971561
 20
24.86056995873549
 10
0.506139575538235
 20
24.86056995873549
 10
0.4432650941049161
 20
24.86056995873549
  0
LWPOLYLINE
  5
A5
100
AcDbEntity
  8
USP-GEO
100
AcDbPolyline
 90
        2
 70
   128
 43
0.0
 10
0.506139575538235
 20
25.04919340303545
 10
0.569014056971561
 20
25.04919340303545
  0
LWPOLYLINE
  5
A6
100
AcDbEntity
  8
USP-GEO
100
AcDbPolyline
 90
        2
 70
   128
 43
0.0
 10
0.569014056971561
 20
24.86056995873549
 10
0.506139575538235
 20
24.86056995873549
  0
LWPOLYLINE
  5
A7
100
AcDbEntity
  8
USP-GEO
100
AcDbPolyline
 90
        5
 70
   128
 43
0.0
 10
0.8865301882098322
 20
23.34843868026409
 10
0.8833864641381694
 20
23.34843868026409
 10
0.8205119827048505
 20
23.41131316169741
 10
0.8205119827048505
 20
23.47418764313073
 10
0.8236557067765133
 20
23.47418764313073
  0
LWPOLYLINE
  5
A8
100
AcDbEntity
  8
USP-GEO
100
AcDbPolyline
 90
        3
 70
   128
 43
0.0
 10
0.8205119827048505
 20
23.47418764313073
 10
0.8833864641381694
 20
23.53706212456406
 10
0.8865301882098322
 20
23.53706212456406
  0
LWPOLYLINE
  5
A9
100
AcDbEntity
  8
USP-GEO
100
AcDbPolyline
 90
        2
 70
   128
 43
0.0
 10
0.8833864641381694
 20
26.55818095743518
 10
1.009135427004814
 20
26.55818095743518
  0
LWPOLYLINE
  5
AA
100
AcDbEntity
  8
USP-GEO
100
AcDbPolyline
 90
        2
 70
   128
 43
0.0
 10
1.072009908438133
 20
23.47418764313073
 10
1.075153632509803
 20
23.47418764313073
  0
LWPOLYLINE
  5
AB
100
AcDbEntity
  8
USP-GEO
100
AcDbPolyline
 90
        6
 70
   128
 43
0.0
 10
1.955396372576309
 20
25.04919340303545
 10
1.952252648504639
 20
25.04919340303545
 10
1.889378167071321
 20
24.98631892160212
 10
1.889378167071321
 20
24.92344444016881
 10
1.952252648504639
 20
24.86056995873549
 10
1.955396372576309
 20
24.86056995873549
  0
LWPOLYLINE
  5
AC
100
AcDbEntity
  8
USP-GEO
100
AcDbPolyline
 90
        2
 70
   129
 43
0.0
 10
2.455248499971219
 20
13.0275925529843
 10
2.455248499971219
 20
2.3923740185379
  0
LWPOLYLINE
  5
AD
100
AcDbEntity
  8
USP-GEO
100
AcDbPolyline
 90
       10
 70
   128
 43
0.0
 10
2.455248499971219
 20
12.90184359011765
 10
2.518122981404538
 20
13.0275925529843
 10
2.518122981404538
 20
13.09046703441762
 10
2.580997462837864
 20
13.15334151585094
 10
2.580997462837864
 20
13.21621599728426
 10
2.518122981404538
 20
13.21621599728426
 10
2.518122981404538
 20
13.09046703441762
 10
2.455248499971219
 20
13.0275925529843
 10
2.329499537104574
 20
13.0275925529843
 10
2.329499537104574
 20
2.3923740185379
  0
LWPOLYLINE
  5
AE
100
AcDbEntity
  8
USP-GEO
100
AcDbPolyline
 90
        9
 70
   128
 43
0.0
 10
2.832495388571146
 20
13.9078352930508
 10
2.832495388571146
 20
13.84496081161749
 10
2.769620907137827
 20
13.71921184875084
 10
2.769620907137827
 20
13.65633736731751
 10
2.455248499971219
 20
13.34196496015091
 10
2.392374018537893
 20
13.21621599728426
 10
2.329499537104574
 20
13.15334151585094
 10
2.329499537104574
 20
13.0275925529843
 10
2.329499537104574
 20
2.3923740185379
  0
LWPOLYLINE
  5
AF
100
AcDbEntity
  8
USP-GEO
100
AcDbPolyline
 90
        2
 70
   128
 43
0.0
 10
2.958244351437791
 20
0.2514979257332897
 10
2.958244351437791
 20
0.6916192957665431
  0
LWPOLYLINE
  5
B0
100
AcDbEntity
  8
USP-GEO
100
AcDbPolyline
 90
        4
 70
   129
 43
0.0
 10
2.455248499971219
 20
2.078001611371291
 10
2.769620907137827
 20
1.637880241338038
 10
2.769620907137827
 20
1.575005759904719
 10
2.455248499971219
 20
1.952252648504646
  0
LWPOLYLINE
  5
B1
100
AcDbEntity
  8
USP-GEO
100
AcDbPolyline
 90
       13
 70
   128
 43
0.0
 10
2.769620907137827
 20
1.637880241338038
 10
2.832495388571146
 20
1.449256797038074
 10
2.832495388571146
 20
1.260633352738111
 10
2.958244351437791
 20
1.260633352738111
 10
2.958244351437791
 20
1.449256797038074
 10
2.958244351437791
 20
1.512131278471393
 10
2.832495388571146
 20
1.700754722771364
 10
2.580997462837864
 20
2.140876092804617
 10
2.518122981404538
 20
2.266625055671255
 10
2.455248499971219
 20
2.3923740185379
 10
2.329499537104574
 20
2.3923740185379
 10
2.392374018537893
 20
2.203750574237936
 10
2.455248499971219
 20
2.078001611371291
  0
LWPOLYLINE
  5
B2
100
AcDbEntity
  8
USP-GEO
100
AcDbPolyline
 90
        4
 70
   128
 43
0.0
 10
2.329499537104574
 20
2.266625055671255
 10
2.329499537104574
 20
2.140876092804617
 10
2.392374018537893
 20
2.078001611371291
 10
2.455248499971219
 20
1.952252648504646
  0
LWPOLYLINE
  5
B3
100
AcDbEntity
  8
USP-GEO
100
AcDbPolyline
 90
        2
 70
   129
 43
0.0
 10
2.329499537104574
 20
2.266625055671255
 10
2.329499537104574
 20
2.3923740185379
  0
LWPOLYLINE
  5
B4
100
AcDbEntity
  8
USP-GEO
100
AcDbPolyline
 90
        5
 70
   128
 43
0.0
 10
2.958244351437791
 20
1.386382315604748
 10
2.958244351437791
 20
1.512131278471393
 10
2.958244351437791
 20
1.575005759904719
 10
2.895369870004472
 20
1.700754722771364
 10
2.706746425704501
 20
1.889378167071328
  0
LWPOLYLINE
  5
B5
100
AcDbEntity
  8
USP-GEO
100
AcDbPolyline
 90
        3
 70
   128
 43
0.0
 10
2.832495388571146
 20
1.449256797038074
 10
2.769620907137827
 20
1.512131278471393
 10
2.769620907137827
 20
1.575005759904719
  0
LWPOLYLINE
  5
B6
100
AcDbEntity
  8
USP-GEO
100
AcDbPolyline
 90
        2
 70
   128
 43
0.0
 10
2.958244351437791
 20
1.260633352738111
 10
2.958244351437791
 20
1.512131278471393
  0
LWPOLYLINE
  5
B7
100
AcDbEntity
  8
USP-GEO
100
AcDbPolyline
 90
        4
 70
   128
 43
0.0
 10
2.580997462837864
 20
13.21621599728426
 10
2.832495388571146
 20
13.5934628858842
 10
2.832495388571146
 20
13.53058840445087
 10
2.580997462837864
 20
13.15334151585094
  0
LWPOLYLINE
  5
B8
100
AcDbEntity
  8
USP-GEO
100
AcDbPolyline
 90
        7
 70
   128
 43
0.0
 10
2.521266705476207
 20
14.91697072005562
 10
2.518122981404538
 20
14.91697072005562
 10
2.455248499971219
 20
14.91697072005562
 10
2.392374018537893
 20
14.91697072005562
 10
2.392374018537893
 20
14.97984520148895
 10
2.392374018537893
 20
15.04271968292226
 10
2.395517742609563
 20
15.04271968292226
  0
LWPOLYLINE
  5
B9
100
AcDbEntity
  8
USP-GEO
100
AcDbPolyline
 90
        7
 70
   128
 43
0.0
 10
2.392374018537893
 20
15.04271968292226
 10
2.455248499971219
 20
15.10559416435559
 10
2.518122981404538
 20
15.10559416435559
 10
2.518122981404538
 20
15.04271968292226
 10
2.580997462837864
 20
15.04271968292226
 10
2.580997462837864
 20
14.97984520148895
 10
2.518122981404538
 20
14.91697072005562
  0
LWPOLYLINE
  5
BA
100
AcDbEntity
  8
USP-GEO
100
AcDbPolyline
 90
        2
 70
   128
 43
0.0
 10
2.958244351437791
 20
14.03358425591745
 10
2.958244351437791
 20
14.1593332187841
  0
LWPOLYLINE
  5
BB
100
AcDbEntity
  8
USP-GEO
100
AcDbPolyline
 90
        4
 70
   128
 43
0.0
 10
2.958244351437791
 20
13.9078352930508
 10
2.958244351437791
 20
13.78208633018416
 10
2.895369870004472
 20
13.65633736731751
 10
2.832495388571146
 20
13.5934628858842
  0
LWPOLYLINE
  5
BC
100
AcDbEntity
  8
USP-GEO
100
AcDbPolyline
 90
        4
 70
   128
 43
0.0
 10
2.958244351437791
 20
13.9078352930508
 10
2.958244351437791
 20
13.78208633018416
 10
2.895369870004472
 20
13.65633736731751
 10
2.832495388571146
 20
13.53058840445087
  0
LWPOLYLINE
  5
BD
100
AcDbEntity
  8
USP-GEO
100
AcDbPolyline
 90
        2
 70
   129
 43
0.0
 10
2.832495388571146
 20
13.9078352930508
 10
2.832495388571146
 20
14.03358425591745
  0
LWPOLYLINE
  5
BE
100
AcDbEntity
  8
USP-GEO
100
AcDbPolyline
 90
        2
 70
   128
 43
0.0
 10
2.958244351437791
 20
13.9078352930508
 10
2.961388075509461
 20
13.9078352930508
  0
LWPOLYLINE
  5
BF
100
AcDbEntity
  8
USP-GEO
100
AcDbPolyline
 90
        2
 70
   129
 43
0.0
 10
2.958244351437791
 20
13.9078352930508
 10
2.958244351437791
 20
14.03358425591745
  0
LWPOLYLINE
  5
C0
100
AcDbEntity
  8
USP-GEO
100
AcDbPolyline
 90
       11
 70
   129
 43
0.0
 10
2.329499537104574
 20
20.39019432882629
 10
2.329499537104574
 20
20.45306881025962
 10
2.329499537104574
 20
20.51594329169294
 10
2.392374018537893
 20
20.51594329169294
 10
2.455248499971219
 20
20.51594329169294
 10
2.518122981404538
 20
20.51594329169294
 10
2.580997462837864
 20
20.45306881025962
 10
2.580997462837864
 20
20.39019432882629
 10
2.518122981404538
 20
20.39019432882629
 10
2.455248499971219
 20
20.32731984739297
 10
2.392374018537893
 20
20.32731984739297
  0
LWPOLYLINE
  5
C1
100
AcDbEntity
  8
USP-GEO
100
AcDbPolyline
 90
        2
 70
   128
 43
0.0
 10
2.392374018537893
 20
20.51594329169294
 10
2.455248499971219
 20
20.51594329169294
  0
LWPOLYLINE
  5
C2
100
AcDbEntity
  8
USP-GEO
100
AcDbPolyline
 90
        2
 70
   128
 43
0.0
 10
2.455248499971219
 20
20.32731984739297
 10
2.392374018537893
 20
20.32731984739297
  0
LWPOLYLINE
  5
C3
100
AcDbEntity
  8
USP-GEO
100
AcDbPolyline
 90
        2
 70
   128
 43
0.0
 10
2.329499537104574
 20
20.45306881025962
 10
2.332643261176237
 20
20.45306881025962
  0
LWPOLYLINE
  5
C4
100
AcDbEntity
  8
USP-GEO
100
AcDbPolyline
 90
        2
 70
   128
 43
0.0
 10
2.580997462837864
 20
20.45306881025962
 10
2.584141186909526
 20
20.45306881025962
  0
LWPOLYLINE
  5
C5
100
AcDbEntity
  8
USP-GEO
100
AcDbPolyline
 90
       12
 70
   129
 43
0.0
 10
2.329499537104574
 20
23.47418764313073
 10
2.329499537104574
 20
23.53706212456406
 10
2.392374018537893
 20
23.53706212456406
 10
2.455248499971219
 20
23.53706212456406
 10
2.518122981404538
 20
23.53706212456406
 10
2.580997462837864
 20
23.47418764313073
 10
2.580997462837864
 20
23.41131316169741
 10
2.518122981404538
 20
23.34843868026409
 10
2.455248499971219
 20
23.34843868026409
 10
2.392374018537893
 20
23.34843868026409
 10
2.329499537104574
 20
23.34843868026409
 10
2.329499537104574
 20
23.41131316169741
  0
LWPOLYLINE
  5
C6
100
AcDbEntity
  8
USP-GEO
100
AcDbPolyline
 90
        2
 70
   128
 43
0.0
 10
2.392374018537893
 20
23.53706212456406
 10
2.455248499971219
 20
23.53706212456406
  0
LWPOLYLINE
  5
C7
100
AcDbEntity
  8
USP-GEO
100
AcDbPolyline
 90
        2
 70
   128
 43
0.0
 10
2.455248499971219
 20
23.34843868026409
 10
2.392374018537893
 20
23.34843868026409
  0
LWPOLYLINE
  5
C8
100
AcDbEntity
  8
USP-GEO
100
AcDbPolyline
 90
        2
 70
   128
 43
0.0
 10
2.329499537104574
 20
23.47418764313073
 10
2.332643261176237
 20
23.47418764313073
  0
LWPOLYLINE
  5
C9
100
AcDbEntity
  8
USP-GEO
100
AcDbPolyline
 90
        2
 70
   128
 43
0.0
 10
2.580997462837864
 20
23.47418764313073
 10
2.584141186909526
 20
23.47418764313073
  0
LWPOLYLINE
  5
CA
100
AcDbEntity
  8
USP-GEO
100
AcDbPolyline
 90
       13
 70
   128
 43
0.0
 10
2.329499537104574
 20
26.49530647600185
 10
2.392374018537893
 20
26.55818095743518
 10
2.455248499971219
 20
26.55818095743518
 10
2.518122981404538
 20
26.49530647600185
 10
2.580997462837864
 20
26.49530647600185
 10
2.580997462837864
 20
26.43243199456853
 10
2.518122981404538
 20
26.36955751313521
 10
2.455248499971219
 20
26.36955751313521
 10
2.392374018537893
 20
26.36955751313521
 10
2.329499537104574
 20
26.36955751313521
 10
2.329499537104574
 20
26.43243199456853
 10
2.329499537104574
 20
26.49530647600185
 10
2.332643261176237
 20
26.49530647600185
  0
LWPOLYLINE
  5
CB
100
AcDbEntity
  8
USP-GEO
100
AcDbPolyline
 90
        2
 70
   128
 43
0.0
 10
2.455248499971219
 20
26.36955751313521
 10
2.392374018537893
 20
26.36955751313521
  0
LWPOLYLINE
  5
CC
100
AcDbEntity
  8
USP-GEO
100
AcDbPolyline
 90
        2
 70
   128
 43
0.0
 10
2.392374018537893
 20
26.55818095743518
 10
2.455248499971219
 20
26.55818095743518
  0
LWPOLYLINE
  5
CD
100
AcDbEntity
  8
USP-GEO
100
AcDbPolyline
 90
       13
 70
   128
 43
0.0
 10
2.081145335442954
 20
31.02855658734437
 10
2.078001611371284
 20
31.02855658734437
 10
1.952252648504639
 20
31.02855658734437
 10
2.078001611371284
 20
31.02855658734437
 10
2.14087609280461
 20
30.96253838183938
 10
2.14087609280461
 20
30.89966390040605
 10
2.078001611371284
 20
30.89966390040605
 10
2.078001611371284
 20
30.83678941897272
 10
1.952252648504639
 20
30.83678941897272
 10
1.952252648504639
 20
30.89966390040605
 10
1.889378167071321
 20
30.89966390040605
 10
1.889378167071321
 20
30.96253838183938
 10
1.892521891142983
 20
30.96253838183938
  0
LWPOLYLINE
  5
CE
100
AcDbEntity
  8
USP-GEO
100
AcDbPolyline
 90
       14
 70
   128
 43
0.0
 10
2.081145335442954
 20
36.87902708471496
 10
2.078001611371284
 20
36.87902708471496
 10
1.952252648504639
 20
36.87902708471496
 10
2.078001611371284
 20
36.87902708471496
 10
2.14087609280461
 20
36.94190156614828
 10
2.14087609280461
 20
37.00477604758161
 10
2.078001611371284
 20
37.00477604758161
 10
2.078001611371284
 20
37.06765052901493
 10
1.952252648504639
 20
37.06765052901493
 10
1.952252648504639
 20
37.00477604758161
 10
1.889378167071321
 20
37.00477604758161
 10
1.889378167071321
 20
36.94190156614828
 10
1.952252648504639
 20
36.87902708471496
 10
1.955396372576309
 20
36.87902708471496
  0
LWPOLYLINE
  5
CF
100
AcDbEntity
  8
USP-GEO
100
AcDbPolyline
 90
       11
 70
   128
 43
0.0
 10
2.081145335442954
 20
27.8816887916066
 10
2.078001611371284
 20
27.8816887916066
 10
1.952252648504639
 20
27.8816887916066
 10
2.078001611371284
 20
27.8816887916066
 10
2.14087609280461
 20
27.8816887916066
 10
2.14087609280461
 20
27.94456327303992
 10
2.14087609280461
 20
28.00743775447324
 10
2.078001611371284
 20
28.00743775447324
 10
1.952252648504639
 20
28.00743775447324
 10
2.078001611371284
 20
28.00743775447324
 10
2.081145335442954
 20
28.00743775447324
  0
LWPOLYLINE
  5
D0
100
AcDbEntity
  8
USP-GEO
100
AcDbPolyline
 90
       10
 70
   128
 43
0.0
 10
2.081145335442954
 20
33.85790825184385
 10
2.078001611371284
 20
33.85790825184385
 10
1.952252648504639
 20
33.85790825184385
 10
2.078001611371284
 20
33.85790825184385
 10
2.14087609280461
 20
33.92078273327717
 10
2.14087609280461
 20
33.98365721471049
 10
2.078001611371284
 20
34.04653169614381
 10
1.952252648504639
 20
34.04653169614381
 10
2.078001611371284
 20
34.04653169614381
 10
2.081145335442954
 20
34.04653169614381
  0
LWPOLYLINE
  5
D1
100
AcDbEntity
  8
USP-GEO
100
AcDbPolyline
 90
       11
 70
   128
 43
0.0
 10
2.081145335442954
 20
39.90014591758608
 10
2.078001611371284
 20
39.90014591758608
 10
1.952252648504639
 20
39.90014591758608
 10
2.078001611371284
 20
39.90014591758608
 10
2.14087609280461
 20
39.90014591758608
 10
2.14087609280461
 20
39.9630203990194
 10
2.14087609280461
 20
40.02589488045273
 10
2.078001611371284
 20
40.02589488045273
 10
1.952252648504639
 20
40.02589488045273
 10
2.078001611371284
 20
40.02589488045273
 10
2.081145335442954
 20
40.02589488045273
  0
LWPOLYLINE
  5
D2
100
AcDbEntity
  8
USP-GEO
100
AcDbPolyline
 90
       10
 70
   128
 43
0.0
 10
2.081145335442954
 20
43.04701371332384
 10
2.078001611371284
 20
43.04701371332384
 10
1.952252648504639
 20
43.04701371332384
 10
2.078001611371284
 20
43.04701371332384
 10
2.14087609280461
 20
42.98413923189052
 10
2.14087609280461
 20
42.9212647504572
 10
2.078001611371284
 20
42.85839026902388
 10
1.952252648504639
 20
42.85839026902388
 10
2.078001611371284
 20
42.85839026902388
 10
2.081145335442954
 20
42.85839026902388
  0
LWPOLYLINE
  5
D3
100
AcDbEntity
  8
USP-GEO
100
AcDbPolyline
 90
       10
 70
   128
 43
0.0
 10
2.081145335442954
 20
46.06813254619496
 10
2.078001611371284
 20
46.06813254619496
 10
1.952252648504639
 20
46.06813254619496
 10
2.078001611371284
 20
46.06813254619496
 10
2.14087609280461
 20
46.00525806476164
 10
2.14087609280461
 20
45.94238358332832
 10
2.078001611371284
 20
45.87950910189499
 10
1.952252648504639
 20
45.87950910189499
 10
2.078001611371284
 20
45.87950910189499
 10
2.081145335442954
 20
45.87950910189499
  0
LWPOLYLINE
  5
D4
100
AcDbEntity
  8
USP-GEO
100
AcDbPolyline
 90
       11
 70
   128
 43
0.0
 10
1.012279151076477
 20
29.51642530887296
 10
1.009135427004814
 20
29.51642530887296
 10
0.8833864641381694
 20
29.51642530887296
 10
1.009135427004814
 20
29.51642530887296
 10
1.072009908438133
 20
29.51642530887296
 10
1.072009908438133
 20
29.45355082743965
 10
1.072009908438133
 20
29.39067634600633
 10
1.009135427004814
 20
29.39067634600633
 10
0.8833864641381694
 20
29.39067634600633
 10
1.009135427004814
 20
29.39067634600633
 10
1.012279151076477
 20
29.39067634600633
  0
LWPOLYLINE
  5
D5
100
AcDbEntity
  8
USP-GEO
100
AcDbPolyline
 90
       10
 70
   128
 43
0.0
 10
1.012279151076477
 20
32.53754414174409
 10
1.009135427004814
 20
32.53754414174409
 10
0.8833864641381694
 20
32.53754414174409
 10
1.009135427004814
 20
32.53754414174409
 10
1.072009908438133
 20
32.47466966031076
 10
1.072009908438133
 20
32.41179517887744
 10
1.009135427004814
 20
32.34892069744413
 10
0.8833864641381694
 20
32.34892069744413
 10
1.009135427004814
 20
32.34892069744413
 10
1.012279151076477
 20
32.34892069744413
  0
LWPOLYLINE
  5
D6
100
AcDbEntity
  8
USP-GEO
100
AcDbPolyline
 90
       13
 70
   128
 43
0.0
 10
0.6350322624765497
 20
28.00743775447324
 10
0.6318885384048798
 20
28.00743775447324
 10
0.569014056971561
 20
28.00743775447324
 10
0.506139575538235
 20
28.00743775447324
 10
0.4432650941049161
 20
28.00743775447324
 10
0.3803906126715972
 20
28.00743775447324
 10
0.3803906126715972
 20
27.94456327303992
 10
0.3803906126715972
 20
27.8816887916066
 10
0.4432650941049161
 20
27.8816887916066
 10
0.506139575538235
 20
27.8816887916066
 10
0.569014056971561
 20
27.8816887916066
 10
0.6318885384048798
 20
27.8816887916066
 10
0.6350322624765497
 20
27.8816887916066
  0
LWPOLYLINE
  5
D7
100
AcDbEntity
  8
USP-GEO
100
AcDbPolyline
 90
        2
 70
   128
 43
0.0
 10
0.506139575538235
 20
28.00743775447324
 10
0.569014056971561
 20
28.00743775447324
  0
LWPOLYLINE
  5
D8
100
AcDbEntity
  8
USP-GEO
100
AcDbPolyline
 90
        2
 70
   128
 43
0.0
 10
0.569014056971561
 20
27.8816887916066
 10
0.506139575538235
 20
27.8816887916066
  0
LWPOLYLINE
  5
D9
100
AcDbEntity
  8
USP-GEO
100
AcDbPolyline
 90
        3
 70
   128
 43
0.0
 10
0.6318885384048798
 20
27.8816887916066
 10
0.6318885384048798
 20
27.94456327303992
 10
0.6318885384048798
 20
28.00743775447324
  0
LWPOLYLINE
  5
DA
100
AcDbEntity
  8
USP-GEO
100
AcDbPolyline
 90
        7
 70
   128
 43
0.0
 10
0.8865301882098322
 20
29.51642530887296
 10
0.8833864641381694
 20
29.51642530887296
 10
0.8205119827048505
 20
29.51642530887296
 10
0.8205119827048505
 20
29.45355082743965
 10
0.8205119827048505
 20
29.39067634600633
 10
0.8833864641381694
 20
29.39067634600633
 10
0.8865301882098322
 20
29.39067634600633
  0
LWPOLYLINE
  5
DB
100
AcDbEntity
  8
USP-GEO
100
AcDbPolyline
 90
        8
 70
   128
 43
0.0
 10
0.6350322624765497
 20
30.89966390040605
 10
0.6318885384048798
 20
30.89966390040605
 10
0.569014056971561
 20
30.83678941897272
 10
0.506139575538235
 20
30.83678941897272
 10
0.4432650941049161
 20
30.89966390040605
 10
0.3803906126715972
 20
30.89966390040605
 10
0.3803906126715972
 20
30.96253838183938
 10
0.38353433674326
 20
30.96253838183938
  0
LWPOLYLINE
  5
DC
100
AcDbEntity
  8
USP-GEO
100
AcDbPolyline
 90
        7
 70
   128
 43
0.0
 10
0.3803906126715972
 20
30.96253838183938
 10
0.4432650941049161
 20
31.02855658734437
 10
0.506139575538235
 20
31.02855658734437
 10
0.569014056971561
 20
31.02855658734437
 10
0.6318885384048798
 20
31.02855658734437
 10
0.6318885384048798
 20
30.96253838183938
 10
0.6318885384048798
 20
30.89966390040605
  0
LWPOLYLINE
  5
DD
100
AcDbEntity
  8
USP-GEO
100
AcDbPolyline
 90
        2
 70
   128
 43
0.0
 10
0.506139575538235
 20
31.02855658734437
 10
0.569014056971561
 20
31.02855658734437
  0
LWPOLYLINE
  5
DE
100
AcDbEntity
  8
USP-GEO
100
AcDbPolyline
 90
        2
 70
   128
 43
0.0
 10
0.569014056971561
 20
30.83678941897272
 10
0.506139575538235
 20
30.83678941897272
  0
LWPOLYLINE
  5
DF
100
AcDbEntity
  8
USP-GEO
100
AcDbPolyline
 90
        2
 70
   128
 43
0.0
 10
0.6318885384048798
 20
30.96253838183938
 10
0.6350322624765497
 20
30.96253838183938
  0
LWPOLYLINE
  5
E0
100
AcDbEntity
  8
USP-GEO
100
AcDbPolyline
 90
        5
 70
   128
 43
0.0
 10
0.8865301882098322
 20
32.34892069744413
 10
0.8833864641381694
 20
32.34892069744413
 10
0.8205119827048505
 20
32.41179517887744
 10
0.8205119827048505
 20
32.47466966031076
 10
0.8236557067765133
 20
32.47466966031076
  0
LWPOLYLINE
  5
E1
100
AcDbEntity
  8
USP-GEO
100
AcDbPolyline
 90
        3
 70
   128
 43
0.0
 10
0.8205119827048505
 20
32.47466966031076
 10
0.8833864641381694
 20
32.53754414174409
 10
0.8865301882098322
 20
32.53754414174409
  0
LWPOLYLINE
  5
E2
100
AcDbEntity
  8
USP-GEO
100
AcDbPolyline
 90
        7
 70
   128
 43
0.0
 10
1.955396372576309
 20
28.00743775447324
 10
1.952252648504639
 20
28.00743775447324
 10
1.889378167071321
 20
28.00743775447324
 10
1.889378167071321
 20
27.94456327303992
 10
1.889378167071321
 20
27.8816887916066
 10
1.952252648504639
 20
27.8816887916066
 10
1.955396372576309
 20
27.8816887916066
  0
LWPOLYLINE
  5
E3
100
AcDbEntity
  8
USP-GEO
100
AcDbPolyline
 90
        2
 70
   128
 43
0.0
 10
1.072009908438133
 20
32.47466966031076
 10
1.075153632509803
 20
32.47466966031076
  0
LWPOLYLINE
  5
E4
100
AcDbEntity
  8
USP-GEO
100
AcDbPolyline
 90
        3
 70
   128
 43
0.0
 10
1.889378167071321
 20
30.96253838183938
 10
1.952252648504639
 20
31.02855658734437
 10
1.955396372576309
 20
31.02855658734437
  0
LWPOLYLINE
  5
E5
100
AcDbEntity
  8
USP-GEO
100
AcDbPolyline
 90
        2
 70
   128
 43
0.0
 10
2.078001611371284
 20
30.83678941897272
 10
1.952252648504639
 20
30.83678941897272
  0
LWPOLYLINE
  5
E6
100
AcDbEntity
  8
USP-GEO
100
AcDbPolyline
 90
       10
 70
   128
 43
0.0
 10
1.012279151076477
 20
35.5586629746152
 10
1.009135427004814
 20
35.5586629746152
 10
0.8833864641381694
 20
35.5586629746152
 10
1.009135427004814
 20
35.5586629746152
 10
1.072009908438133
 20
35.49578849318189
 10
1.072009908438133
 20
35.43291401174856
 10
1.009135427004814
 20
35.37003953031524
 10
0.8833864641381694
 20
35.37003953031524
 10
1.009135427004814
 20
35.37003953031524
 10
1.012279151076477
 20
35.37003953031524
  0
LWPOLYLINE
  5
E7
100
AcDbEntity
  8
USP-GEO
100
AcDbPolyline
 90
       12
 70
   129
 43
0.0
 10
0.3803906126715972
 20
33.98365721471049
 10
0.3803906126715972
 20
33.92078273327717
 10
0.4432650941049161
 20
33.85790825184385
 10
0.506139575538235
 20
33.85790825184385
 10
0.569014056971561
 20
33.85790825184385
 10
0.6318885384048798
 20
33.85790825184385
 10
0.6318885384048798
 20
33.92078273327717
 10
0.6318885384048798
 20
33.98365721471049
 10
0.6318885384048798
 20
34.04653169614381
 10
0.569014056971561
 20
34.04653169614381
 10
0.506139575538235
 20
34.04653169614381
 10
0.4432650941049161
 20
34.04653169614381
  0
LWPOLYLINE
  5
E8
100
AcDbEntity
  8
USP-GEO
100
AcDbPolyline
 90
        2
 70
   128
 43
0.0
 10
0.506139575538235
 20
34.04653169614381
 10
0.569014056971561
 20
34.04653169614381
  0
LWPOLYLINE
  5
E9
100
AcDbEntity
  8
USP-GEO
100
AcDbPolyline
 90
        2
 70
   128
 43
0.0
 10
0.569014056971561
 20
33.85790825184385
 10
0.506139575538235
 20
33.85790825184385
  0
LWPOLYLINE
  5
EA
100
AcDbEntity
  8
USP-GEO
100
AcDbPolyline
 90
        2
 70
   128
 43
0.0
 10
0.3803906126715972
 20
33.98365721471049
 10
0.38353433674326
 20
33.98365721471049
  0
LWPOLYLINE
  5
EB
100
AcDbEntity
  8
USP-GEO
100
AcDbPolyline
 90
       13
 70
   128
 43
0.0
 10
0.6318885384048798
 20
37.00477604758161
 10
0.6318885384048798
 20
36.94190156614828
 10
0.6318885384048798
 20
36.87902708471496
 10
0.569014056971561
 20
36.87902708471496
 10
0.506139575538235
 20
36.87902708471496
 10
0.4432650941049161
 20
36.87902708471496
 10
0.3803906126715972
 20
36.94190156614828
 10
0.3803906126715972
 20
37.00477604758161
 10
0.4432650941049161
 20
37.00477604758161
 10
0.506139575538235
 20
37.06765052901493
 10
0.569014056971561
 20
37.06765052901493
 10
0.6318885384048798
 20
37.00477604758161
 10
0.6350322624765497
 20
37.00477604758161
  0
LWPOLYLINE
  5
EC
100
AcDbEntity
  8
USP-GEO
100
AcDbPolyline
 90
        2
 70
   128
 43
0.0
 10
0.506139575538235
 20
37.06765052901493
 10
0.569014056971561
 20
37.06765052901493
  0
LWPOLYLINE
  5
ED
100
AcDbEntity
  8
USP-GEO
100
AcDbPolyline
 90
        2
 70
   128
 43
0.0
 10
0.569014056971561
 20
36.87902708471496
 10
0.506139575538235
 20
36.87902708471496
  0
LWPOLYLINE
  5
EE
100
AcDbEntity
  8
USP-GEO
100
AcDbPolyline
 90
        6
 70
   128
 43
0.0
 10
0.8865301882098322
 20
35.5586629746152
 10
0.8833864641381694
 20
35.5586629746152
 10
0.8205119827048505
 20
35.49578849318189
 10
0.8205119827048505
 20
35.43291401174856
 10
0.8833864641381694
 20
35.37003953031524
 10
0.8865301882098322
 20
35.37003953031524
  0
LWPOLYLINE
  5
EF
100
AcDbEntity
  8
USP-GEO
100
AcDbPolyline
 90
        5
 70
   128
 43
0.0
 10
1.955396372576309
 20
33.85790825184385
 10
1.952252648504639
 20
33.85790825184385
 10
1.889378167071321
 20
33.92078273327717
 10
1.889378167071321
 20
33.98365721471049
 10
1.892521891142983
 20
33.98365721471049
  0
LWPOLYLINE
  5
F0
100
AcDbEntity
  8
USP-GEO
100
AcDbPolyline
 90
        3
 70
   128
 43
0.0
 10
1.889378167071321
 20
33.98365721471049
 10
1.952252648504639
 20
34.04653169614381
 10
1.955396372576309
 20
34.04653169614381
  0
LWPOLYLINE
  5
F1
100
AcDbEntity
  8
USP-GEO
100
AcDbPolyline
 90
        2
 70
   128
 43
0.0
 10
1.952252648504639
 20
37.06765052901493
 10
2.078001611371284
 20
37.06765052901493
  0
LWPOLYLINE
  5
F2
100
AcDbEntity
  8
USP-GEO
100
AcDbPolyline
 90
       13
 70
   128
 43
0.0
 10
1.012279151076477
 20
41.53802615892412
 10
1.009135427004814
 20
41.53802615892412
 10
0.8833864641381694
 20
41.53802615892412
 10
1.009135427004814
 20
41.53802615892412
 10
1.072009908438133
 20
41.47515167749079
 10
1.072009908438133
 20
41.41227719605747
 10
1.009135427004814
 20
41.41227719605747
 10
1.009135427004814
 20
41.34940271462415
 10
0.8833864641381694
 20
41.34940271462415
 10
0.8833864641381694
 20
41.41227719605747
 10
0.8205119827048505
 20
41.41227719605747
 10
0.8205119827048505
 20
41.47515167749079
 10
0.8236557067765133
 20
41.47515167749079
  0
LWPOLYLINE
  5
F3
100
AcDbEntity
  8
USP-GEO
100
AcDbPolyline
 90
       11
 70
   128
 43
0.0
 10
1.012279151076477
 20
38.516907326053
 10
1.009135427004814
 20
38.516907326053
 10
0.8833864641381694
 20
38.516907326053
 10
1.009135427004814
 20
38.516907326053
 10
1.072009908438133
 20
38.516907326053
 10
1.072009908438133
 20
38.45403284461968
 10
1.072009908438133
 20
38.39115836318636
 10
1.009135427004814
 20
38.39115836318636
 10
0.8833864641381694
 20
38.39115836318636
 10
1.009135427004814
 20
38.39115836318636
 10
1.012279151076477
 20
38.39115836318636
  0
LWPOLYLINE
  5
F4
100
AcDbEntity
  8
USP-GEO
100
AcDbPolyline
 90
       13
 70
   128
 43
0.0
 10
0.6350322624765497
 20
40.02589488045273
 10
0.6318885384048798
 20
40.02589488045273
 10
0.569014056971561
 20
40.02589488045273
 10
0.506139575538235
 20
40.02589488045273
 10
0.4432650941049161
 20
40.02589488045273
 10
0.3803906126715972
 20
40.02589488045273
 10
0.3803906126715972
 20
39.9630203990194
 10
0.3803906126715972
 20
39.90014591758608
 10
0.4432650941049161
 20
39.90014591758608
 10
0.506139575538235
 20
39.90014591758608
 10
0.569014056971561
 20
39.90014591758608
 10
0.6318885384048798
 20
39.90014591758608
 10
0.6350322624765497
 20
39.90014591758608
  0
LWPOLYLINE
  5
F5
100
AcDbEntity
  8
USP-GEO
100
AcDbPolyline
 90
        3
 70
   128
 43
0.0
 10
0.6318885384048798
 20
39.90014591758608
 10
0.6318885384048798
 20
39.9630203990194
 10
0.6318885384048798
 20
40.02589488045273
  0
LWPOLYLINE
  5
F6
100
AcDbEntity
  8
USP-GEO
100
AcDbPolyline
 90
        2
 70
   128
 43
0.0
 10
0.569014056971561
 20
39.90014591758608
 10
0.506139575538235
 20
39.90014591758608
  0
LWPOLYLINE
  5
F7
100
AcDbEntity
  8
USP-GEO
100
AcDbPolyline
 90
        7
 70
   128
 43
0.0
 10
0.8865301882098322
 20
38.516907326053
 10
0.8833864641381694
 20
38.516907326053
 10
0.8205119827048505
 20
38.516907326053
 10
0.8205119827048505
 20
38.45403284461968
 10
0.8205119827048505
 20
38.39115836318636
 10
0.8833864641381694
 20
38.39115836318636
 10
0.8865301882098322
 20
38.39115836318636
  0
LWPOLYLINE
  5
F8
100
AcDbEntity
  8
USP-GEO
100
AcDbPolyline
 90
        2
 70
   128
 43
0.0
 10
0.506139575538235
 20
40.02589488045273
 10
0.569014056971561
 20
40.02589488045273
  0
LWPOLYLINE
  5
F9
100
AcDbEntity
  8
USP-GEO
100
AcDbPolyline
 90
        3
 70
   128
 43
0.0
 10
0.8205119827048505
 20
41.47515167749079
 10
0.8833864641381694
 20
41.53802615892412
 10
0.8865301882098322
 20
41.53802615892412
  0
LWPOLYLINE
  5
FA
100
AcDbEntity
  8
USP-GEO
100
AcDbPolyline
 90
        2
 70
   128
 43
0.0
 10
1.009135427004814
 20
41.34940271462415
 10
0.8833864641381694
 20
41.34940271462415
  0
LWPOLYLINE
  5
FB
100
AcDbEntity
  8
USP-GEO
100
AcDbPolyline
 90
        7
 70
   128
 43
0.0
 10
1.955396372576309
 20
40.02589488045273
 10
1.952252648504639
 20
40.02589488045273
 10
1.889378167071321
 20
40.02589488045273
 10
1.889378167071321
 20
39.9630203990194
 10
1.889378167071321
 20
39.90014591758608
 10
1.952252648504639
 20
39.90014591758608
 10
1.955396372576309
 20
39.90014591758608
  0
LWPOLYLINE
  5
FC
100
AcDbEntity
  8
USP-GEO
100
AcDbPolyline
 90
        2
 70
   128
 43
0.0
 10
1.072009908438133
 20
41.47515167749079
 10
1.075153632509803
 20
41.47515167749079
  0
LWPOLYLINE
  5
FD
100
AcDbEntity
  8
USP-GEO
100
AcDbPolyline
 90
       12
 70
   128
 43
0.0
 10
0.8865301882098322
 20
44.37052154749527
 10
0.8833864641381694
 20
44.37052154749527
 10
0.8205119827048505
 20
44.4333960289286
 10
0.8205119827048505
 20
44.49627051036191
 10
0.8833864641381694
 20
44.55914499179523
 10
1.009135427004814
 20
44.55914499179523
 10
1.072009908438133
 20
44.49627051036191
 10
1.072009908438133
 20
44.4333960289286
 10
1.009135427004814
 20
44.37052154749527
 10
0.8833864641381694
 20
44.37052154749527
 10
1.009135427004814
 20
44.37052154749527
 10
1.012279151076477
 20
44.37052154749527
  0
LWPOLYLINE
  5
FE
100
AcDbEntity
  8
USP-GEO
100
AcDbPolyline
 90
       12
 70
   129
 43
0.0
 10
0.3803906126715972
 20
42.98413923189052
 10
0.4432650941049161
 20
43.04701371332384
 10
0.506139575538235
 20
43.04701371332384
 10
0.569014056971561
 20
43.04701371332384
 10
0.6318885384048798
 20
43.04701371332384
 10
0.6318885384048798
 20
42.98413923189052
 10
0.6318885384048798
 20
42.9212647504572
 10
0.6318885384048798
 20
42.85839026902388
 10
0.569014056971561
 20
42.85839026902388
 10
0.506139575538235
 20
42.85839026902388
 10
0.4432650941049161
 20
42.85839026902388
 10
0.3803906126715972
 20
42.9212647504572
  0
LWPOLYLINE
  5
FF
100
AcDbEntity
  8
USP-GEO
100
AcDbPolyline
 90
        2
 70
   128
 43
0.0
 10
0.506139575538235
 20
43.04701371332384
 10
0.569014056971561
 20
43.04701371332384
  0
LWPOLYLINE
  5
100
100
AcDbEntity
  8
USP-GEO
100
AcDbPolyline
 90
        2
 70
   128
 43
0.0
 10
0.569014056971561
 20
42.85839026902388
 10
0.506139575538235
 20
42.85839026902388
  0
LWPOLYLINE
  5
101
100
AcDbEntity
  8
USP-GEO
100
AcDbPolyline
 90
        2
 70
   128
 43
0.0
 10
0.3803906126715972
 20
42.98413923189052
 10
0.38353433674326
 20
42.98413923189052
  0
LWPOLYLINE
  5
102
100
AcDbEntity
  8
USP-GEO
100
AcDbPolyline
 90
        2
 70
   128
 43
0.0
 10
0.6318885384048798
 20
42.98413923189052
 10
0.6350322624765497
 20
42.98413923189052
  0
LWPOLYLINE
  5
103
100
AcDbEntity
  8
USP-GEO
100
AcDbPolyline
 90
        4
 70
   128
 43
0.0
 10
1.012279151076477
 20
44.55914499179523
 10
1.009135427004814
 20
44.55914499179523
 10
0.8833864641381694
 20
44.55914499179523
 10
0.8865301882098322
 20
44.55914499179523
  0
LWPOLYLINE
  5
104
100
AcDbEntity
  8
USP-GEO
100
AcDbPolyline
 90
       14
 70
   128
 43
0.0
 10
0.3803906126715972
 20
45.94238358332832
 10
0.4432650941049161
 20
45.87950910189499
 10
0.506139575538235
 20
45.87950910189499
 10
0.569014056971561
 20
45.87950910189499
 10
0.6318885384048798
 20
45.87950910189499
 10
0.6318885384048798
 20
45.94238358332832
 10
0.6318885384048798
 20
46.00525806476164
 10
0.6318885384048798
 20
46.06813254619496
 10
0.569014056971561
 20
46.06813254619496
 10
0.506139575538235
 20
46.06813254619496
 10
0.4432650941049161
 20
46.06813254619496
 10
0.3803906126715972
 20
46.00525806476164
 10
0.3803906126715972
 20
45.94238358332832
 10
0.38353433674326
 20
45.94238358332832
  0
LWPOLYLINE
  5
105
100
AcDbEntity
  8
USP-GEO
100
AcDbPolyline
 90
        2
 70
   128
 43
0.0
 10
0.506139575538235
 20
46.06813254619496
 10
0.569014056971561
 20
46.06813254619496
  0
LWPOLYLINE
  5
106
100
AcDbEntity
  8
USP-GEO
100
AcDbPolyline
 90
        2
 70
   128
 43
0.0
 10
0.569014056971561
 20
45.87950910189499
 10
0.506139575538235
 20
45.87950910189499
  0
LWPOLYLINE
  5
107
100
AcDbEntity
  8
USP-GEO
100
AcDbPolyline
 90
        2
 70
   128
 43
0.0
 10
0.6318885384048798
 20
45.94238358332832
 10
0.6350322624765497
 20
45.94238358332832
  0
LWPOLYLINE
  5
108
100
AcDbEntity
  8
USP-GEO
100
AcDbPolyline
 90
        2
 70
   128
 43
0.0
 10
1.072009908438133
 20
44.49627051036191
 10
1.075153632509803
 20
44.49627051036191
  0
LWPOLYLINE
  5
109
100
AcDbEntity
  8
USP-GEO
100
AcDbPolyline
 90
        5
 70
   128
 43
0.0
 10
1.955396372576309
 20
42.85839026902388
 10
1.952252648504639
 20
42.85839026902388
 10
1.889378167071321
 20
42.9212647504572
 10
1.889378167071321
 20
42.98413923189052
 10
1.892521891142983
 20
42.98413923189052
  0
LWPOLYLINE
  5
10A
100
AcDbEntity
  8
USP-GEO
100
AcDbPolyline
 90
        3
 70
   128
 43
0.0
 10
1.889378167071321
 20
42.98413923189052
 10
1.952252648504639
 20
43.04701371332384
 10
1.955396372576309
 20
43.04701371332384
  0
LWPOLYLINE
  5
10B
100
AcDbEntity
  8
USP-GEO
100
AcDbPolyline
 90
        5
 70
   128
 43
0.0
 10
1.955396372576309
 20
46.06813254619496
 10
1.952252648504639
 20
46.06813254619496
 10
1.889378167071321
 20
46.00525806476164
 10
1.889378167071321
 20
45.94238358332832
 10
1.892521891142983
 20
45.94238358332832
  0
LWPOLYLINE
  5
10C
100
AcDbEntity
  8
USP-GEO
100
AcDbPolyline
 90
        3
 70
   128
 43
0.0
 10
1.889378167071321
 20
45.94238358332832
 10
1.952252648504639
 20
45.87950910189499
 10
1.955396372576309
 20
45.87950910189499
  0
LWPOLYLINE
  5
10D
100
AcDbEntity
  8
USP-GEO
100
AcDbPolyline
 90
       11
 70
   128
 43
0.0
 10
2.329499537104574
 20
29.51642530887296
 10
2.392374018537893
 20
29.51642530887296
 10
2.455248499971219
 20
29.51642530887296
 10
2.518122981404538
 20
29.51642530887296
 10
2.580997462837864
 20
29.51642530887296
 10
2.580997462837864
 20
29.45355082743965
 10
2.580997462837864
 20
29.39067634600633
 10
2.518122981404538
 20
29.39067634600633
 10
2.455248499971219
 20
29.39067634600633
 10
2.392374018537893
 20
29.39067634600633
 10
2.329499537104574
 20
29.39067634600633
  0
LWPOLYLINE
  5
10E
100
AcDbEntity
  8
USP-GEO
100
AcDbPolyline
 90
        2
 70
   128
 43
0.0
 10
2.392374018537893
 20
29.51642530887296
 10
2.455248499971219
 20
29.51642530887296
  0
LWPOLYLINE
  5
10F
100
AcDbEntity
  8
USP-GEO
100
AcDbPolyline
 90
        2
 70
   128
 43
0.0
 10
2.455248499971219
 20
29.39067634600633
 10
2.392374018537893
 20
29.39067634600633
  0
LWPOLYLINE
  5
110
100
AcDbEntity
  8
USP-GEO
100
AcDbPolyline
 90
        5
 70
   128
 43
0.0
 10
2.332643261176237
 20
29.51642530887296
 10
2.329499537104574
 20
29.51642530887296
 10
2.329499537104574
 20
29.45355082743965
 10
2.329499537104574
 20
29.39067634600633
 10
2.332643261176237
 20
29.39067634600633
  0
LWPOLYLINE
  5
111
100
AcDbEntity
  8
USP-GEO
100
AcDbPolyline
 90
        2
 70
   128
 43
0.0
 10
2.14087609280461
 20
30.96253838183938
 10
2.144019816876273
 20
30.96253838183938
  0
LWPOLYLINE
  5
112
100
AcDbEntity
  8
USP-GEO
100
AcDbPolyline
 90
       12
 70
   129
 43
0.0
 10
2.329499537104574
 20
32.47466966031076
 10
2.329499537104574
 20
32.53754414174409
 10
2.392374018537893
 20
32.53754414174409
 10
2.455248499971219
 20
32.53754414174409
 10
2.518122981404538
 20
32.53754414174409
 10
2.580997462837864
 20
32.47466966031076
 10
2.580997462837864
 20
32.41179517887744
 10
2.518122981404538
 20
32.34892069744413
 10
2.455248499971219
 20
32.34892069744413
 10
2.392374018537893
 20
32.34892069744413
 10
2.329499537104574
 20
32.34892069744413
 10
2.329499537104574
 20
32.41179517887744
  0
LWPOLYLINE
  5
113
100
AcDbEntity
  8
USP-GEO
100
AcDbPolyline
 90
        2
 70
   128
 43
0.0
 10
2.392374018537893
 20
32.53754414174409
 10
2.455248499971219
 20
32.53754414174409
  0
LWPOLYLINE
  5
114
100
AcDbEntity
  8
USP-GEO
100
AcDbPolyline
 90
        2
 70
   128
 43
0.0
 10
2.455248499971219
 20
32.34892069744413
 10
2.392374018537893
 20
32.34892069744413
  0
LWPOLYLINE
  5
115
100
AcDbEntity
  8
USP-GEO
100
AcDbPolyline
 90
        2
 70
   128
 43
0.0
 10
2.329499537104574
 20
32.47466966031076
 10
2.332643261176237
 20
32.47466966031076
  0
LWPOLYLINE
  5
116
100
AcDbEntity
  8
USP-GEO
100
AcDbPolyline
 90
        2
 70
   128
 43
0.0
 10
2.580997462837864
 20
32.47466966031076
 10
2.584141186909526
 20
32.47466966031076
  0
LWPOLYLINE
  5
117
100
AcDbEntity
  8
USP-GEO
100
AcDbPolyline
 90
       12
 70
   129
 43
0.0
 10
2.329499537104574
 20
35.43291401174856
 10
2.329499537104574
 20
35.49578849318189
 10
2.329499537104574
 20
35.5586629746152
 10
2.392374018537893
 20
35.5586629746152
 10
2.455248499971219
 20
35.5586629746152
 10
2.518122981404538
 20
35.5586629746152
 10
2.580997462837864
 20
35.49578849318189
 10
2.580997462837864
 20
35.43291401174856
 10
2.518122981404538
 20
35.37003953031524
 10
2.455248499971219
 20
35.37003953031524
 10
2.392374018537893
 20
35.37003953031524
 10
2.329499537104574
 20
35.37003953031524
  0
LWPOLYLINE
  5
118
100
AcDbEntity
  8
USP-GEO
100
AcDbPolyline
 90
        2
 70
   128
 43
0.0
 10
2.392374018537893
 20
35.5586629746152
 10
2.455248499971219
 20
35.5586629746152
  0
LWPOLYLINE
  5
119
100
AcDbEntity
  8
USP-GEO
100
AcDbPolyline
 90
        2
 70
   128
 43
0.0
 10
2.455248499971219
 20
35.37003953031524
 10
2.392374018537893
 20
35.37003953031524
  0
LWPOLYLINE
  5
11A
100
AcDbEntity
  8
USP-GEO
100
AcDbPolyline
 90
       11
 70
   128
 43
0.0
 10
2.329499537104574
 20
38.516907326053
 10
2.392374018537893
 20
38.516907326053
 10
2.455248499971219
 20
38.516907326053
 10
2.518122981404538
 20
38.516907326053
 10
2.580997462837864
 20
38.516907326053
 10
2.580997462837864
 20
38.45403284461968
 10
2.580997462837864
 20
38.39115836318636
 10
2.518122981404538
 20
38.39115836318636
 10
2.455248499971219
 20
38.39115836318636
 10
2.392374018537893
 20
38.39115836318636
 10
2.329499537104574
 20
38.39115836318636
  0
LWPOLYLINE
  5
11B
100
AcDbEntity
  8
USP-GEO
100
AcDbPolyline
 90
        2
 70
   128
 43
0.0
 10
2.392374018537893
 20
38.516907326053
 10
2.455248499971219
 20
38.516907326053
  0
LWPOLYLINE
  5
11C
100
AcDbEntity
  8
USP-GEO
100
AcDbPolyline
 90
        2
 70
   128
 43
0.0
 10
2.455248499971219
 20
38.39115836318636
 10
2.392374018537893
 20
38.39115836318636
  0
LWPOLYLINE
  5
11D
100
AcDbEntity
  8
USP-GEO
100
AcDbPolyline
 90
        5
 70
   128
 43
0.0
 10
2.332643261176237
 20
38.516907326053
 10
2.329499537104574
 20
38.516907326053
 10
2.329499537104574
 20
38.45403284461968
 10
2.329499537104574
 20
38.39115836318636
 10
2.332643261176237
 20
38.39115836318636
  0
LWPOLYLINE
  5
11E
100
AcDbEntity
  8
USP-GEO
100
AcDbPolyline
 90
       11
 70
   128
 43
0.0
 10
2.329499537104574
 20
41.47515167749079
 10
2.329499537104574
 20
41.53802615892412
 10
2.392374018537893
 20
41.53802615892412
 10
2.455248499971219
 20
41.53802615892412
 10
2.518122981404538
 20
41.53802615892412
 10
2.580997462837864
 20
41.47515167749079
 10
2.580997462837864
 20
41.41227719605747
 10
2.518122981404538
 20
41.41227719605747
 10
2.455248499971219
 20
41.34940271462415
 10
2.392374018537893
 20
41.34940271462415
 10
2.329499537104574
 20
41.41227719605747
  0
LWPOLYLINE
  5
11F
100
AcDbEntity
  8
USP-GEO
100
AcDbPolyline
 90
        2
 70
   128
 43
0.0
 10
2.392374018537893
 20
41.53802615892412
 10
2.455248499971219
 20
41.53802615892412
  0
LWPOLYLINE
  5
120
100
AcDbEntity
  8
USP-GEO
100
AcDbPolyline
 90
        2
 70
   128
 43
0.0
 10
2.455248499971219
 20
41.34940271462415
 10
2.392374018537893
 20
41.34940271462415
  0
LWPOLYLINE
  5
121
100
AcDbEntity
  8
USP-GEO
100
AcDbPolyline
 90
        4
 70
   128
 43
0.0
 10
2.332643261176237
 20
41.41227719605747
 10
2.329499537104574
 20
41.41227719605747
 10
2.329499537104574
 20
41.47515167749079
 10
2.332643261176237
 20
41.47515167749079
  0
LWPOLYLINE
  5
122
100
AcDbEntity
  8
USP-GEO
100
AcDbPolyline
 90
        2
 70
   128
 43
0.0
 10
2.580997462837864
 20
41.47515167749079
 10
2.584141186909526
 20
41.47515167749079
  0
LWPOLYLINE
  5
123
100
AcDbEntity
  8
USP-GEO
100
AcDbPolyline
 90
        2
 70
   128
 43
0.0
 10
2.14087609280461
 20
42.98413923189052
 10
2.144019816876273
 20
42.98413923189052
  0
LWPOLYLINE
  5
124
100
AcDbEntity
  8
USP-GEO
100
AcDbPolyline
 90
       12
 70
   129
 43
0.0
 10
2.329499537104574
 20
44.4333960289286
 10
2.329499537104574
 20
44.49627051036191
 10
2.329499537104574
 20
44.55914499179523
 10
2.392374018537893
 20
44.55914499179523
 10
2.455248499971219
 20
44.55914499179523
 10
2.518122981404538
 20
44.55914499179523
 10
2.580997462837864
 20
44.49627051036191
 10
2.580997462837864
 20
44.4333960289286
 10
2.518122981404538
 20
44.37052154749527
 10
2.455248499971219
 20
44.37052154749527
 10
2.392374018537893
 20
44.37052154749527
 10
2.329499537104574
 20
44.37052154749527
  0
LWPOLYLINE
  5
125
100
AcDbEntity
  8
USP-GEO
100
AcDbPolyline
 90
        2
 70
   128
 43
0.0
 10
2.392374018537893
 20
44.55914499179523
 10
2.455248499971219
 20
44.55914499179523
  0
LWPOLYLINE
  5
126
100
AcDbEntity
  8
USP-GEO
100
AcDbPolyline
 90
        2
 70
   128
 43
0.0
 10
2.455248499971219
 20
44.37052154749527
 10
2.392374018537893
 20
44.37052154749527
  0
LWPOLYLINE
  5
127
100
AcDbEntity
  8
USP-GEO
100
AcDbPolyline
 90
        2
 70
   128
 43
0.0
 10
2.580997462837864
 20
44.49627051036191
 10
2.584141186909526
 20
44.49627051036191
  0
LWPOLYLINE
  5
128
100
AcDbEntity
  8
USP-GEO
100
AcDbPolyline
 90
        2
 70
   128
 43
0.0
 10
2.14087609280461
 20
45.94238358332832
 10
2.144019816876273
 20
45.94238358332832
  0
ENDBLK
  5
12A
100
AcDbEntity
  8
0
100
AcDbBlockEnd
  0
BLOCK
  5
156
100
AcDbEntity
  8
0
100
AcDbBlockBegin
  2
STAD14_S
 70
     0
 10
0.0
 20
0.0
 30
0.0
  3
STAD14_S
  1

  0
LWPOLYLINE
  5
12D
100
AcDbEntity
  8
USP-GEO
100
AcDbPolyline
 90
        8
 70
   128
 43
0.0
 10
5.158851201604065
 20
46.00525806476164
 10
5.03310223873742
 20
46.00525806476164
 10
5.03310223873742
 20
14.1593332187841
 10
4.970227757304094
 20
14.03358425591745
 10
5.03310223873742
 20
14.1593332187841
 10
5.03310223873742
 20
46.00525806476164
 10
5.03310223873742
 20
46.38250495336158
 10
5.03310223873742
 20
46.00525806476164
  0
LWPOLYLINE
  5
12E
100
AcDbEntity
  8
USP-GEO
100
AcDbPolyline
 90
        6
 70
   129
 43
0.0
 10
5.158851201604065
 20
46.38250495336158
 10
5.158851201604065
 20
46.00525806476164
 10
5.158851201604065
 20
14.09645873735077
 10
5.158851201604065
 20
46.00525806476164
 10
5.158851201604065
 20
46.38250495336158
 10
5.03310223873742
 20
46.38250495336158
  0
LWPOLYLINE
  5
12F
100
AcDbEntity
  8
USP-GEO
100
AcDbPolyline
 90
       31
 70
   128
 43
0.0
 10
1.886234442999658
 20
1.700754722771364
 10
1.823359961566332
 20
1.575005759904719
 10
1.823359961566332
 20
1.512131278471393
 10
1.760485480133013
 20
1.386382315604748
 10
1.760485480133013
 20
1.260633352738111
 10
1.823359961566332
 20
1.449256797038074
 10
1.760485480133013
 20
1.260633352738111
 10
1.571862035833049
 20
0.4401213700332534
 10
0.0628744814333189
 20
0.8173682586331878
 10
0.0628744814333189
 20
0.6916192957665431
 10
1.634736517266368
 20
0.2514979257332897
 10
1.949108924432977
 20
1.386382315604748
 10
1.949108924432977
 20
1.449256797038074
 10
1.949108924432977
 20
1.575005759904719
 10
2.011983405866303
 20
1.637880241338038
 10
2.074857887299621
 20
2.078001611371291
 10
2.13773236873294
 20
2.140876092804617
 10
2.13773236873294
 20
2.266625055671255
 10
2.13773236873294
 20
2.329499537104581
 10
4.844478794437449
 20
13.0275925529843
 10
4.718729831570811
 20
13.0275925529843
 10
4.718729831570811
 20
12.90184359011765
 10
4.212590256032569
 20
13.0275925529843
 10
1.508987554399723
 20
2.3923740185379
 10
1.571862035833049
 20
2.203750574237936
 10
1.571862035833049
 20
2.078001611371291
 10
1.697610998699687
 20
1.637880241338038
 10
1.697610998699687
 20
1.449256797038074
 10
1.760485480133013
 20
1.260633352738111
 10
1.697610998699687
 20
1.512131278471393
 10
1.697610998699687
 20
1.700754722771364
  0
LWPOLYLINE
  5
130
100
AcDbEntity
  8
USP-GEO
100
AcDbPolyline
 90
       17
 70
   128
 43
0.0
 10
4.718729831570811
 20
12.90184359011765
 10
4.718729831570811
 20
13.0275925529843
 10
4.718729831570811
 20
13.09046703441762
 10
4.78160431300413
 20
13.15334151585094
 10
4.844478794437449
 20
13.53058840445087
 10
4.907353275870775
 20
13.65633736731751
 10
4.907353275870775
 20
13.78208633018416
 10
4.970227757304094
 20
13.9078352930508
 10
4.970227757304094
 20
14.03358425591745
 10
4.907353275870775
 20
13.9078352930508
 10
4.78160431300413
 20
13.78208633018416
 10
4.718729831570811
 20
13.65633736731751
 10
4.655855350137485
 20
13.5934628858842
 10
4.338339218899207
 20
13.21621599728426
 10
4.275464737465888
 20
13.09046703441762
 10
4.212590256032569
 20
13.0275925529843
 10
1.508987554399723
 20
2.3923740185379
  0
LWPOLYLINE
  5
131
100
AcDbEntity
  8
USP-GEO
100
AcDbPolyline
 90
       25
 70
   128
 43
0.0
 10
5.095976720170739
 20
13.97070977448412
 10
5.158851201604065
 20
14.09645873735077
 10
5.095976720170739
 20
13.97070977448412
 10
5.095976720170739
 20
13.9078352930508
 10
5.03310223873742
 20
13.78208633018416
 10
5.03310223873742
 20
13.71921184875084
 10
4.907353275870775
 20
13.27909047871759
 10
4.907353275870775
 20
13.21621599728426
 10
4.907353275870775
 20
13.09046703441762
 10
4.844478794437449
 20
13.0275925529843
 10
2.13773236873294
 20
2.329499537104581
 10
2.13773236873294
 20
2.266625055671255
 10
2.13773236873294
 20
2.140876092804617
 10
2.074857887299621
 20
2.078001611371291
 10
2.011983405866303
 20
1.637880241338038
 10
2.011983405866303
 20
1.826503685638002
 10
2.074857887299621
 20
1.889378167071328
 10
2.326355813032911
 20
1.826503685638002
 10
2.263481331599585
 20
1.700754722771364
 10
2.263481331599585
 20
1.575005759904719
 10
2.200606850166266
 20
1.323507834171429
 10
1.886234442999658
 20
0.1886234442999708
 10
1.634736517266368
 20
0.2514979257332897
 10
0.0628744814333189
 20
0.6916192957665431
 10
0.0
 20
0.3772468885999345
  0
TEXT
  5
132
100
AcDbEntity
  8
USP-TXT
100
AcDbText
 10
-0.8683290494004287
 20
-3.840750885057289
 30
0.0
 40
0.5
  1
STAD14 - SIDE VIEW
 72
     1
 11
3.465004283932906
 21
-3.840750885057289
 31
0.0
100
AcDbText
  0
LWPOLYLINE
  5
133
100
AcDbEntity
  8
USP-GEO
100
AcDbPolyline
 90
        5
 70
   128
 43
0.0
 10
1.760485480133013
 20
1.386382315604748
 10
1.760485480133013
 20
1.260633352738111
 10
1.571862035833049
 20
0.4401213700332534
 10
0.0628744814333189
 20
0.8173682586331878
 10
0.0
 20
0.5658703328998982
  0
LWPOLYLINE
  5
134
100
AcDbEntity
  8
USP-GEO
100
AcDbPolyline
 90
        2
 70
   129
 43
0.0
 10
1.571862035833049
 20
0.0
 10
0.0
 20
0.3772468885999345
  0
LWPOLYLINE
  5
135
100
AcDbEntity
  8
USP-GEO
100
AcDbPolyline
 90
        4
 70
   128
 43
0.0
 10
0.0
 20
0.3772468885999345
 10
0.0628744814333189
 20
0.6916192957665431
 10
0.0628744814333189
 20
0.8173682586331878
 10
0.0
 20
0.5658703328998982
  0
LWPOLYLINE
  5
136
100
AcDbEntity
  8
USP-GEO
100
AcDbPolyline
 90
        2
 70
   129
 43
0.0
 10
0.0
 20
0.5029958514665794
 10
0.0
 20
0.5658703328998982
  0
LWPOLYLINE
  5
137
100
AcDbEntity
  8
USP-GEO
100
AcDbPolyline
 90
        8
 70
   128
 43
0.0
 10
2.074857887299621
 20
2.078001611371291
 10
1.949108924432977
 20
2.078001611371291
 10
2.011983405866303
 20
2.140876092804617
 10
2.011983405866303
 20
2.266625055671255
 10
1.508987554399723
 20
2.3923740185379
 10
1.571862035833049
 20
2.266625055671255
 10
1.571862035833049
 20
2.140876092804617
 10
1.949108924432977
 20
2.015127129937972
  0
LWPOLYLINE
  5
138
100
AcDbEntity
  8
USP-GEO
100
AcDbPolyline
 90
       10
 70
   129
 43
0.0
 10
1.697610998699687
 20
1.700754722771364
 10
1.697610998699687
 20
1.512131278471393
 10
1.760485480133013
 20
1.260633352738111
 10
1.697610998699687
 20
1.449256797038074
 10
1.697610998699687
 20
1.637880241338038
 10
1.571862035833049
 20
2.078001611371291
 10
1.571862035833049
 20
2.203750574237936
 10
1.508987554399723
 20
2.3923740185379
 10
1.571862035833049
 20
2.266625055671255
 10
1.571862035833049
 20
2.140876092804617
  0
LWPOLYLINE
  5
139
100
AcDbEntity
  8
USP-GEO
100
AcDbPolyline
 90
        4
 70
   129
 43
0.0
 10
1.949108924432977
 20
1.386382315604748
 10
1.634736517266368
 20
0.2514979257332897
 10
1.886234442999658
 20
0.1886234442999708
 10
2.200606850166266
 20
1.323507834171429
  0
LWPOLYLINE
  5
13A
100
AcDbEntity
  8
USP-GEO
100
AcDbPolyline
 90
        2
 70
   129
 43
0.0
 10
1.634736517266368
 20
0.2514979257332897
 10
1.571862035833049
 20
0.0
  0
LWPOLYLINE
  5
13B
100
AcDbEntity
  8
USP-GEO
100
AcDbPolyline
 90
        3
 70
   128
 43
0.0
 10
2.13773236873294
 20
2.329499537104581
 10
2.011983405866303
 20
2.3923740185379
 10
2.011983405866303
 20
2.266625055671255
  0
LWPOLYLINE
  5
13C
100
AcDbEntity
  8
USP-GEO
100
AcDbPolyline
 90
        3
 70
   128
 43
0.0
 10
1.823359961566332
 20
1.637880241338038
 10
1.697610998699687
 20
1.700754722771364
 10
1.571862035833049
 20
2.140876092804617
  0
LWPOLYLINE
  5
13D
100
AcDbEntity
  8
USP-GEO
100
AcDbPolyline
 90
        2
 70
   129
 43
0.0
 10
1.886234442999658
 20
1.889378167071328
 10
1.823359961566332
 20
1.637880241338038
  0
LWPOLYLINE
  5
13E
100
AcDbEntity
  8
USP-GEO
100
AcDbPolyline
 90
        8
 70
   128
 43
0.0
 10
2.011983405866303
 20
2.3923740185379
 10
2.011983405866303
 20
2.266625055671255
 10
1.949108924432977
 20
2.140876092804617
 10
1.949108924432977
 20
2.078001611371291
 10
1.886234442999658
 20
1.700754722771364
 10
1.823359961566332
 20
1.637880241338038
 10
1.886234442999658
 20
1.826503685638002
 10
1.823359961566332
 20
1.637880241338038
  0
LWPOLYLINE
  5
13F
100
AcDbEntity
  8
USP-GEO
100
AcDbPolyline
 90
        7
 70
   128
 43
0.0
 10
1.949108924432977
 20
2.078001611371291
 10
1.886234442999658
 20
1.700754722771364
 10
2.011983405866303
 20
1.637880241338038
 10
1.949108924432977
 20
1.575005759904719
 10
1.949108924432977
 20
1.449256797038074
 10
1.949108924432977
 20
1.386382315604748
 10
2.011983405866303
 20
1.637880241338038
  0
LWPOLYLINE
  5
140
100
AcDbEntity
  8
USP-GEO
100
AcDbPolyline
 90
        5
 70
   128
 43
0.0
 10
2.074857887299621
 20
1.889378167071328
 10
2.011983405866303
 20
1.826503685638002
 10
2.011983405866303
 20
1.637880241338038
 10
1.949108924432977
 20
1.386382315604748
 10
1.952252648504646
 20
1.386382315604748
  0
LWPOLYLINE
  5
141
100
AcDbEntity
  8
USP-GEO
100
AcDbPolyline
 90
        6
 70
   128
 43
0.0
 10
1.949108924432977
 20
1.386382315604748
 10
1.760485480133013
 20
1.386382315604748
 10
1.823359961566332
 20
1.512131278471393
 10
1.823359961566332
 20
1.575005759904719
 10
1.886234442999658
 20
1.700754722771364
 10
1.823359961566332
 20
1.637880241338038
  0
LWPOLYLINE
  5
142
100
AcDbEntity
  8
USP-GEO
100
AcDbPolyline
 90
        2
 70
   128
 43
0.0
 10
1.697610998699687
 20
1.637880241338038
 10
1.700754722771357
 20
1.637880241338038
  0
LWPOLYLINE
  5
143
100
AcDbEntity
  8
USP-GEO
100
AcDbPolyline
 90
        2
 70
   129
 43
0.0
 10
1.826503685638002
 20
1.637880241338038
 10
1.823359961566332
 20
1.637880241338038
  0
LWPOLYLINE
  5
144
100
AcDbEntity
  8
USP-GEO
100
AcDbPolyline
 90
        2
 70
   128
 43
0.0
 10
2.011983405866303
 20
1.700754722771364
 10
2.015127129937965
 20
1.700754722771364
  0
LWPOLYLINE
  5
145
100
AcDbEntity
  8
USP-GEO
100
AcDbPolyline
 90
        2
 70
   128
 43
0.0
 10
1.571862035833049
 20
2.078001611371291
 10
1.575005759904712
 20
2.078001611371291
  0
LWPOLYLINE
  5
146
100
AcDbEntity
  8
USP-GEO
100
AcDbPolyline
 90
        5
 70
   129
 43
0.0
 10
2.011983405866303
 20
2.266625055671255
 10
1.949108924432977
 20
2.140876092804617
 10
1.949108924432977
 20
2.078001611371291
 10
1.949108924432977
 20
2.140876092804617
 10
2.011983405866303
 20
2.203750574237936
  0
LWPOLYLINE
  5
147
100
AcDbEntity
  8
USP-GEO
100
AcDbPolyline
 90
        5
 70
   129
 43
0.0
 10
1.949108924432977
 20
2.140876092804617
 10
2.011983405866303
 20
2.203750574237936
 10
2.011983405866303
 20
2.266625055671255
 10
2.011983405866303
 20
2.140876092804617
 10
1.949108924432977
 20
2.078001611371291
  0
LWPOLYLINE
  5
148
100
AcDbEntity
  8
USP-GEO
100
AcDbPolyline
 90
        3
 70
   128
 43
0.0
 10
2.011983405866303
 20
2.3923740185379
 10
2.011983405866303
 20
2.266625055671255
 10
2.011983405866303
 20
2.3923740185379
  0
LWPOLYLINE
  5
149
100
AcDbEntity
  8
USP-GEO
100
AcDbPolyline
 90
        4
 70
   128
 43
0.0
 10
2.200606850166266
 20
1.323507834171429
 10
2.263481331599585
 20
1.575005759904719
 10
2.263481331599585
 20
1.700754722771364
 10
2.326355813032911
 20
1.826503685638002
  0
LWPOLYLINE
  5
14A
100
AcDbEntity
  8
USP-GEO
100
AcDbPolyline
 90
        2
 70
   128
 43
0.0
 10
4.844478794437449
 20
13.53058840445087
 10
4.655855350137485
 20
13.5934628858842
  0
LWPOLYLINE
  5
14B
100
AcDbEntity
  8
USP-GEO
100
AcDbPolyline
 90
       14
 70
   128
 43
0.0
 10
4.212590256032569
 20
13.0275925529843
 10
4.275464737465888
 20
13.15334151585094
 10
4.338339218899207
 20
13.21621599728426
 10
4.655855350137485
 20
13.5934628858842
 10
4.718729831570811
 20
13.65633736731751
 10
4.78160431300413
 20
13.71921184875084
 10
4.78160431300413
 20
13.78208633018416
 10
4.718729831570811
 20
13.65633736731751
 10
4.78160431300413
 20
13.71921184875084
 10
4.78160431300413
 20
13.78208633018416
 10
4.907353275870775
 20
13.9078352930508
 10
4.970227757304094
 20
14.03358425591745
 10
4.970227757304094
 20
13.9078352930508
 10
4.970227757304094
 20
14.03358425591745
  0
LWPOLYLINE
  5
14C
100
AcDbEntity
  8
USP-GEO
100
AcDbPolyline
 90
       16
 70
   128
 43
0.0
 10
4.844478794437449
 20
13.0275925529843
 10
4.907353275870775
 20
13.09046703441762
 10
4.907353275870775
 20
13.21621599728426
 10
4.907353275870775
 20
13.27909047871759
 10
5.03310223873742
 20
13.71921184875084
 10
5.03310223873742
 20
13.78208633018416
 10
5.095976720170739
 20
13.9078352930508
 10
5.095976720170739
 20
13.97070977448412
 10
4.970227757304094
 20
14.03358425591745
 10
4.970227757304094
 20
13.9078352930508
 10
4.907353275870775
 20
13.84496081161749
 10
4.907353275870775
 20
13.78208633018416
 10
4.907353275870775
 20
13.65633736731751
 10
4.844478794437449
 20
13.53058840445087
 10
4.78160431300413
 20
13.15334151585094
 10
4.718729831570811
 20
13.09046703441762
  0
LWPOLYLINE
  5
14D
100
AcDbEntity
  8
USP-GEO
100
AcDbPolyline
 90
        6
 70
   128
 43
0.0
 10
4.907353275870775
 20
13.27909047871759
 10
4.78160431300413
 20
13.34196496015091
 10
4.844478794437449
 20
13.34196496015091
 10
4.78160431300413
 20
13.34196496015091
 10
4.78160431300413
 20
13.27909047871759
 10
4.78160431300413
 20
13.34196496015091
  0
LWPOLYLINE
  5
14E
100
AcDbEntity
  8
USP-GEO
100
AcDbPolyline
 90
        2
 70
   128
 43
0.0
 10
3.646719923132671
 20
8.120239277113526
 10
3.649863647204334
 20
8.120239277113526
  0
LWPOLYLINE
  5
14F
100
AcDbEntity
  8
USP-GEO
100
AcDbPolyline
 90
        4
 70
   129
 43
0.0
 10
4.212590256032569
 20
13.0275925529843
 10
4.275464737465888
 20
13.09046703441762
 10
4.338339218899207
 20
13.21621599728426
 10
4.275464737465888
 20
13.15334151585094
  0
LWPOLYLINE
  5
150
100
AcDbEntity
  8
USP-GEO
100
AcDbPolyline
 90
        3
 70
   128
 43
0.0
 10
4.78160431300413
 20
13.15334151585094
 10
4.338339218899207
 20
13.21621599728426
 10
4.341482942970877
 20
13.21621599728426
  0
LWPOLYLINE
  5
151
100
AcDbEntity
  8
USP-GEO
100
AcDbPolyline
 90
        6
 70
   128
 43
0.0
 10
4.718729831570811
 20
13.0275925529843
 10
4.718729831570811
 20
12.90184359011765
 10
4.718729831570811
 20
13.0275925529843
 10
4.78160431300413
 20
13.15334151585094
 10
4.718729831570811
 20
13.0275925529843
 10
4.718729831570811
 20
13.09046703441762
  0
LWPOLYLINE
  5
152
100
AcDbEntity
  8
USP-GEO
100
AcDbPolyline
 90
        2
 70
   129
 43
0.0
 10
4.721873555642474
 20
13.09046703441762
 10
4.718729831570811
 20
13.09046703441762
  0
LWPOLYLINE
  5
153
100
AcDbEntity
  8
USP-GEO
100
AcDbPolyline
 90
        2
 70
   128
 43
0.0
 10
4.970227757304094
 20
13.9078352930508
 10
4.907353275870775
 20
13.9078352930508
  0
LWPOLYLINE
  5
154
100
AcDbEntity
  8
USP-GEO
100
AcDbPolyline
 90
        4
 70
   128
 43
0.0
 10
4.907353275870775
 20
13.84496081161749
 10
4.970227757304094
 20
13.9078352930508
 10
4.907353275870775
 20
13.78208633018416
 10
4.907353275870775
 20
13.84496081161749
  0
LWPOLYLINE
  5
155
100
AcDbEntity
  8
USP-GEO
100
AcDbPolyline
 90
        2
 70
   128
 43
0.0
 10
5.03310223873742
 20
13.71921184875084
 10
4.907353275870775
 20
13.71921184875084
  0
ENDBLK
  5
157
100
AcDbEntity
  8
0
100
AcDbBlockEnd
  0
ENDSEC
  0
SECTION
  2
ENTITIES
  0
INSERT
  5
3
100
AcDbEntity
  8
USP
100
AcDbBlockReference
  2
STAD14_T
 10
3.014556456578773
 20
57.90224691452802
 30
0.0
  0
INSERT
  5
5F
100
AcDbEntity
  8
USP
100
AcDbBlockReference
  2
STAD14_F
 10
3.014556456578773
 20
3.842767778157849
 30
0.0
  0
INSERT
  5
12B
100
AcDbEntity
  8
USP
100
AcDbBlockReference
  2
STAD14_S
 10
19.68886893269574
 20
3.842767778157849
 30
0.0
  0
ENDSEC
  0
SECTION
  2
OBJECTS
  0
DICTIONARY
  5
170
102
{ACAD_XDICTIONARY
360
171
102
}
100
AcDbDictionary
  3
ACAD_GROUP
350
16E
  3
ACAD_MLINESTYLE
350
16F
  0
DICTIONARY
  5
E
100
AcDbDictionary
280
     1
  3
ACAD_XREC_ROUNDTRIP
360
F
  0
DICTIONARY
  5
9
100
AcDbDictionary
280
     1
  3
ACAD_XREC_ROUNDTRIP
360
A
  0
DICTIONARY
  5
158
100
AcDbDictionary
280
     1
  3
ACAD_LAYOUTSELFREF
360
159
  0
DICTIONARY
  5
15D
100
AcDbDictionary
280
     1
  3
ACAD_LAYOUTSELFREF
360
15E
  0
DICTIONARY
  5
171
100
AcDbDictionary
280
     1
  3
ACAD_XREC_ROUNDTRIP
360
172
  0
DICTIONARY
  5
16E
102
{ACAD_REACTORS
330
170
102
}
100
AcDbDictionary
  0
DICTIONARY
  5
16F
102
{ACAD_REACTORS
330
170
102
}
100
AcDbDictionary
  3
STANDARD
350
173
  0
XRECORD
  5
F
102
{ACAD_REACTORS
330
E
102
}
100
AcDbXrecord
102
EXTNAMES
  1
USP-GEO
  2
USP-Geo
  0
XRECORD
  5
A
102
{ACAD_REACTORS
330
9
102
}
100
AcDbXrecord
102
EXTNAMES
  1
USP-TXT
  2
USP-Txt
  0
XRECORD
  5
159
102
{ACAD_REACTORS
330
158
102
}
100
AcDbXrecord
340
18
  0
XRECORD
  5
15E
102
{ACAD_REACTORS
330
15D
102
}
100
AcDbXrecord
340
15
  0
XRECORD
  5
172
102
{ACAD_REACTORS
330
171
102
}
100
AcDbXrecord
102
EXTNAMES
  1
ACDBVARIABLEDICTIONARY
  2
AcDbVariableDictionary
  0
MLINESTYLE
  5
173
102
{ACAD_REACTORS
330
16F
102
}
100
AcDbMlineStyle
  2
STANDARD
 70
     0
  3

 62
     0
 51
90.0
 52
90.0
 71
     2
 49
0.5
 62
   256
  6
BYLAYER
 49
-0.5
 62
   256
  6
BYLAYER
  0
ENDSEC
  0
EOF
