  0
SECTION
  2
HEADER
  9
$ACADVER
  1
AC1014
  9
$ACADMAINTVER
 70
     9
  9
$DWGCODEPAGE
  3
ANSI_1252
  9
$INSBASE
 10
0.0
 20
0.0
 30
0.0
  9
$EXTMIN
 10
-0.2195955662467544
 20
0.0020284842524632
 30
0.0
  9
$EXTMAX
 10
24.45152193276153
 20
60.3259285376019
 30
0.0
  9
$LIMMIN
 10
0.0
 20
0.0
  9
$LIMMAX
 10
12.0
 20
9.0
  9
$ORTHOMODE
 70
     1
  9
$REGENMODE
 70
     1
  9
$FILLMODE
 70
     1
  9
$QTEXTMODE
 70
     0
  9
$MIRRTEXT
 70
     0
  9
$DRAGMODE
 70
     2
  9
$LTSCALE
 40
1.5
  9
$OSMODE
 70
     0
  9
$ATTMODE
 70
     1
  9
$TEXTSIZE
 40
0.75
  9
$TRACEWID
 40
0.05
  9
$TEXTSTYLE
  7
STANDARD
  9
$CLAYER
  8
USP
  9
$CELTYPE
  6
BYLAYER
  9
$CECOLOR
 62
   256
  9
$CELTSCALE
 40
1.0
  9
$DELOBJ
 70
     1
  9
$DISPSILH
 70
     1
  9
$DIMSCALE
 40
3.0
  9
$DIMASZ
 40
0.125
  9
$DIMEXO
 40
0.0625
  9
$DIMDLI
 40
0.37890625
  9
$DIMRND
 40
0.0
  9
$DIMDLE
 40
0.0
  9
$DIMEXE
 40
0.09375
  9
$DIMTP
 40
0.0
  9
$DIMTM
 40
0.0
  9
$DIMTXT
 40
0.109375
  9
$DIMCEN
 40
0.0
  9
$DIMTSZ
 40
0.0
  9
$DIMTOL
 70
     0
  9
$DIMLIM
 70
     0
  9
$DIMTIH
 70
     1
  9
$DIMTOH
 70
     1
  9
$DIMSE1
 70
     0
  9
$DIMSE2
 70
     0
  9
$DIMTAD
 70
     0
  9
$DIMZIN
 70
     8
  9
$DIMBLK
  1

  9
$DIMASO
 70
     1
  9
$DIMSHO
 70
     1
  9
$DIMPOST
  1

  9
$DIMAPOST
  1

  9
$DIMALT
 70
     0
  9
$DIMALTD
 70
     2
  9
$DIMALTF
 40
25.4
  9
$DIMLFAC
 40
1.0
  9
$DIMTOFL
 70
     0
  9
$DIMTVP
 40
0.0
  9
$DIMTIX
 70
     0
  9
$DIMSOXD
 70
     0
  9
$DIMSAH
 70
     0
  9
$DIMBLK1
  1

  9
$DIMBLK2
  1

  9
$DIMSTYLE
  2
STANDARD
  9
$DIMCLRD
 70
     0
  9
$DIMCLRE
 70
     0
  9
$DIMCLRT
 70
   256
  9
$DIMTFAC
 40
1.0
  9
$DIMGAP
 40
0.08984375
  9
$DIMJUST
 70
     0
  9
$DIMSD1
 70
     0
  9
$DIMSD2
 70
     0
  9
$DIMTOLJ
 70
     1
  9
$DIMTZIN
 70
     0
  9
$DIMALTZ
 70
     0
  9
$DIMALTTZ
 70
     0
  9
$DIMFIT
 70
     3
  9
$DIMUPT
 70
     1
  9
$DIMUNIT
 70
     7
  9
$DIMDEC
 70
     4
  9
$DIMTDEC
 70
     4
  9
$DIMALTU
 70
     2
  9
$DIMALTTD
 70
     2
  9
$DIMTXSTY
  7
STANDARD
  9
$DIMAUNIT
 70
     0
  9
$LUNITS
 70
     5
  9
$LUPREC
 70
     6
  9
$SKETCHINC
 40
0.1
  9
$FILLETRAD
 40
0.0
  9
$AUNITS
 70
     0
  9
$AUPREC
 70
     1
  9
$MENU
  1
CUSTOM
  9
$ELEVATION
 40
0.0
  9
$PELEVATION
 40
0.0
  9
$THICKNESS
 40
0.0
  9
$LIMCHECK
 70
     0
  9
$BLIPMODE
 70
     0
  9
$CHAMFERA
 40
0.0
  9
$CHAMFERB
 40
0.0
  9
$CHAMFERC
 40
0.0
  9
$CHAMFERD
 40
0.0
  9
$SKPOLY
 70
     0
  9
$TDCREATE
 40
2451263.663231366
  9
$TDUPDATE
 40
2452768.668844212
  9
$TDINDWG
 40
0.6230574306
  9
$TDUSRTIMER
 40
0.6230574306
  9
$USRTIMER
 70
     1
  9
$ANGBASE
 50
0.0
  9
$ANGDIR
 70
     0
  9
$PDMODE
 70
     0
  9
$PDSIZE
 40
0.0
  9
$PLINEWID
 40
0.0
  9
$COORDS
 70
     2
  9
$SPLFRAME
 70
     0
  9
$SPLINETYPE
 70
     6
  9
$SPLINESEGS
 70
     8
  9
$ATTDIA
 70
     0
  9
$ATTREQ
 70
     0
  9
$HANDLING
 70
     1
  9
$HANDSEED
  5
14B
  9
$SURFTAB1
 70
     6
  9
$SURFTAB2
 70
     6
  9
$SURFTYPE
 70
     6
  9
$SURFU
 70
     6
  9
$SURFV
 70
     6
  9
$UCSNAME
  2

  9
$UCSORG
 10
0.0
 20
0.0
 30
0.0
  9
$UCSXDIR
 10
1.0
 20
0.0
 30
0.0
  9
$UCSYDIR
 10
0.0
 20
1.0
 30
0.0
  9
$PUCSNAME
  2

  9
$PUCSORG
 10
0.0
 20
0.0
 30
0.0
  9
$PUCSXDIR
 10
1.0
 20
0.0
 30
0.0
  9
$PUCSYDIR
 10
0.0
 20
1.0
 30
0.0
  9
$USERI1
 70
     0
  9
$USERI2
 70
     0
  9
$USERI3
 70
     0
  9
$USERI4
 70
     0
  9
$USERI5
 70
     0
  9
$USERR1
 40
0.0
  9
$USERR2
 40
0.0
  9
$USERR3
 40
0.0
  9
$USERR4
 40
0.0
  9
$USERR5
 40
0.0
  9
$WORLDVIEW
 70
     1
  9
$SHADEDGE
 70
     3
  9
$SHADEDIF
 70
    70
  9
$TILEMODE
 70
     1
  9
$MAXACTVP
 70
    16
  9
$PINSBASE
 10
0.0
 20
0.0
 30
0.0
  9
$PLIMCHECK
 70
     0
  9
$PEXTMIN
 10
1.000000000000000E+20
 20
1.000000000000000E+20
 30
1.000000000000000E+20
  9
$PEXTMAX
 10
-1.000000000000000E+20
 20
-1.000000000000000E+20
 30
-1.000000000000000E+20
  9
$PLIMMIN
 10
0.0
 20
0.0
  9
$PLIMMAX
 10
12.0
 20
9.0
  9
$UNITMODE
 70
     0
  9
$VISRETAIN
 70
     0
  9
$PLINEGEN
 70
     0
  9
$PSLTSCALE
 70
     0
  9
$TREEDEPTH
 70
  3020
  9
$PICKSTYLE
 70
     0
  9
$CMLSTYLE
  2
STANDARD
  9
$CMLJUST
 70
     0
  9
$CMLSCALE
 40
1.0
  9
$PROXYGRAPHICS
 70
     1
  9
$MEASUREMENT
 70
     0
  0
ENDSEC
  0
SECTION
  2
CLASSES
  0
CLASS
  1
ACDBDICTIONARYWDFLT
  2
AcDbDictionaryWithDefault
  3
AutoCAD 2000
 90
        0
280
     0
281
     0
  0
CLASS
  1
ACDBPLACEHOLDER
  2
AcDbPlaceHolder
  3
AutoCAD 2000
 90
        0
280
     0
281
     0
  0
CLASS
  1
LAYOUT
  2
AcDbLayout
  3
AutoCAD 2000
 90
        0
280
     0
281
     0
  0
CLASS
  1
DICTIONARYVAR
  2
AcDbDictionaryVar
  3
"AutoCAD"
 90
        0
280
     0
281
     0
  0
CLASS
  1
LONG_TRANSACTION
  2
AcDbLongTransaction
  3
AutoCAD 2000
 90
        0
280
     0
281
     0
  0
CLASS
  1
LWPOLYLINE
  2
AcDbPolyline
  3
"AutoCAD"
 90
        0
280
     0
281
     1
  0
CLASS
  1
HATCH
  2
AcDbHatch
  3
"ACAD_SEDONA"
 90
        0
280
     0
281
     1
  0
CLASS
  1
XRECORD
  2
AcDbXrecord
  3
"<Built In>"
 90
        0
280
     0
281
     0
  0
CLASS
  1
LONG_TRANSACTION
  2
AcDbLongTransaction
  3
AutoCAD 2000
 90
        0
280
     0
281
     0
  0
CLASS
  1
LWPOLYLINE
  2
AcDbPolyline
  3
"AutoCAD"
 90
        0
280
     0
281
     1
  0
CLASS
  1
HATCH
  2
AcDbHatch
  3
"ACAD_SEDONA"
 90
        0
280
     0
281
     1
  0
CLASS
  1
XRECORD
  2
AcDbXrecord
  3
"<Built In>"
 90
        0
280
     0
281
     0
  0
ENDSEC
  0
SECTION
  2
TABLES
  0
TABLE
  2
VPORT
  5
13B
100
AcDbSymbolTable
 70
     1
  0
VPORT
  5
13C
100
AcDbSymbolTableRecord
100
AcDbViewportTableRecord
  2
*ACTIVE
 70
     0
 10
0.0
 20
0.0
 11
1.0
 21
1.0
 12
-6.683437577643445
 22
16.44728350596886
 13
0.0
 23
0.0
 14
1.0
 24
1.0
 15
0.0
 25
0.0
 16
0.0
 26
0.0
 36
1.0
 17
18.06596660309899
 27
8.119903606830565
 37
5.823974399722915
 40
65.28191307700324
 41
1.457627118644067
 42
50.0
 43
10.55307667737539
 44
10.55307667737539
 50
0.0
 51
0.0
 71
     0
 72
   100
 73
     1
 74
     1
 75
     0
 76
     0
 77
     0
 78
     0
  0
ENDTAB
  0
TABLE
  2
LTYPE
  5
136
100
AcDbSymbolTable
 70
     1
  0
LTYPE
  5
137
100
AcDbSymbolTableRecord
100
AcDbLinetypeTableRecord
  2
BYBLOCK
 70
     0
  3

 72
    65
 73
     0
 40
0.0
  0
LTYPE
  5
138
100
AcDbSymbolTableRecord
100
AcDbLinetypeTableRecord
  2
BYLAYER
 70
     0
  3

 72
    65
 73
     0
 40
0.0
  0
LTYPE
  5
5
100
AcDbSymbolTableRecord
100
AcDbLinetypeTableRecord
  2
CONTINUOUS
 70
     0
  3
Solid line
 72
    65
 73
     0
 40
0.0
  0
ENDTAB
  0
TABLE
  2
LAYER
  5
134
100
AcDbSymbolTable
 70
     4
  0
LAYER
  5
50
100
AcDbSymbolTableRecord
100
AcDbLayerTableRecord
  2
0
 70
     0
 62
     7
  6
CONTINUOUS
  0
LAYER
  5
D
102
{ACAD_XDICTIONARY
360
E
102
}
100
AcDbSymbolTableRecord
100
AcDbLayerTableRecord
  2
USP-GEO
 70
     0
 62
     7
  6
CONTINUOUS
  0
LAYER
  5
8
102
{ACAD_XDICTIONARY
360
9
102
}
100
AcDbSymbolTableRecord
100
AcDbLayerTableRecord
  2
USP-TXT
 70
     0
 62
     7
  6
CONTINUOUS
  0
LAYER
  5
4
100
AcDbSymbolTableRecord
100
AcDbLayerTableRecord
  2
USP
 70
     0
 62
     7
  6
CONTINUOUS
  0
ENDTAB
  0
TABLE
  2
STYLE
  5
135
100
AcDbSymbolTable
 70
     1
  0
STYLE
  5
B
100
AcDbSymbolTableRecord
100
AcDbTextStyleTableRecord
  2
STANDARD
 70
     0
 40
0.0
 41
1.0
 50
0.0
 71
     0
 42
0.75
  3
txt
  4

  0
ENDTAB
  0
TABLE
  2
VIEW
  5
139
100
AcDbSymbolTable
 70
     0
  0
ENDTAB
  0
TABLE
  2
UCS
  5
13A
100
AcDbSymbolTable
 70
     0
  0
ENDTAB
  0
TABLE
  2
APPID
  5
13D
100
AcDbSymbolTable
 70
     1
  0
APPID
  5
13E
100
AcDbSymbolTableRecord
100
AcDbRegAppTableRecord
  2
ACAD
 70
     0
  0
ENDTAB
  0
TABLE
  2
DIMSTYLE
  5
13F
100
AcDbSymbolTable
 70
     1
  0
DIMSTYLE
105
147
100
AcDbSymbolTableRecord
100
AcDbDimStyleTableRecord
  2
STANDARD
 70
     0
  3

  4

  5

  6

  7

 40
1.0
 41
0.18
 42
0.0625
 43
0.38
 44
0.18
 45
0.0
 46
0.0
 47
0.0
 48
0.0
140
0.18
141
0.09
142
0.0
143
25.4
144
1.0
145
0.0
146
1.0
147
0.09
 71
     0
 72
     0
 73
     1
 74
     1
 75
     0
 76
     0
 77
     0
 78
     0
170
     0
171
     2
172
     0
173
     0
174
     0
175
     0
176
     0
177
     0
178
     0
270
     2
271
     4
272
     4
273
     2
274
     2
340
B
275
     0
280
     0
281
     0
282
     0
283
     1
284
     0
285
     0
286
     0
287
     3
288
     0
  0
ENDTAB
  0
TABLE
  2
BLOCK_RECORD
  5
1
100
AcDbSymbolTable
 70
     3
  0
BLOCK_RECORD
  5
2
102
{ACAD_XDICTIONARY
360
12B
102
}
100
AcDbSymbolTableRecord
100
AcDbBlockTableRecord
  2
*MODEL_SPACE
  0
BLOCK_RECORD
  5
12F
102
{ACAD_XDICTIONARY
360
130
102
}
100
AcDbSymbolTableRecord
100
AcDbBlockTableRecord
  2
*PAPER_SPACE
  0
BLOCK_RECORD
  5
6
100
AcDbSymbolTableRecord
100
AcDbBlockTableRecord
  2
STAD10RJ_T
  0
BLOCK_RECORD
  5
53
100
AcDbSymbolTableRecord
100
AcDbBlockTableRecord
  2
STAD10RJ_F
  0
BLOCK_RECORD
  5
F7
100
AcDbSymbolTableRecord
100
AcDbBlockTableRecord
  2
STAD10RJ_S
  0
ENDTAB
  0
ENDSEC
  0
SECTION
  2
BLOCKS
  0
BLOCK
  5
12D
100
AcDbEntity
  8
0
100
AcDbBlockBegin
  2
*MODEL_SPACE
 70
     0
 10
0.0
 20
0.0
 30
0.0
  3
*MODEL_SPACE
  1

  0
ENDBLK
  5
12E
100
AcDbEntity
  8
0
100
AcDbBlockEnd
  0
BLOCK
  5
132
100
AcDbEntity
 67
     1
  8
0
100
AcDbBlockBegin
  2
*PAPER_SPACE
 70
     0
 10
0.0
 20
0.0
 30
0.0
  3
*PAPER_SPACE
  1

  0
ENDBLK
  5
133
100
AcDbEntity
 67
     1
  8
0
100
AcDbBlockEnd
  0
BLOCK
  5
4F
100
AcDbEntity
  8
0
100
AcDbBlockBegin
  2
STAD10RJ_T
 70
     0
 10
0.0
 20
0.0
 30
0.0
  3
STAD10RJ_T
  1

  0
TEXT
  5
7
100
AcDbEntity
  8
USP-TXT
100
AcDbText
 10
-3.119897317491864
 20
-3.202969428904445
 30
0.0
 40
0.5
  1
STAD10RJ - TOP VIEW
 72
     1
 11
1.505102682508134
 21
-3.202969428904445
 31
0.0
100
AcDbText
  0
LWPOLYLINE
  5
C
100
AcDbEntity
  8
USP-GEO
100
AcDbPolyline
 90
        2
 70
   128
 43
0.0
 10
0.361224643801954
 20
4.942757209356706
 10
2.648980721214314
 20
4.942757209356706
  0
LWPOLYLINE
  5
10
100
AcDbEntity
  8
USP-GEO
100
AcDbPolyline
 90
        6
 70
   128
 43
0.0
 10
2.648980721214314
 20
5.002961316657035
 10
3.010205365016268
 20
5.002961316657035
 10
2.648980721214314
 20
5.002961316657035
 10
0.361224643801954
 20
5.002961316657035
 10
0.0
 20
5.002961316657035
 10
0.361224643801954
 20
5.002961316657035
  0
LWPOLYLINE
  5
11
100
AcDbEntity
  8
USP-GEO
100
AcDbPolyline
 90
        5
 70
   128
 43
0.0
 10
1.986735540910736
 20
2.471378604678356
 10
1.806123219009762
 20
2.350970390077705
 10
1.50510268250813
 20
2.290766282777376
 10
1.204082146006506
 20
2.350970390077705
 10
1.023469824105532
 20
2.471378604678356
  0
LWPOLYLINE
  5
12
100
AcDbEntity
  8
USP-GEO
100
AcDbPolyline
 90
        6
 70
   128
 43
0.0
 10
0.9030616095048813
 20
2.772399141179981
 10
0.9030616095048813
 20
2.712195033879652
 10
0.9632657168052034
 20
2.591786819279001
 10
1.023469824105532
 20
2.471378604678356
 10
1.083673931405854
 20
2.471378604678356
 10
1.264286253306835
 20
2.290766282777376
  0
LWPOLYLINE
  5
13
100
AcDbEntity
  8
USP-GEO
100
AcDbPolyline
 90
        5
 70
   128
 43
0.0
 10
1.986735540910736
 20
3.193827892282257
 10
1.806123219009762
 20
3.013215570381284
 10
1.50510268250813
 20
2.953011463080954
 10
1.204082146006506
 20
3.013215570381284
 10
1.023469824105532
 20
3.193827892282257
  0
LWPOLYLINE
  5
14
100
AcDbEntity
  8
USP-GEO
100
AcDbPolyline
 90
        6
 70
   128
 43
0.0
 10
0.9060718148698967
 20
3.43464432148356
 10
0.9030616095048813
 20
3.43464432148356
 10
0.9632657168052034
 20
3.254031999582579
 10
1.023469824105532
 20
3.193827892282257
 10
1.083673931405854
 20
3.133623784981928
 10
1.264286253306835
 20
3.013215570381284
  0
LWPOLYLINE
  5
15
100
AcDbEntity
  8
USP-GEO
100
AcDbPolyline
 90
        5
 70
   128
 43
0.0
 10
1.986735540910736
 20
3.859083277950851
 10
1.806123219009762
 20
3.678470956049878
 10
1.50510268250813
 20
3.618266848749549
 10
1.204082146006506
 20
3.678470956049878
 10
1.023469824105532
 20
3.859083277950851
  0
LWPOLYLINE
  5
16
100
AcDbEntity
  8
USP-GEO
100
AcDbPolyline
 90
       13
 70
   128
 43
0.0
 10
2.107143755511387
 20
4.160103814452476
 10
2.046939648211058
 20
4.160103814452476
 10
1.926531433610414
 20
3.979491492551503
 10
1.745919111709433
 20
3.798879170650529
 10
1.50510268250813
 20
3.7386750633502
 10
1.264286253306835
 20
3.798879170650529
 10
1.083673931405854
 20
3.979491492551503
 10
0.9632657168052034
 20
4.160103814452476
 10
0.9030616095048813
 20
4.160103814452476
 10
0.9632657168052034
 20
3.919287385251173
 10
1.023469824105532
 20
3.859083277950851
 10
1.083673931405854
 20
3.798879170650529
 10
1.264286253306835
 20
3.678470956049878
  0
LWPOLYLINE
  5
17
100
AcDbEntity
  8
USP-GEO
100
AcDbPolyline
 90
        7
 70
   128
 43
0.0
 10
1.143878038706183
 20
1.8693375316751
 10
1.204082146006506
 20
1.929541638975422
 10
1.324490360607157
 20
1.989745746275751
 10
1.50510268250813
 20
2.049949853576073
 10
1.50510268250813
 20
1.628521102473797
 10
1.50510268250813
 20
2.049949853576073
 10
1.50510268250813
 20
1.628521102473797
  0
LWPOLYLINE
  5
18
100
AcDbEntity
  8
USP-GEO
100
AcDbPolyline
 90
        3
 70
   128
 43
0.0
 10
1.143878038706183
 20
1.628521102473797
 10
1.50510268250813
 20
1.628521102473797
 10
1.866327326310084
 20
1.628521102473797
  0
LWPOLYLINE
  5
19
100
AcDbEntity
  8
USP-GEO
100
AcDbPolyline
 90
        2
 70
   128
 43
0.0
 10
1.866327326310084
 20
1.508112887873146
 10
1.143878038706183
 20
1.508112887873146
  0
LWPOLYLINE
  5
1A
100
AcDbEntity
  8
USP-GEO
100
AcDbPolyline
 90
        5
 70
   128
 43
0.0
 10
0.9632657168052034
 20
4.160103814452476
 10
1.204082146006506
 20
4.220307921752805
 10
1.50510268250813
 20
4.220307921752805
 10
1.806123219009762
 20
4.220307921752805
 10
2.046939648211058
 20
4.160103814452476
  0
LWPOLYLINE
  5
1B
100
AcDbEntity
  8
USP-GEO
100
AcDbPolyline
 90
       15
 70
   128
 43
0.0
 10
0.9030616095048813
 20
3.43464432148356
 10
0.9030616095048813
 20
3.494848428783882
 10
0.9632657168052034
 20
3.494848428783882
 10
1.083673931405854
 20
3.254031999582579
 10
1.264286253306835
 20
3.133623784981928
 10
1.50510268250813
 20
3.073419677681606
 10
1.745919111709433
 20
3.133623784981928
 10
1.926531433610414
 20
3.254031999582579
 10
2.046939648211058
 20
3.494848428783882
 10
2.107143755511387
 20
3.494848428783882
 10
2.107143755511387
 20
3.43464432148356
 10
2.046939648211058
 20
3.254031999582579
 10
1.986735540910736
 20
3.193827892282257
 10
1.926531433610414
 20
3.133623784981928
 10
1.745919111709433
 20
3.013215570381284
  0
LWPOLYLINE
  5
1C
100
AcDbEntity
  8
USP-GEO
100
AcDbPolyline
 90
       14
 70
   128
 43
0.0
 10
0.9030616095048813
 20
2.772399141179981
 10
0.9632657168052034
 20
2.772399141179981
 10
1.083673931405854
 20
2.591786819279001
 10
1.264286253306835
 20
2.411174497378027
 10
1.50510268250813
 20
2.411174497378027
 10
1.745919111709433
 20
2.411174497378027
 10
1.926531433610414
 20
2.591786819279001
 10
2.046939648211058
 20
2.772399141179981
 10
2.107143755511387
 20
2.772399141179981
 10
2.107143755511387
 20
2.712195033879652
 10
2.046939648211058
 20
2.591786819279001
 10
1.986735540910736
 20
2.471378604678356
 10
1.926531433610414
 20
2.471378604678356
 10
1.745919111709433
 20
2.290766282777376
  0
LWPOLYLINE
  5
1D
100
AcDbEntity
  8
USP-GEO
100
AcDbPolyline
 90
        5
 70
   128
 43
0.0
 10
0.9632657168052034
 20
3.494848428783882
 10
1.204082146006506
 20
3.555052536084211
 10
1.50510268250813
 20
3.555052536084211
 10
1.806123219009762
 20
3.555052536084211
 10
2.046939648211058
 20
3.494848428783882
  0
LWPOLYLINE
  5
1E
100
AcDbEntity
  8
USP-GEO
100
AcDbPolyline
 90
        5
 70
   128
 43
0.0
 10
0.9632657168052034
 20
2.772399141179981
 10
1.204082146006506
 20
2.832603248480303
 10
1.50510268250813
 20
2.832603248480303
 10
1.806123219009762
 20
2.832603248480303
 10
2.046939648211058
 20
2.772399141179981
  0
LWPOLYLINE
  5
1F
100
AcDbEntity
  8
USP-GEO
100
AcDbPolyline
 90
        8
 70
   128
 43
0.0
 10
1.50510268250813
 20
2.049949853576073
 10
1.685715004409111
 20
1.989745746275751
 10
1.806123219009762
 20
1.929541638975422
 10
1.866327326310084
 20
1.8693375316751
 10
1.866327326310084
 20
1.447908780572824
 10
1.866327326310084
 20
0.0602041073003221
 10
1.866327326310084
 20
0.0
 10
1.143878038706183
 20
0.0
  0
LWPOLYLINE
  5
20
100
AcDbEntity
  8
USP-GEO
100
AcDbPolyline
 90
       12
 70
   128
 43
0.0
 10
1.866327326310084
 20
1.8693375316751
 10
1.866327326310084
 20
1.447908780572824
 10
3.010205365016268
 20
1.447908780572824
 10
3.010205365016268
 20
1.8693375316751
 10
3.010205365016268
 20
1.989745746275751
 10
3.010205365016268
 20
1.8693375316751
 10
3.010205365016268
 20
1.447908780572824
 10
3.010205365016268
 20
0.0602041073003221
 10
3.010205365016268
 20
0.0
 10
1.986735540910736
 20
0.0
 10
1.986735540910736
 20
-0.0602041073003292
 10
1.023469824105532
 20
-0.0602041073003292
  0
LWPOLYLINE
  5
21
100
AcDbEntity
  8
USP-GEO
100
AcDbPolyline
 90
       31
 70
   128
 43
0.0
 10
3.013215570381284
 20
4.882553102056384
 10
3.010205365016268
 20
4.882553102056384
 10
3.010205365016268
 20
4.942757209356706
 10
2.648980721214314
 20
4.942757209356706
 10
0.361224643801954
 20
4.942757209356706
 10
0.0
 20
4.942757209356706
 10
0.0
 20
4.882553102056384
 10
0.0
 20
4.942757209356706
 10
0.0
 20
5.002961316657035
 10
0.0
 20
4.942757209356706
 10
0.361224643801954
 20
4.942757209356706
 10
0.361224643801954
 20
5.002961316657035
 10
2.648980721214314
 20
5.002961316657035
 10
2.648980721214314
 20
4.942757209356706
 10
3.010205365016268
 20
4.942757209356706
 10
3.010205365016268
 20
5.002961316657035
 10
3.010205365016268
 20
4.942757209356706
 10
3.010205365016268
 20
4.882553102056384
 10
2.950001257715939
 20
4.822348994756055
 10
2.889797150415617
 20
4.822348994756055
 10
2.769388935814966
 20
4.762144887455733
 10
2.648980721214314
 20
4.762144887455733
 10
2.528572506613663
 20
4.641736672855081
 10
2.468368399313341
 20
4.581532565554752
 10
2.408164292013012
 20
4.400920243653779
 10
2.408164292013012
 20
4.160103814452476
 10
2.408164292013012
 20
1.8693375316751
 10
2.408164292013012
 20
4.160103814452476
 10
2.528572506613663
 20
4.160103814452476
 10
2.528572506613663
 20
1.8693375316751
 10
2.408164292013012
 20
1.8693375316751
  0
LWPOLYLINE
  5
22
100
AcDbEntity
  8
USP-GEO
100
AcDbPolyline
 90
        2
 70
   129
 43
0.0
 10
0.4816328584026053
 20
1.8693375316751
 10
0.4816328584026053
 20
4.160103814452476
  0
LWPOLYLINE
  5
23
100
AcDbEntity
  8
USP-GEO
100
AcDbPolyline
 90
       10
 70
   128
 43
0.0
 10
0.4214287511022761
 20
2.049949853576073
 10
0.4816328584026053
 20
1.989745746275751
 10
0.4816328584026053
 20
1.8693375316751
 10
0.6020410730032566
 20
1.8693375316751
 10
0.6020410730032566
 20
4.160103814452476
 10
0.4816328584026053
 20
4.160103814452476
 10
0.4816328584026053
 20
4.340716136353456
 10
0.4214287511022761
 20
4.52132845825443
 10
0.3010205365016247
 20
4.641736672855081
 10
0.1806123219009734
 20
4.762144887455733
  0
LWPOLYLINE
  5
24
100
AcDbEntity
  8
USP-GEO
100
AcDbPolyline
 90
        5
 70
   128
 43
0.0
 10
0.6020410730032566
 20
1.8693375316751
 10
0.6020410730032566
 20
4.160103814452476
 10
0.6020410730032566
 20
4.581532565554752
 10
0.5418369657029274
 20
4.641736672855081
 10
0.4816328584026053
 20
4.641736672855081
  0
LWPOLYLINE
  5
25
100
AcDbEntity
  8
USP-GEO
100
AcDbPolyline
 90
        4
 70
   128
 43
0.0
 10
1.143878038706183
 20
1.447908780572824
 10
1.143878038706183
 20
0.0602041073003221
 10
0.0
 20
0.0602041073003221
 10
0.0
 20
1.447908780572824
  0
LWPOLYLINE
  5
26
100
AcDbEntity
  8
USP-GEO
100
AcDbPolyline
 90
        2
 70
   128
 43
0.0
 10
0.0
 20
0.0
 10
1.023469824105532
 20
0.0
  0
LWPOLYLINE
  5
27
100
AcDbEntity
  8
USP-GEO
100
AcDbPolyline
 90
        4
 70
   128
 43
0.0
 10
0.2408164292013026
 20
2.049949853576073
 10
0.1204082146006513
 20
1.989745746275751
 10
0.1204082146006513
 20
2.049949853576073
 10
0.1204082146006513
 20
2.110153960876402
  0
LWPOLYLINE
  5
28
100
AcDbEntity
  8
USP-GEO
100
AcDbPolyline
 90
        9
 70
   128
 43
0.0
 10
0.0
 20
1.989745746275751
 10
0.0
 20
2.049949853576073
 10
0.0602041073003292
 20
2.049949853576073
 10
0.1204082146006513
 20
2.110153960876402
 10
0.4214287511022761
 20
2.230562175477054
 10
0.4214287511022761
 20
2.049949853576073
 10
0.3010205365016247
 20
2.049949853576073
 10
0.1204082146006513
 20
2.049949853576073
 10
0.1806123219009734
 20
2.049949853576073
  0
LWPOLYLINE
  5
29
100
AcDbEntity
  8
USP-GEO
100
AcDbPolyline
 90
        2
 70
   128
 43
0.0
 10
0.0
 20
1.447908780572824
 10
1.143878038706183
 20
1.447908780572824
  0
LWPOLYLINE
  5
2A
100
AcDbEntity
  8
USP-GEO
100
AcDbPolyline
 90
        4
 70
   128
 43
0.0
 10
0.0
 20
0.0602041073003221
 10
0.0
 20
0.0
 10
0.0
 20
0.0602041073003221
 10
0.0
 20
1.447908780572824
  0
LWPOLYLINE
  5
2B
100
AcDbEntity
  8
USP-GEO
100
AcDbPolyline
 90
        4
 70
   129
 43
0.0
 10
0.0
 20
1.447908780572824
 10
0.0
 20
1.8693375316751
 10
0.0
 20
1.989745746275751
 10
0.0
 20
1.8693375316751
  0
LWPOLYLINE
  5
2C
100
AcDbEntity
  8
USP-GEO
100
AcDbPolyline
 90
        4
 70
   128
 43
0.0
 10
0.1204082146006513
 20
1.989745746275751
 10
0.0602041073003292
 20
1.989745746275751
 10
0.0
 20
1.929541638975422
 10
0.0
 20
1.8693375316751
  0
LWPOLYLINE
  5
2D
100
AcDbEntity
  8
USP-GEO
100
AcDbPolyline
 90
        6
 70
   128
 43
0.0
 10
0.0
 20
2.049949853576073
 10
0.0602041073003292
 20
2.049949853576073
 10
0.0
 20
1.989745746275751
 10
0.0
 20
2.049949853576073
 10
0.1204082146006513
 20
2.049949853576073
 10
0.0602041073003292
 20
2.049949853576073
  0
LWPOLYLINE
  5
2E
100
AcDbEntity
  8
USP-GEO
100
AcDbPolyline
 90
        4
 70
   128
 43
0.0
 10
1.143878038706183
 20
1.447908780572824
 10
1.143878038706183
 20
0.0602041073003221
 10
1.143878038706183
 20
0.0
 10
1.143878038706183
 20
0.0602041073003221
  0
LWPOLYLINE
  5
2F
100
AcDbEntity
  8
USP-GEO
100
AcDbPolyline
 90
        2
 70
   129
 43
0.0
 10
1.023469824105532
 20
-0.0602041073003292
 10
1.023469824105532
 20
0.0
  0
LWPOLYLINE
  5
30
100
AcDbEntity
  8
USP-GEO
100
AcDbPolyline
 90
        3
 70
   128
 43
0.0
 10
0.4816328584026053
 20
2.350970390077705
 10
0.4816328584026053
 20
2.290766282777376
 10
0.4214287511022761
 20
2.230562175477054
  0
LWPOLYLINE
  5
31
100
AcDbEntity
  8
USP-GEO
100
AcDbPolyline
 90
        2
 70
   129
 43
0.0
 10
1.143878038706183
 20
1.8693375316751
 10
1.143878038706183
 20
1.447908780572824
  0
LWPOLYLINE
  5
32
100
AcDbEntity
  8
USP-GEO
100
AcDbPolyline
 90
        2
 70
   129
 43
0.0
 10
0.9060718148698967
 20
2.772399141179981
 10
0.9030616095048813
 20
2.772399141179981
  0
LWPOLYLINE
  5
33
100
AcDbEntity
  8
USP-GEO
100
AcDbPolyline
 90
        6
 70
   128
 43
0.0
 10
0.0
 20
4.882553102056384
 10
0.0602041073003292
 20
4.822348994756055
 10
0.1204082146006513
 20
4.822348994756055
 10
0.2408164292013026
 20
4.762144887455733
 10
0.3010205365016247
 20
4.762144887455733
 10
0.4214287511022761
 20
4.641736672855081
  0
LWPOLYLINE
  5
34
100
AcDbEntity
  8
USP-GEO
100
AcDbPolyline
 90
        7
 70
   128
 43
0.0
 10
0.3010205365016247
 20
4.641736672855081
 10
0.4214287511022761
 20
4.641736672855081
 10
0.4816328584026053
 20
4.581532565554752
 10
0.6020410730032566
 20
4.400920243653779
 10
0.6020410730032566
 20
4.160103814452476
 10
0.6020410730032566
 20
4.581532565554752
 10
0.605051278368272
 20
4.581532565554752
  0
LWPOLYLINE
  5
35
100
AcDbEntity
  8
USP-GEO
100
AcDbPolyline
 90
        3
 70
   128
 43
0.0
 10
0.3010205365016247
 20
4.762144887455733
 10
0.4816328584026053
 20
4.641736672855081
 10
0.4816328584026053
 20
4.581532565554752
  0
LWPOLYLINE
  5
36
100
AcDbEntity
  8
USP-GEO
100
AcDbPolyline
 90
        9
 70
   128
 43
0.0
 10
2.528572506613663
 20
4.641736672855081
 10
2.709184828514636
 20
4.641736672855081
 10
2.588776613913992
 20
4.52132845825443
 10
2.528572506613663
 20
4.340716136353456
 10
2.528572506613663
 20
4.160103814452476
 10
2.528572506613663
 20
1.8693375316751
 10
2.528572506613663
 20
1.989745746275751
 10
2.588776613913992
 20
2.049949853576073
 10
2.588776613913992
 20
2.230562175477054
  0
LWPOLYLINE
  5
37
100
AcDbEntity
  8
USP-GEO
100
AcDbPolyline
 90
        3
 70
   128
 43
0.0
 10
1.866327326310084
 20
0.0602041073003221
 10
3.010205365016268
 20
0.0602041073003221
 10
3.010205365016268
 20
0.0
  0
LWPOLYLINE
  5
38
100
AcDbEntity
  8
USP-GEO
100
AcDbPolyline
 90
        3
 70
   128
 43
0.0
 10
1.866327326310084
 20
1.447908780572824
 10
1.866327326310084
 20
0.0602041073003221
 10
1.866327326310084
 20
0.0
  0
LWPOLYLINE
  5
39
100
AcDbEntity
  8
USP-GEO
100
AcDbPolyline
 90
        2
 70
   128
 43
0.0
 10
1.986735540910736
 20
-0.0602041073003292
 10
1.986735540910736
 20
0.0
  0
LWPOLYLINE
  5
3A
100
AcDbEntity
  8
USP-GEO
100
AcDbPolyline
 90
        3
 70
   129
 43
0.0
 10
1.745919111709433
 20
2.290766282777376
 10
1.50510268250813
 20
2.230562175477054
 10
1.625510897108782
 20
2.290766282777376
  0
LWPOLYLINE
  5
3B
100
AcDbEntity
  8
USP-GEO
100
AcDbPolyline
 90
        3
 70
   129
 43
0.0
 10
1.745919111709433
 20
3.013215570381284
 10
1.50510268250813
 20
2.953011463080954
 10
1.625510897108782
 20
2.953011463080954
  0
LWPOLYLINE
  5
3C
100
AcDbEntity
  8
USP-GEO
100
AcDbPolyline
 90
        3
 70
   129
 43
0.0
 10
1.264286253306835
 20
2.290766282777376
 10
1.384694467907486
 20
2.290766282777376
 10
1.50510268250813
 20
2.230562175477054
  0
LWPOLYLINE
  5
3D
100
AcDbEntity
  8
USP-GEO
100
AcDbPolyline
 90
        3
 70
   129
 43
0.0
 10
1.264286253306835
 20
3.013215570381284
 10
1.384694467907486
 20
2.953011463080954
 10
1.50510268250813
 20
2.953011463080954
  0
LWPOLYLINE
  5
3E
100
AcDbEntity
  8
USP-GEO
100
AcDbPolyline
 90
        2
 70
   128
 43
0.0
 10
2.107143755511387
 20
2.772399141179981
 10
2.110153960876402
 20
2.772399141179981
  0
LWPOLYLINE
  5
3F
100
AcDbEntity
  8
USP-GEO
100
AcDbPolyline
 90
        2
 70
   128
 43
0.0
 10
3.010205365016268
 20
0.0602041073003221
 10
3.010205365016268
 20
1.447908780572824
  0
LWPOLYLINE
  5
40
100
AcDbEntity
  8
USP-GEO
100
AcDbPolyline
 90
        7
 70
   128
 43
0.0
 10
3.010205365016268
 20
1.989745746275751
 10
3.010205365016268
 20
2.049949853576073
 10
2.950001257715939
 20
2.049949853576073
 10
2.889797150415617
 20
2.110153960876402
 10
2.588776613913992
 20
2.230562175477054
 10
2.528572506613663
 20
2.290766282777376
 10
2.528572506613663
 20
2.350970390077705
  0
LWPOLYLINE
  5
41
100
AcDbEntity
  8
USP-GEO
100
AcDbPolyline
 90
        7
 70
   128
 43
0.0
 10
2.889797150415617
 20
2.110153960876402
 10
2.889797150415617
 20
2.049949853576073
 10
2.889797150415617
 20
1.989745746275751
 10
2.769388935814966
 20
2.049949853576073
 10
2.889797150415617
 20
2.049949853576073
 10
2.709184828514636
 20
2.049949853576073
 10
2.588776613913992
 20
2.049949853576073
  0
LWPOLYLINE
  5
42
100
AcDbEntity
  8
USP-GEO
100
AcDbPolyline
 90
        4
 70
   128
 43
0.0
 10
2.889797150415617
 20
1.989745746275751
 10
2.950001257715939
 20
1.989745746275751
 10
3.010205365016268
 20
1.929541638975422
 10
3.010205365016268
 20
1.8693375316751
  0
LWPOLYLINE
  5
43
100
AcDbEntity
  8
USP-GEO
100
AcDbPolyline
 90
        2
 70
   129
 43
0.0
 10
2.889797150415617
 20
2.049949853576073
 10
2.950001257715939
 20
2.049949853576073
  0
LWPOLYLINE
  5
44
100
AcDbEntity
  8
USP-GEO
100
AcDbPolyline
 90
        2
 70
   128
 43
0.0
 10
2.950001257715939
 20
2.049949853576073
 10
2.953011463080954
 20
2.049949853576073
  0
LWPOLYLINE
  5
45
100
AcDbEntity
  8
USP-GEO
100
AcDbPolyline
 90
        2
 70
   129
 43
0.0
 10
3.010205365016268
 20
1.989745746275751
 10
2.950001257715939
 20
2.049949853576073
  0
LWPOLYLINE
  5
46
100
AcDbEntity
  8
USP-GEO
100
AcDbPolyline
 90
        3
 70
   129
 43
0.0
 10
1.745919111709433
 20
3.678470956049878
 10
1.50510268250813
 20
3.618266848749549
 10
1.625510897108782
 20
3.618266848749549
  0
LWPOLYLINE
  5
47
100
AcDbEntity
  8
USP-GEO
100
AcDbPolyline
 90
        3
 70
   129
 43
0.0
 10
1.264286253306835
 20
3.678470956049878
 10
1.384694467907486
 20
3.618266848749549
 10
1.50510268250813
 20
3.618266848749549
  0
LWPOLYLINE
  5
48
100
AcDbEntity
  8
USP-GEO
100
AcDbPolyline
 90
        5
 70
   128
 43
0.0
 10
1.745919111709433
 20
3.678470956049878
 10
1.926531433610414
 20
3.798879170650529
 10
1.986735540910736
 20
3.859083277950851
 10
2.046939648211058
 20
3.919287385251173
 10
2.107143755511387
 20
4.160103814452476
  0
LWPOLYLINE
  5
49
100
AcDbEntity
  8
USP-GEO
100
AcDbPolyline
 90
        2
 70
   128
 43
0.0
 10
2.107143755511387
 20
3.43464432148356
 10
2.110153960876402
 20
3.43464432148356
  0
LWPOLYLINE
  5
4A
100
AcDbEntity
  8
USP-GEO
100
AcDbPolyline
 90
        2
 70
   129
 43
0.0
 10
2.110153960876402
 20
4.160103814452476
 10
2.107143755511387
 20
4.160103814452476
  0
LWPOLYLINE
  5
4B
100
AcDbEntity
  8
USP-GEO
100
AcDbPolyline
 90
        3
 70
   128
 43
0.0
 10
2.648980721214314
 20
4.762144887455733
 10
2.468368399313341
 20
4.641736672855081
 10
2.471378604678356
 20
4.641736672855081
  0
LWPOLYLINE
  5
4C
100
AcDbEntity
  8
USP-GEO
100
AcDbPolyline
 90
        2
 70
   129
 43
0.0
 10
2.408164292013012
 20
4.160103814452476
 10
2.408164292013012
 20
4.581532565554752
  0
LWPOLYLINE
  5
4D
100
AcDbEntity
  8
USP-GEO
100
AcDbPolyline
 90
        4
 70
   128
 43
0.0
 10
2.468368399313341
 20
4.581532565554752
 10
2.468368399313341
 20
4.641736672855081
 10
2.408164292013012
 20
4.581532565554752
 10
2.411174497378027
 20
4.581532565554752
  0
LWPOLYLINE
  5
4E
100
AcDbEntity
  8
USP-GEO
100
AcDbPolyline
 90
        2
 70
   128
 43
0.0
 10
2.709184828514636
 20
4.641736672855081
 10
2.829593043115288
 20
4.762144887455733
  0
ENDBLK
  5
51
100
AcDbEntity
  8
0
100
AcDbBlockEnd
  0
BLOCK
  5
F4
100
AcDbEntity
  8
0
100
AcDbBlockBegin
  2
STAD10RJ_F
 70
     0
 10
0.0
 20
0.0
 30
0.0
  3
STAD10RJ_F
  1

  0
LWPOLYLINE
  5
54
100
AcDbEntity
  8
USP-GEO
100
AcDbPolyline
 90
       12
 70
   128
 43
0.0
 10
2.889797150415617
 20
9.400871354945799
 10
2.950001257715939
 20
9.52127956954645
 10
2.950001257715939
 20
9.581483676846772
 10
3.010205365016268
 20
9.641687784147094
 10
3.010205365016268
 20
9.762095998747746
 10
3.010205365016268
 20
9.882504213348397
 10
3.010205365016268
 20
45.61665210145649
 10
2.648980721214314
 20
45.97787674525845
 10
0.361224643801954
 20
45.97787674525845
 10
0.0
 20
45.61665210145649
 10
0.0
 20
9.882504213348397
 10
0.0
 20
9.762095998747746
  0
LWPOLYLINE
  5
55
100
AcDbEntity
  8
USP-GEO
100
AcDbPolyline
 90
        6
 70
   129
 43
0.0
 10
2.648980721214314
 20
45.97787674525845
 10
0.361224643801954
 20
45.97787674525845
 10
0.0
 20
45.61665210145649
 10
0.0
 20
9.882504213348397
 10
3.010205365016268
 20
9.882504213348397
 10
3.010205365016268
 20
45.61665210145649
  0
TEXT
  5
56
100
AcDbEntity
  8
USP-TXT
100
AcDbText
 10
-3.619897317491863
 20
-3.256426743371065
 30
0.0
 40
0.5
  1
STAD10RJ - FRONT VIEW
 72
     1
 11
1.505102682508134
 21
-3.256426743371065
 31
0.0
100
AcDbText
  0
LWPOLYLINE
  5
57
100
AcDbEntity
  8
USP-GEO
100
AcDbPolyline
 90
       13
 70
   128
 43
0.0
 10
0.9030616095048813
 20
4.036685394486809
 10
0.9632657168052034
 20
4.036685394486809
 10
1.083673931405854
 20
4.096889501787138
 10
1.143878038706183
 20
4.157093609087461
 10
1.324490360607157
 20
4.21729771638779
 10
1.50510268250813
 20
4.21729771638779
 10
1.685715004409111
 20
4.21729771638779
 10
1.866327326310084
 20
4.157093609087461
 10
1.926531433610414
 20
4.096889501787138
 10
1.745919111709433
 20
4.157093609087461
 10
1.50510268250813
 20
4.21729771638779
 10
1.264286253306835
 20
4.157093609087461
 10
1.083673931405854
 20
4.096889501787138
  0
LWPOLYLINE
  5
58
100
AcDbEntity
  8
USP-GEO
100
AcDbPolyline
 90
        8
 70
   128
 43
0.0
 10
2.107143755511387
 20
3.856073072585836
 10
1.986735540910736
 20
3.976481287186487
 10
1.806123219009762
 20
4.036685394486809
 10
1.50510268250813
 20
4.036685394486809
 10
1.204082146006506
 20
4.036685394486809
 10
1.023469824105532
 20
3.976481287186487
 10
0.9030616095048813
 20
3.856073072585836
 10
0.9632657168052034
 20
3.675460750684855
  0
LWPOLYLINE
  5
59
100
AcDbEntity
  8
USP-GEO
100
AcDbPolyline
 90
       12
 70
   128
 43
0.0
 10
0.9632657168052034
 20
5.966227033462239
 10
1.083673931405854
 20
6.026431140762561
 10
1.143878038706183
 20
6.026431140762561
 10
1.324490360607157
 20
6.08663524806289
 10
1.50510268250813
 20
6.08663524806289
 10
1.685715004409111
 20
6.08663524806289
 10
1.866327326310084
 20
6.026431140762561
 10
1.926531433610414
 20
6.026431140762561
 10
1.745919111709433
 20
6.08663524806289
 10
1.50510268250813
 20
6.08663524806289
 10
1.264286253306835
 20
6.08663524806289
 10
1.083673931405854
 20
6.026431140762561
  0
LWPOLYLINE
  5
5A
100
AcDbEntity
  8
USP-GEO
100
AcDbPolyline
 90
       21
 70
   128
 43
0.0
 10
2.107143755511387
 20
7.651942037871343
 10
1.986735540910736
 20
7.712146145171672
 10
1.806123219009762
 20
7.77536045783701
 10
1.50510268250813
 20
7.835564565137339
 10
1.204082146006506
 20
7.77536045783701
 10
1.023469824105532
 20
7.712146145171672
 10
0.9030616095048813
 20
7.651942037871343
 10
0.9030616095048813
 20
7.712146145171672
 10
0.9030616095048813
 20
7.77536045783701
 10
0.9632657168052034
 20
7.835564565137339
 10
1.083673931405854
 20
7.895768672437661
 10
1.143878038706183
 20
7.95597277973799
 10
1.324490360607157
 20
7.95597277973799
 10
1.50510268250813
 20
8.016176887038312
 10
1.685715004409111
 20
7.95597277973799
 10
1.866327326310084
 20
7.95597277973799
 10
1.926531433610414
 20
7.895768672437661
 10
1.745919111709433
 20
7.95597277973799
 10
1.50510268250813
 20
7.95597277973799
 10
1.264286253306835
 20
7.95597277973799
 10
1.083673931405854
 20
7.895768672437661
  0
LWPOLYLINE
  5
5B
100
AcDbEntity
  8
USP-GEO
100
AcDbPolyline
 90
        7
 70
   128
 43
0.0
 10
1.143878038706183
 20
1.447908780572824
 10
1.204082146006506
 20
1.628521102473797
 10
1.324490360607157
 20
1.80913342437477
 10
1.50510268250813
 20
1.80913342437477
 10
1.685715004409111
 20
1.80913342437477
 10
1.806123219009762
 20
1.628521102473797
 10
1.866327326310084
 20
1.447908780572824
  0
LWPOLYLINE
  5
5C
100
AcDbEntity
  8
USP-GEO
100
AcDbPolyline
 90
        3
 70
   128
 43
0.0
 10
1.023469824105532
 20
0.7826533949042301
 10
1.023469824105532
 20
0.6020410730032495
 10
1.986735540910736
 20
0.6020410730032495
  0
LWPOLYLINE
  5
5D
100
AcDbEntity
  8
USP-GEO
100
AcDbPolyline
 90
        2
 70
   128
 43
0.0
 10
1.023469824105532
 20
0.0
 10
1.986735540910736
 20
0.0
  0
LWPOLYLINE
  5
5E
100
AcDbEntity
  8
USP-GEO
100
AcDbPolyline
 90
       11
 70
   128
 43
0.0
 10
2.107143755511387
 20
5.906022926161909
 10
2.107143755511387
 20
5.845818818861587
 10
2.107143755511387
 20
5.785614711561258
 10
2.046939648211058
 20
5.544798282359963
 10
1.926531433610414
 20
5.605002389660285
 10
1.745919111709433
 20
5.665206496960607
 10
1.50510268250813
 20
5.725410604260936
 10
1.264286253306835
 20
5.665206496960607
 10
1.083673931405854
 20
5.605002389660285
 10
0.9632657168052034
 20
5.544798282359963
 10
0.9030616095048813
 20
5.785614711561258
  0
LWPOLYLINE
  5
5F
100
AcDbEntity
  8
USP-GEO
100
AcDbPolyline
 90
       13
 70
   128
 43
0.0
 10
1.926531433610414
 20
7.895768672437661
 10
2.046939648211058
 20
7.835564565137339
 10
2.107143755511387
 20
7.77536045783701
 10
2.107143755511387
 20
7.712146145171672
 10
2.107143755511387
 20
7.651942037871343
 10
2.046939648211058
 20
7.411125608670047
 10
1.926531433610414
 20
7.531533823270699
 10
1.745919111709433
 20
7.531533823270699
 10
1.50510268250813
 20
7.591737930571021
 10
1.264286253306835
 20
7.531533823270699
 10
1.083673931405854
 20
7.531533823270699
 10
0.9632657168052034
 20
7.411125608670047
 10
0.9030616095048813
 20
7.651942037871343
  0
LWPOLYLINE
  5
60
100
AcDbEntity
  8
USP-GEO
100
AcDbPolyline
 90
       12
 70
   128
 43
0.0
 10
0.9030616095048813
 20
5.906022926161909
 10
0.9632657168052034
 20
5.906022926161909
 10
0.9632657168052034
 20
5.966227033462239
 10
0.9030616095048813
 20
5.906022926161909
 10
0.9030616095048813
 20
5.845818818861587
 10
0.9030616095048813
 20
5.785614711561258
 10
1.023469824105532
 20
5.845818818861587
 10
1.204082146006506
 20
5.906022926161909
 10
1.50510268250813
 20
5.906022926161909
 10
1.806123219009762
 20
5.906022926161909
 10
1.986735540910736
 20
5.845818818861587
 10
2.107143755511387
 20
5.785614711561258
  0
LWPOLYLINE
  5
61
100
AcDbEntity
  8
USP-GEO
100
AcDbPolyline
 90
       10
 70
   128
 43
0.0
 10
1.143878038706183
 20
0.6622451803035787
 10
1.866327326310084
 20
0.6622451803035787
 10
1.866327326310084
 20
0.9030616095048742
 10
1.866327326310084
 20
1.568316995173475
 10
1.806123219009762
 20
1.748929317074448
 10
1.685715004409111
 20
1.8693375316751
 10
1.50510268250813
 20
1.929541638975422
 10
1.324490360607157
 20
1.8693375316751
 10
1.204082146006506
 20
1.748929317074448
 10
1.143878038706183
 20
1.568316995173475
  0
LWPOLYLINE
  5
62
100
AcDbEntity
  8
USP-GEO
100
AcDbPolyline
 90
       11
 70
   129
 43
0.0
 10
0.9632657168052034
 20
3.675460750684855
 10
1.083673931405854
 20
3.735664857985184
 10
1.264286253306835
 20
3.795868965285507
 10
1.50510268250813
 20
3.795868965285507
 10
1.745919111709433
 20
3.795868965285507
 10
1.926531433610414
 20
3.735664857985184
 10
2.046939648211058
 20
3.675460750684855
 10
1.926531433610414
 20
3.43464432148356
 10
1.625510897108782
 20
3.314236106882908
 10
1.384694467907486
 20
3.314236106882908
 10
1.083673931405854
 20
3.43464432148356
  0
LWPOLYLINE
  5
63
100
AcDbEntity
  8
USP-GEO
100
AcDbPolyline
 90
        6
 70
   128
 43
0.0
 10
2.046939648211058
 20
5.544798282359963
 10
1.926531433610414
 20
5.30398185315866
 10
1.625510897108782
 20
5.183573638558009
 10
1.384694467907486
 20
5.183573638558009
 10
1.083673931405854
 20
5.30398185315866
 10
0.9632657168052034
 20
5.544798282359963
  0
LWPOLYLINE
  5
64
100
AcDbEntity
  8
USP-GEO
100
AcDbPolyline
 90
        6
 70
   128
 43
0.0
 10
2.046939648211058
 20
7.411125608670047
 10
1.926531433610414
 20
7.170309179468745
 10
1.625510897108782
 20
7.049900964868093
 10
1.384694467907486
 20
7.049900964868093
 10
1.083673931405854
 20
7.170309179468745
 10
0.9632657168052034
 20
7.411125608670047
  0
LWPOLYLINE
  5
65
100
AcDbEntity
  8
USP-GEO
100
AcDbPolyline
 90
        2
 70
   129
 43
0.0
 10
0.4816328584026053
 20
2.65199092657933
 10
0.4816328584026053
 20
8.979442603843523
  0
LWPOLYLINE
  5
66
100
AcDbEntity
  8
USP-GEO
100
AcDbPolyline
 90
       13
 70
   128
 43
0.0
 10
0.1204082146006513
 20
1.8693375316751
 10
0.3010205365016247
 20
2.170358068176724
 10
0.4214287511022761
 20
2.290766282777376
 10
0.4816328584026053
 20
2.471378604678349
 10
0.4816328584026053
 20
2.65199092657933
 10
0.6020410730032566
 20
2.65199092657933
 10
0.6020410730032566
 20
2.471378604678349
 10
0.6020410730032566
 20
2.65199092657933
 10
0.6020410730032566
 20
8.979442603843523
 10
0.6020410730032566
 20
9.039646711143845
 10
0.4816328584026053
 20
9.160054925744496
 10
0.4214287511022761
 20
9.220259033044818
 10
0.3010205365016247
 20
9.220259033044818
  0
LWPOLYLINE
  5
67
100
AcDbEntity
  8
USP-GEO
100
AcDbPolyline
 90
       10
 70
   128
 43
0.0
 10
0.4214287511022761
 20
9.099850818444167
 10
0.4816328584026053
 20
9.039646711143845
 10
0.4816328584026053
 20
8.979442603843523
 10
0.6020410730032566
 20
8.979442603843523
 10
0.6020410730032566
 20
2.65199092657933
 10
0.6020410730032566
 20
2.471378604678349
 10
0.6020410730032566
 20
2.411174497378027
 10
0.5418369657029274
 20
2.290766282777376
 10
0.4816328584026053
 20
2.230562175477054
 10
0.3010205365016247
 20
1.989745746275751
  0
LWPOLYLINE
  5
68
100
AcDbEntity
  8
USP-GEO
100
AcDbPolyline
 90
        5
 70
   128
 43
0.0
 10
1.023469824105532
 20
0.6020410730032495
 10
1.023469824105532
 20
0.7826533949042301
 10
0.0
 20
0.7826533949042301
 10
0.0
 20
0.2408164292012955
 10
1.023469824105532
 20
0.2408164292012955
  0
LWPOLYLINE
  5
69
100
AcDbEntity
  8
USP-GEO
100
AcDbPolyline
 90
        2
 70
   128
 43
0.0
 10
1.143878038706183
 20
0.9030616095048742
 10
0.0
 20
0.9030616095048742
  0
LWPOLYLINE
  5
6A
100
AcDbEntity
  8
USP-GEO
100
AcDbPolyline
 90
        7
 70
   128
 43
0.0
 10
0.3010205365016247
 20
2.170358068176724
 10
0.4214287511022761
 20
2.170358068176724
 10
0.3010205365016247
 20
1.989745746275751
 10
0.2408164292013026
 20
1.989745746275751
 10
0.1204082146006513
 20
1.80913342437477
 10
0.1204082146006513
 20
1.8693375316751
 10
0.0602041073003292
 20
1.80913342437477
  0
LWPOLYLINE
  5
6B
100
AcDbEntity
  8
USP-GEO
100
AcDbPolyline
 90
        2
 70
   129
 43
0.0
 10
0.0
 20
0.9030616095048742
 10
0.0
 20
1.568316995173475
  0
LWPOLYLINE
  5
6C
100
AcDbEntity
  8
USP-GEO
100
AcDbPolyline
 90
        2
 70
   128
 43
0.0
 10
0.0
 20
0.7826533949042301
 10
0.0
 20
0.2408164292012955
  0
LWPOLYLINE
  5
6D
100
AcDbEntity
  8
USP-GEO
100
AcDbPolyline
 90
        2
 70
   129
 43
0.0
 10
0.0
 20
0.7826533949042301
 10
0.0
 20
0.9030616095048742
  0
LWPOLYLINE
  5
6E
100
AcDbEntity
  8
USP-GEO
100
AcDbPolyline
 90
        4
 70
   128
 43
0.0
 10
0.1204082146006513
 20
1.80913342437477
 10
0.0602041073003292
 20
1.748929317074448
 10
0.0
 20
1.628521102473797
 10
0.0
 20
1.568316995173475
  0
LWPOLYLINE
  5
6F
100
AcDbEntity
  8
USP-GEO
100
AcDbPolyline
 90
        2
 70
   129
 43
0.0
 10
1.143878038706183
 20
1.568316995173475
 10
1.143878038706183
 20
0.9030616095048742
  0
LWPOLYLINE
  5
70
100
AcDbEntity
  8
USP-GEO
100
AcDbPolyline
 90
        2
 70
   129
 43
0.0
 10
1.023469824105532
 20
0.0
 10
1.023469824105532
 20
0.6020410730032495
  0
LWPOLYLINE
  5
71
100
AcDbEntity
  8
USP-GEO
100
AcDbPolyline
 90
        2
 70
   129
 43
0.0
 10
1.143878038706183
 20
0.9030616095048742
 10
1.143878038706183
 20
0.6622451803035787
  0
LWPOLYLINE
  5
72
100
AcDbEntity
  8
USP-GEO
100
AcDbPolyline
 90
        3
 70
   128
 43
0.0
 10
0.4214287511022761
 20
2.170358068176724
 10
0.4816328584026053
 20
2.230562175477054
 10
0.4846430637676207
 20
2.230562175477054
  0
LWPOLYLINE
  5
73
100
AcDbEntity
  8
USP-GEO
100
AcDbPolyline
 90
        2
 70
   128
 43
0.0
 10
0.4816328584026053
 20
2.230562175477054
 10
0.6020410730032566
 20
2.471378604678349
  0
LWPOLYLINE
  5
74
100
AcDbEntity
  8
USP-GEO
100
AcDbPolyline
 90
        6
 70
   128
 43
0.0
 10
0.9030616095048813
 20
3.856073072585836
 10
0.9030616095048813
 20
3.916277179886158
 10
0.9030616095048813
 20
3.976481287186487
 10
0.9030616095048813
 20
4.036685394486809
 10
0.9632657168052034
 20
4.036685394486809
 10
0.9662759221702188
 20
4.036685394486809
  0
LWPOLYLINE
  5
75
100
AcDbEntity
  8
USP-GEO
100
AcDbPolyline
 90
        8
 70
   128
 43
0.0
 10
0.4816328584026053
 20
8.798830281942542
 10
0.4816328584026053
 20
8.859034389242872
 10
0.4816328584026053
 20
8.979442603843523
 10
0.4214287511022761
 20
9.039646711143845
 10
0.1204082146006513
 20
9.400871354945799
 10
0.0602041073003292
 20
9.52127956954645
 10
0.0602041073003292
 20
9.581483676846772
 10
0.0
 20
9.641687784147094
  0
LWPOLYLINE
  5
76
100
AcDbEntity
  8
USP-GEO
100
AcDbPolyline
 90
        5
 70
   128
 43
0.0
 10
0.0602041073003292
 20
9.581483676846772
 10
0.1204082146006513
 20
9.400871354945799
 10
0.3010205365016247
 20
9.220259033044818
 10
0.4214287511022761
 20
9.099850818444167
 10
0.4214287511022761
 20
9.039646711143845
  0
LWPOLYLINE
  5
77
100
AcDbEntity
  8
USP-GEO
100
AcDbPolyline
 90
        3
 70
   128
 43
0.0
 10
0.1204082146006513
 20
9.52127956954645
 10
0.2408164292013026
 20
9.34066724764547
 10
0.1204082146006513
 20
9.461075462246121
  0
LWPOLYLINE
  5
78
100
AcDbEntity
  8
USP-GEO
100
AcDbPolyline
 90
        2
 70
   129
 43
0.0
 10
0.0030102053650154
 20
9.762095998747746
 10
0.0
 20
9.762095998747746
  0
LWPOLYLINE
  5
79
100
AcDbEntity
  8
USP-GEO
100
AcDbPolyline
 90
        3
 70
   129
 43
0.0
 10
0.0
 20
9.641687784147094
 10
0.0
 20
9.581483676846772
 10
0.0
 20
9.762095998747746
  0
LWPOLYLINE
  5
7A
100
AcDbEntity
  8
USP-GEO
100
AcDbPolyline
 90
        2
 70
   128
 43
0.0
 10
0.1204082146006513
 20
9.400871354945799
 10
0.1234184199656667
 20
9.400871354945799
  0
LWPOLYLINE
  5
7B
100
AcDbEntity
  8
USP-GEO
100
AcDbPolyline
 90
        2
 70
   129
 43
0.0
 10
0.0602041073003292
 20
9.581483676846772
 10
0.0
 20
9.581483676846772
  0
LWPOLYLINE
  5
7C
100
AcDbEntity
  8
USP-GEO
100
AcDbPolyline
 90
        7
 70
   128
 43
0.0
 10
0.0
 20
9.882504213348397
 10
0.0
 20
9.762095998747746
 10
0.0
 20
9.701891891447424
 10
0.0602041073003292
 20
9.581483676846772
 10
0.1204082146006513
 20
9.52127956954645
 10
0.1204082146006513
 20
9.461075462246121
 10
0.0
 20
9.581483676846772
  0
LWPOLYLINE
  5
7D
100
AcDbEntity
  8
USP-GEO
100
AcDbPolyline
 90
        3
 70
   128
 43
0.0
 10
0.2408164292013026
 20
9.34066724764547
 10
0.3010205365016247
 20
9.34066724764547
 10
0.4214287511022761
 20
9.220259033044818
  0
LWPOLYLINE
  5
7E
100
AcDbEntity
  8
USP-GEO
100
AcDbPolyline
 90
       12
 70
   128
 43
0.0
 10
0.5418369657029274
 20
10.66515760825262
 10
0.6020410730032566
 20
10.6049535009523
 10
0.6020410730032566
 20
10.54474939365197
 10
0.5418369657029274
 20
10.54474939365197
 10
0.5418369657029274
 20
10.48454528635165
 10
0.4816328584026053
 20
10.48454528635165
 10
0.4214287511022761
 20
10.54474939365197
 10
0.4214287511022761
 20
10.6049535009523
 10
0.4214287511022761
 20
10.66515760825262
 10
0.4816328584026053
 20
10.66515760825262
 10
0.5418369657029274
 20
10.66515760825262
 10
0.5448471710679428
 20
10.66515760825262
  0
LWPOLYLINE
  5
7F
100
AcDbEntity
  8
USP-GEO
100
AcDbPolyline
 90
       12
 70
   128
 43
0.0
 10
0.9632657168052034
 20
15.60791481760934
 10
1.023469824105532
 20
15.60791481760934
 10
1.083673931405854
 20
15.60791481760934
 10
1.083673931405854
 20
15.54771071030901
 10
1.083673931405854
 20
15.48750660300869
 10
1.023469824105532
 20
15.42730249570836
 10
0.9632657168052034
 20
15.42730249570836
 10
0.9632657168052034
 20
15.48750660300869
 10
0.9030616095048813
 20
15.48750660300869
 10
0.9030616095048813
 20
15.54771071030901
 10
0.9632657168052034
 20
15.60791481760934
 10
0.9662759221702188
 20
15.60791481760934
  0
LWPOLYLINE
  5
80
100
AcDbEntity
  8
USP-GEO
100
AcDbPolyline
 90
        2
 70
   128
 43
0.0
 10
0.9030616095048813
 20
26.15266421126131
 10
1.023469824105532
 20
26.15266421126131
  0
LWPOLYLINE
  5
81
100
AcDbEntity
  8
USP-GEO
100
AcDbPolyline
 90
       14
 70
   128
 43
0.0
 10
0.9060718148698967
 20
25.97205188936034
 10
0.9030616095048813
 20
25.97205188936034
 10
0.8428575022045521
 20
26.03225599666067
 10
0.8428575022045521
 20
26.09246010396099
 10
0.9030616095048813
 20
26.09246010396099
 10
0.9030616095048813
 20
26.15266421126131
 10
1.023469824105532
 20
26.15266421126131
 10
1.023469824105532
 20
26.09246010396099
 10
1.083673931405854
 20
26.09246010396099
 10
1.083673931405854
 20
26.03225599666067
 10
1.023469824105532
 20
25.97205188936034
 10
0.9030616095048813
 20
25.97205188936034
 10
1.023469824105532
 20
25.97205188936034
 10
1.026480029470548
 20
25.97205188936034
  0
LWPOLYLINE
  5
82
100
AcDbEntity
  8
USP-GEO
100
AcDbPolyline
 90
        2
 70
   129
 43
0.0
 10
2.528572506613663
 20
8.979442603843523
 10
2.528572506613663
 20
2.65199092657933
  0
LWPOLYLINE
  5
83
100
AcDbEntity
  8
USP-GEO
100
AcDbPolyline
 90
       15
 70
   128
 43
0.0
 10
3.010205365016268
 20
1.568316995173475
 10
3.010205365016268
 20
1.628521102473797
 10
2.950001257715939
 20
1.748929317074448
 10
2.889797150415617
 20
1.80913342437477
 10
2.769388935814966
 20
1.989745746275751
 10
2.648980721214314
 20
1.989745746275751
 10
2.468368399313341
 20
2.230562175477054
 10
2.468368399313341
 20
2.290766282777376
 10
2.408164292013012
 20
2.411174497378027
 10
2.408164292013012
 20
2.471378604678349
 10
2.408164292013012
 20
2.65199092657933
 10
2.408164292013012
 20
8.979442603843523
 10
2.408164292013012
 20
9.039646711143845
 10
2.468368399313341
 20
9.160054925744496
 10
2.528572506613663
 20
9.220259033044818
  0
LWPOLYLINE
  5
84
100
AcDbEntity
  8
USP-GEO
100
AcDbPolyline
 90
        9
 70
   128
 43
0.0
 10
2.648980721214314
 20
1.989745746275751
 10
2.528572506613663
 20
2.170358068176724
 10
2.709184828514636
 20
2.170358068176724
 10
2.588776613913992
 20
2.290766282777376
 10
2.528572506613663
 20
2.471378604678349
 10
2.528572506613663
 20
2.65199092657933
 10
2.408164292013012
 20
2.65199092657933
 10
2.408164292013012
 20
8.979442603843523
 10
2.528572506613663
 20
8.979442603843523
  0
LWPOLYLINE
  5
85
100
AcDbEntity
  8
USP-GEO
100
AcDbPolyline
 90
        4
 70
   128
 43
0.0
 10
1.986735540910736
 20
0.2408164292012955
 10
3.010205365016268
 20
0.2408164292012955
 10
3.010205365016268
 20
0.7826533949042301
 10
3.010205365016268
 20
0.9030616095048742
  0
LWPOLYLINE
  5
86
100
AcDbEntity
  8
USP-GEO
100
AcDbPolyline
 90
        3
 70
   128
 43
0.0
 10
1.986735540910736
 20
0.6020410730032495
 10
1.986735540910736
 20
0.7826533949042301
 10
3.010205365016268
 20
0.7826533949042301
  0
LWPOLYLINE
  5
87
100
AcDbEntity
  8
USP-GEO
100
AcDbPolyline
 90
        3
 70
   128
 43
0.0
 10
3.010205365016268
 20
0.9030616095048742
 10
1.866327326310084
 20
0.9030616095048742
 10
1.866327326310084
 20
1.568316995173475
  0
LWPOLYLINE
  5
88
100
AcDbEntity
  8
USP-GEO
100
AcDbPolyline
 90
        2
 70
   129
 43
0.0
 10
1.50510268250813
 20
0.6622451803035787
 10
1.50510268250813
 20
1.447908780572824
  0
LWPOLYLINE
  5
89
100
AcDbEntity
  8
USP-GEO
100
AcDbPolyline
 90
        2
 70
   128
 43
0.0
 10
1.50510268250813
 20
0.6622451803035787
 10
1.50510268250813
 20
1.447908780572824
  0
LWPOLYLINE
  5
8A
100
AcDbEntity
  8
USP-GEO
100
AcDbPolyline
 90
        2
 70
   128
 43
0.0
 10
1.866327326310084
 20
0.9030616095048742
 10
1.866327326310084
 20
0.6622451803035787
  0
LWPOLYLINE
  5
8B
100
AcDbEntity
  8
USP-GEO
100
AcDbPolyline
 90
        2
 70
   129
 43
0.0
 10
1.986735540910736
 20
0.6020410730032495
 10
1.986735540910736
 20
0.0
  0
LWPOLYLINE
  5
8C
100
AcDbEntity
  8
USP-GEO
100
AcDbPolyline
 90
        2
 70
   128
 43
0.0
 10
1.986735540910736
 20
0.6020410730032495
 10
1.986735540910736
 20
0.7826533949042301
  0
LWPOLYLINE
  5
8D
100
AcDbEntity
  8
USP-GEO
100
AcDbPolyline
 90
        2
 70
   129
 43
0.0
 10
3.010205365016268
 20
1.568316995173475
 10
3.010205365016268
 20
0.9030616095048742
  0
LWPOLYLINE
  5
8E
100
AcDbEntity
  8
USP-GEO
100
AcDbPolyline
 90
        3
 70
   128
 43
0.0
 10
3.010205365016268
 20
0.2408164292012955
 10
3.010205365016268
 20
0.7826533949042301
 10
3.010205365016268
 20
0.9030616095048742
  0
LWPOLYLINE
  5
8F
100
AcDbEntity
  8
USP-GEO
100
AcDbPolyline
 90
        2
 70
   128
 43
0.0
 10
2.528572506613663
 20
2.170358068176724
 10
2.468368399313341
 20
2.230562175477054
  0
LWPOLYLINE
  5
90
100
AcDbEntity
  8
USP-GEO
100
AcDbPolyline
 90
        2
 70
   129
 43
0.0
 10
2.408164292013012
 20
2.471378604678349
 10
2.408164292013012
 20
2.65199092657933
  0
LWPOLYLINE
  5
91
100
AcDbEntity
  8
USP-GEO
100
AcDbPolyline
 90
        3
 70
   128
 43
0.0
 10
2.471378604678356
 20
2.230562175477054
 10
2.468368399313341
 20
2.230562175477054
 10
2.408164292013012
 20
2.471378604678349
  0
LWPOLYLINE
  5
92
100
AcDbEntity
  8
USP-GEO
100
AcDbPolyline
 90
        4
 70
   128
 43
0.0
 10
2.950001257715939
 20
1.688725209774119
 10
2.950001257715939
 20
1.748929317074448
 10
2.889797150415617
 20
1.8693375316751
 10
2.709184828514636
 20
2.170358068176724
  0
LWPOLYLINE
  5
93
100
AcDbEntity
  8
USP-GEO
100
AcDbPolyline
 90
        3
 70
   128
 43
0.0
 10
2.889797150415617
 20
1.8693375316751
 10
2.950001257715939
 20
1.748929317074448
 10
2.950001257715939
 20
1.688725209774119
  0
LWPOLYLINE
  5
94
100
AcDbEntity
  8
USP-GEO
100
AcDbPolyline
 90
        2
 70
   129
 43
0.0
 10
2.953011463080954
 20
1.688725209774119
 10
2.950001257715939
 20
1.688725209774119
  0
LWPOLYLINE
  5
95
100
AcDbEntity
  8
USP-GEO
100
AcDbPolyline
 90
        2
 70
   128
 43
0.0
 10
2.950001257715939
 20
1.688725209774119
 10
2.953011463080954
 20
1.688725209774119
  0
LWPOLYLINE
  5
96
100
AcDbEntity
  8
USP-GEO
100
AcDbPolyline
 90
        3
 70
   128
 43
0.0
 10
2.04994985357608
 20
4.036685394486809
 10
2.046939648211058
 20
4.036685394486809
 10
1.926531433610414
 20
4.096889501787138
  0
LWPOLYLINE
  5
97
100
AcDbEntity
  8
USP-GEO
100
AcDbPolyline
 90
        2
 70
   129
 43
0.0
 10
2.046939648211058
 20
4.036685394486809
 10
2.107143755511387
 20
4.036685394486809
  0
LWPOLYLINE
  5
98
100
AcDbEntity
  8
USP-GEO
100
AcDbPolyline
 90
        5
 70
   128
 43
0.0
 10
2.046939648211058
 20
3.675460750684855
 10
2.107143755511387
 20
3.856073072585836
 10
2.107143755511387
 20
3.916277179886158
 10
2.107143755511387
 20
3.976481287186487
 10
2.107143755511387
 20
4.036685394486809
  0
LWPOLYLINE
  5
99
100
AcDbEntity
  8
USP-GEO
100
AcDbPolyline
 90
        2
 70
   128
 43
0.0
 10
2.046939648211058
 20
5.966227033462239
 10
1.926531433610414
 20
6.026431140762561
  0
LWPOLYLINE
  5
9A
100
AcDbEntity
  8
USP-GEO
100
AcDbPolyline
 90
        3
 70
   129
 43
0.0
 10
2.046939648211058
 20
5.966227033462239
 10
2.046939648211058
 20
5.906022926161909
 10
2.107143755511387
 20
5.906022926161909
  0
LWPOLYLINE
  5
9B
100
AcDbEntity
  8
USP-GEO
100
AcDbPolyline
 90
        2
 70
   128
 43
0.0
 10
2.107143755511387
 20
7.712146145171672
 10
2.110153960876402
 20
7.712146145171672
  0
LWPOLYLINE
  5
9C
100
AcDbEntity
  8
USP-GEO
100
AcDbPolyline
 90
        3
 70
   128
 43
0.0
 10
2.588776613913992
 20
9.039646711143845
 10
2.889797150415617
 20
9.400871354945799
 10
2.892807355780632
 20
9.400871354945799
  0
LWPOLYLINE
  5
9D
100
AcDbEntity
  8
USP-GEO
100
AcDbPolyline
 90
        8
 70
   128
 43
0.0
 10
2.588776613913992
 20
9.099850818444167
 10
2.709184828514636
 20
9.220259033044818
 10
2.528572506613663
 20
9.220259033044818
 10
2.648980721214314
 20
9.34066724764547
 10
2.769388935814966
 20
9.34066724764547
 10
2.889797150415617
 20
9.52127956954645
 10
2.889797150415617
 20
9.461075462246121
 10
2.769388935814966
 20
9.34066724764547
  0
LWPOLYLINE
  5
9E
100
AcDbEntity
  8
USP-GEO
100
AcDbPolyline
 90
        7
 70
   128
 43
0.0
 10
2.528572506613663
 20
8.798830281942542
 10
2.528572506613663
 20
8.859034389242872
 10
2.528572506613663
 20
8.979442603843523
 10
2.588776613913992
 20
9.039646711143845
 10
2.588776613913992
 20
9.099850818444167
 10
2.528572506613663
 20
9.039646711143845
 10
2.528572506613663
 20
8.979442603843523
  0
LWPOLYLINE
  5
9F
100
AcDbEntity
  8
USP-GEO
100
AcDbPolyline
 90
        3
 70
   128
 43
0.0
 10
2.709184828514636
 20
9.220259033044818
 10
2.889797150415617
 20
9.400871354945799
 10
2.950001257715939
 20
9.581483676846772
  0
LWPOLYLINE
  5
A0
100
AcDbEntity
  8
USP-GEO
100
AcDbPolyline
 90
        5
 70
   128
 43
0.0
 10
3.013215570381284
 20
9.762095998747746
 10
3.010205365016268
 20
9.762095998747746
 10
3.010205365016268
 20
9.701891891447424
 10
2.950001257715939
 20
9.581483676846772
 10
2.889797150415617
 20
9.52127956954645
  0
LWPOLYLINE
  5
A1
100
AcDbEntity
  8
USP-GEO
100
AcDbPolyline
 90
        3
 70
   128
 43
0.0
 10
2.950001257715939
 20
9.581483676846772
 10
3.010205365016268
 20
9.762095998747746
 10
3.010205365016268
 20
9.882504213348397
  0
LWPOLYLINE
  5
A2
100
AcDbEntity
  8
USP-GEO
100
AcDbPolyline
 90
        2
 70
   128
 43
0.0
 10
2.950001257715939
 20
9.581483676846772
 10
3.010205365016268
 20
9.641687784147094
  0
LWPOLYLINE
  5
A3
100
AcDbEntity
  8
USP-GEO
100
AcDbPolyline
 90
        2
 70
   128
 43
0.0
 10
2.950001257715939
 20
9.581483676846772
 10
2.889797150415617
 20
9.461075462246121
  0
LWPOLYLINE
  5
A4
100
AcDbEntity
  8
USP-GEO
100
AcDbPolyline
 90
        2
 70
   129
 43
0.0
 10
2.953011463080954
 20
9.581483676846772
 10
2.950001257715939
 20
9.581483676846772
  0
LWPOLYLINE
  5
A5
100
AcDbEntity
  8
USP-GEO
100
AcDbPolyline
 90
       12
 70
   128
 43
0.0
 10
2.588776613913992
 20
10.54474939365197
 10
2.588776613913992
 20
10.6049535009523
 10
2.588776613913992
 20
10.66515760825262
 10
2.528572506613663
 20
10.66515760825262
 10
2.468368399313341
 20
10.66515760825262
 10
2.408164292013012
 20
10.6049535009523
 10
2.408164292013012
 20
10.54474939365197
 10
2.468368399313341
 20
10.54474939365197
 10
2.468368399313341
 20
10.48454528635165
 10
2.528572506613663
 20
10.48454528635165
 10
2.588776613913992
 20
10.54474939365197
 10
2.591786819279008
 20
10.54474939365197
  0
LWPOLYLINE
  5
A6
100
AcDbEntity
  8
USP-GEO
100
AcDbPolyline
 90
        7
 70
   128
 43
0.0
 10
2.04994985357608
 20
20.12623307049875
 10
2.046939648211058
 20
20.12623307049875
 10
1.986735540910736
 20
20.12623307049875
 10
1.926531433610414
 20
20.12623307049875
 10
1.926531433610414
 20
20.06602896319842
 10
1.926531433610414
 20
20.0058248558981
 10
1.929541638975429
 20
20.0058248558981
  0
LWPOLYLINE
  5
A7
100
AcDbEntity
  8
USP-GEO
100
AcDbPolyline
 90
        4
 70
   128
 43
0.0
 10
2.046939648211058
 20
20.0058248558981
 10
2.046939648211058
 20
19.94562074859777
 10
1.986735540910736
 20
19.94562074859777
 10
1.926531433610414
 20
20.0058248558981
  0
LWPOLYLINE
  5
A8
100
AcDbEntity
  8
USP-GEO
100
AcDbPolyline
 90
        2
 70
   129
 43
0.0
 10
2.046939648211058
 20
20.0058248558981
 10
2.107143755511387
 20
20.0058248558981
  0
LWPOLYLINE
  5
A9
100
AcDbEntity
  8
USP-GEO
100
AcDbPolyline
 90
        3
 70
   128
 43
0.0
 10
2.046939648211058
 20
20.12623307049875
 10
2.107143755511387
 20
20.06602896319842
 10
2.107143755511387
 20
20.0058248558981
  0
LWPOLYLINE
  5
AA
100
AcDbEntity
  8
USP-GEO
100
AcDbPolyline
 90
        5
 70
   128
 43
0.0
 10
2.531582711978678
 20
25.97205188936034
 10
2.528572506613663
 20
25.97205188936034
 10
2.408164292013012
 20
25.97205188936034
 10
2.34796018471269
 20
26.03225599666067
 10
2.350970390077705
 20
26.03225599666067
  0
LWPOLYLINE
  5
AB
100
AcDbEntity
  8
USP-GEO
100
AcDbPolyline
 90
       10
 70
   128
 43
0.0
 10
2.34796018471269
 20
26.03225599666067
 10
2.34796018471269
 20
26.09246010396099
 10
2.408164292013012
 20
26.09246010396099
 10
2.408164292013012
 20
26.15266421126131
 10
2.528572506613663
 20
26.15266421126131
 10
2.528572506613663
 20
26.09246010396099
 10
2.588776613913992
 20
26.09246010396099
 10
2.588776613913992
 20
26.03225599666067
 10
2.528572506613663
 20
25.97205188936034
 10
2.408164292013012
 20
25.97205188936034
  0
LWPOLYLINE
  5
AC
100
AcDbEntity
  8
USP-GEO
100
AcDbPolyline
 90
        2
 70
   128
 43
0.0
 10
2.408164292013012
 20
26.15266421126131
 10
2.528572506613663
 20
26.15266421126131
  0
LWPOLYLINE
  5
AD
100
AcDbEntity
  8
USP-GEO
100
AcDbPolyline
 90
       16
 70
   128
 43
0.0
 10
0.4846430637676207
 20
27.48016477723349
 10
0.4816328584026053
 20
27.48016477723349
 10
0.4214287511022761
 20
27.48016477723349
 10
0.4214287511022761
 20
27.54036888453381
 10
0.4214287511022761
 20
27.60057299183414
 10
0.4816328584026053
 20
27.60057299183414
 10
0.4816328584026053
 20
27.66077709913446
 10
0.6020410730032566
 20
27.66077709913446
 10
0.6020410730032566
 20
27.60057299183414
 10
0.6622451803035787
 20
27.60057299183414
 10
0.6622451803035787
 20
27.54036888453381
 10
0.6622451803035787
 20
27.48016477723349
 10
0.6020410730032566
 20
27.48016477723349
 10
0.4816328584026053
 20
27.48016477723349
 10
0.6020410730032566
 20
27.48016477723349
 10
0.605051278368272
 20
27.48016477723349
  0
LWPOLYLINE
  5
AE
100
AcDbEntity
  8
USP-GEO
100
AcDbPolyline
 90
        2
 70
   128
 43
0.0
 10
0.4816328584026053
 20
27.66077709913446
 10
0.6020410730032566
 20
27.66077709913446
  0
LWPOLYLINE
  5
AF
100
AcDbEntity
  8
USP-GEO
100
AcDbPolyline
 90
       16
 70
   128
 43
0.0
 10
0.9060718148698967
 20
28.98526745974162
 10
0.9030616095048813
 20
28.98526745974162
 10
0.8428575022045521
 20
28.98526745974162
 10
0.8428575022045521
 20
29.04547156704195
 10
0.8428575022045521
 20
29.10567567434227
 10
0.9030616095048813
 20
29.10567567434227
 10
0.9030616095048813
 20
29.1658797816426
 10
1.023469824105532
 20
29.1658797816426
 10
1.023469824105532
 20
29.10567567434227
 10
1.083673931405854
 20
29.10567567434227
 10
1.083673931405854
 20
29.04547156704195
 10
1.083673931405854
 20
28.98526745974162
 10
1.023469824105532
 20
28.98526745974162
 10
0.9030616095048813
 20
28.98526745974162
 10
1.023469824105532
 20
28.98526745974162
 10
1.026480029470548
 20
28.98526745974162
  0
LWPOLYLINE
  5
B0
100
AcDbEntity
  8
USP-GEO
100
AcDbPolyline
 90
        2
 70
   128
 43
0.0
 10
0.9030616095048813
 20
29.1658797816426
 10
1.023469824105532
 20
29.1658797816426
  0
LWPOLYLINE
  5
B1
100
AcDbEntity
  8
USP-GEO
100
AcDbPolyline
 90
        7
 70
   128
 43
0.0
 10
0.4846430637676207
 20
30.61378856221542
 10
0.4816328584026053
 20
30.61378856221542
 10
0.4214287511022761
 20
30.61378856221542
 10
0.4214287511022761
 20
30.55358445491509
 10
0.4214287511022761
 20
30.49338034761477
 10
0.4816328584026053
 20
30.49338034761477
 10
0.4846430637676207
 20
30.49338034761477
  0
LWPOLYLINE
  5
B2
100
AcDbEntity
  8
USP-GEO
100
AcDbPolyline
 90
       11
 70
   128
 43
0.0
 10
0.605051278368272
 20
30.61378856221542
 10
0.6020410730032566
 20
30.61378856221542
 10
0.4816328584026053
 20
30.61378856221542
 10
0.6020410730032566
 20
30.61378856221542
 10
0.6622451803035787
 20
30.61378856221542
 10
0.6622451803035787
 20
30.55358445491509
 10
0.6622451803035787
 20
30.49338034761477
 10
0.6020410730032566
 20
30.49338034761477
 10
0.4816328584026053
 20
30.49338034761477
 10
0.6020410730032566
 20
30.49338034761477
 10
0.605051278368272
 20
30.49338034761477
  0
LWPOLYLINE
  5
B3
100
AcDbEntity
  8
USP-GEO
100
AcDbPolyline
 90
       16
 70
   128
 43
0.0
 10
0.605051278368272
 20
33.62700413259671
 10
0.6020410730032566
 20
33.62700413259671
 10
0.4816328584026053
 20
33.62700413259671
 10
0.6020410730032566
 20
33.62700413259671
 10
0.6622451803035787
 20
33.62700413259671
 10
0.6622451803035787
 20
33.56680002529638
 10
0.6622451803035787
 20
33.50659591799606
 10
0.6020410730032566
 20
33.50659591799606
 10
0.6020410730032566
 20
33.44639181069573
 10
0.4816328584026053
 20
33.44639181069573
 10
0.4816328584026053
 20
33.50659591799606
 10
0.4214287511022761
 20
33.50659591799606
 10
0.4214287511022761
 20
33.56680002529638
 10
0.4214287511022761
 20
33.62700413259671
 10
0.4816328584026053
 20
33.62700413259671
 10
0.4846430637676207
 20
33.62700413259671
  0
LWPOLYLINE
  5
B4
100
AcDbEntity
  8
USP-GEO
100
AcDbPolyline
 90
        2
 70
   128
 43
0.0
 10
0.6020410730032566
 20
33.44639181069573
 10
0.4816328584026053
 20
33.44639181069573
  0
LWPOLYLINE
  5
B5
100
AcDbEntity
  8
USP-GEO
100
AcDbPolyline
 90
       16
 70
   128
 43
0.0
 10
1.026480029470548
 20
32.11889124472355
 10
1.023469824105532
 20
32.11889124472355
 10
0.9030616095048813
 20
32.11889124472355
 10
1.023469824105532
 20
32.11889124472355
 10
1.083673931405854
 20
32.11889124472355
 10
1.083673931405854
 20
32.05868713742323
 10
1.083673931405854
 20
31.99848303012291
 10
1.023469824105532
 20
31.99848303012291
 10
1.023469824105532
 20
31.93827892282258
 10
0.9030616095048813
 20
31.93827892282258
 10
0.9030616095048813
 20
31.99848303012291
 10
0.8428575022045521
 20
31.99848303012291
 10
0.8428575022045521
 20
32.05868713742323
 10
0.8428575022045521
 20
32.11889124472355
 10
0.9030616095048813
 20
32.11889124472355
 10
0.9060718148698967
 20
32.11889124472355
  0
LWPOLYLINE
  5
B6
100
AcDbEntity
  8
USP-GEO
100
AcDbPolyline
 90
        2
 70
   128
 43
0.0
 10
1.023469824105532
 20
31.93827892282258
 10
0.9030616095048813
 20
31.93827892282258
  0
LWPOLYLINE
  5
B7
100
AcDbEntity
  8
USP-GEO
100
AcDbPolyline
 90
       13
 70
   128
 43
0.0
 10
1.026480029470548
 20
35.13210681510484
 10
1.023469824105532
 20
35.13210681510484
 10
0.9030616095048813
 20
35.13210681510484
 10
1.023469824105532
 20
35.13210681510484
 10
1.083673931405854
 20
35.07190270780451
 10
1.083673931405854
 20
35.01169860050419
 10
1.023469824105532
 20
35.01169860050419
 10
1.023469824105532
 20
34.95149449320386
 10
0.9030616095048813
 20
34.95149449320386
 10
0.9030616095048813
 20
35.01169860050419
 10
0.8428575022045521
 20
35.01169860050419
 10
0.8428575022045521
 20
35.07190270780451
 10
0.8458677075695746
 20
35.07190270780451
  0
LWPOLYLINE
  5
B8
100
AcDbEntity
  8
USP-GEO
100
AcDbPolyline
 90
        2
 70
   128
 43
0.0
 10
1.023469824105532
 20
34.95149449320386
 10
0.9030616095048813
 20
34.95149449320386
  0
LWPOLYLINE
  5
B9
100
AcDbEntity
  8
USP-GEO
100
AcDbPolyline
 90
        3
 70
   128
 43
0.0
 10
0.8428575022045521
 20
35.07190270780451
 10
0.9030616095048813
 20
35.13210681510484
 10
0.9060718148698967
 20
35.13210681510484
  0
LWPOLYLINE
  5
BA
100
AcDbEntity
  8
USP-GEO
100
AcDbPolyline
 90
        2
 70
   128
 43
0.0
 10
1.083673931405854
 20
35.07190270780451
 10
1.08668413677087
 20
35.07190270780451
  0
LWPOLYLINE
  5
BB
100
AcDbEntity
  8
USP-GEO
100
AcDbPolyline
 90
        5
 70
   128
 43
0.0
 10
0.8458677075695746
 20
41.03812974126675
 10
0.8428575022045521
 20
41.03812974126675
 10
0.8428575022045521
 20
41.09833384856708
 10
0.9030616095048813
 20
41.1585379558674
 10
0.9060718148698967
 20
41.1585379558674
  0
LWPOLYLINE
  5
BC
100
AcDbEntity
  8
USP-GEO
100
AcDbPolyline
 90
        6
 70
   128
 43
0.0
 10
1.026480029470548
 20
41.1585379558674
 10
1.023469824105532
 20
41.1585379558674
 10
0.9030616095048813
 20
41.1585379558674
 10
1.023469824105532
 20
41.1585379558674
 10
1.083673931405854
 20
41.09833384856708
 10
1.083673931405854
 20
41.03812974126675
  0
LWPOLYLINE
  5
BD
100
AcDbEntity
  8
USP-GEO
100
AcDbPolyline
 90
        5
 70
   128
 43
0.0
 10
0.4846430637676207
 20
36.45659717571199
 10
0.4816328584026053
 20
36.45659717571199
 10
0.4214287511022761
 20
36.51981148837734
 10
0.4214287511022761
 20
36.58001559567766
 10
0.4244389564672915
 20
36.58001559567766
  0
LWPOLYLINE
  5
BE
100
AcDbEntity
  8
USP-GEO
100
AcDbPolyline
 90
        3
 70
   128
 43
0.0
 10
0.4214287511022761
 20
36.58001559567766
 10
0.4816328584026053
 20
36.64021970297798
 10
0.4846430637676207
 20
36.64021970297798
  0
LWPOLYLINE
  5
BF
100
AcDbEntity
  8
USP-GEO
100
AcDbPolyline
 90
       10
 70
   128
 43
0.0
 10
0.605051278368272
 20
36.64021970297798
 10
0.6020410730032566
 20
36.64021970297798
 10
0.4816328584026053
 20
36.64021970297798
 10
0.6020410730032566
 20
36.64021970297798
 10
0.6622451803035787
 20
36.58001559567766
 10
0.6622451803035787
 20
36.51981148837734
 10
0.6020410730032566
 20
36.45659717571199
 10
0.4816328584026053
 20
36.45659717571199
 10
0.6020410730032566
 20
36.45659717571199
 10
0.605051278368272
 20
36.45659717571199
  0
LWPOLYLINE
  5
C0
100
AcDbEntity
  8
USP-GEO
100
AcDbPolyline
 90
        2
 70
   128
 43
0.0
 10
0.6622451803035787
 20
36.58001559567766
 10
0.6652553856685941
 20
36.58001559567766
  0
LWPOLYLINE
  5
C1
100
AcDbEntity
  8
USP-GEO
100
AcDbPolyline
 90
       10
 70
   128
 43
0.0
 10
1.026480029470548
 20
38.14532238548612
 10
1.023469824105532
 20
38.14532238548612
 10
0.9030616095048813
 20
38.14532238548612
 10
1.023469824105532
 20
38.14532238548612
 10
1.083673931405854
 20
38.0851182781858
 10
1.083673931405854
 20
38.02491417088547
 10
1.023469824105532
 20
37.96471006358514
 10
0.9030616095048813
 20
37.96471006358514
 10
1.023469824105532
 20
37.96471006358514
 10
1.026480029470548
 20
37.96471006358514
  0
LWPOLYLINE
  5
C2
100
AcDbEntity
  8
USP-GEO
100
AcDbPolyline
 90
        5
 70
   128
 43
0.0
 10
0.9060718148698967
 20
37.96471006358514
 10
0.9030616095048813
 20
37.96471006358514
 10
0.8428575022045521
 20
38.02491417088547
 10
0.8428575022045521
 20
38.0851182781858
 10
0.8458677075695746
 20
38.0851182781858
  0
LWPOLYLINE
  5
C3
100
AcDbEntity
  8
USP-GEO
100
AcDbPolyline
 90
        3
 70
   128
 43
0.0
 10
0.8428575022045521
 20
38.0851182781858
 10
0.9030616095048813
 20
38.14532238548612
 10
0.9060718148698967
 20
38.14532238548612
  0
LWPOLYLINE
  5
C4
100
AcDbEntity
  8
USP-GEO
100
AcDbPolyline
 90
        2
 70
   128
 43
0.0
 10
1.083673931405854
 20
38.0851182781858
 10
1.08668413677087
 20
38.0851182781858
  0
LWPOLYLINE
  5
C5
100
AcDbEntity
  8
USP-GEO
100
AcDbPolyline
 90
        6
 70
   128
 43
0.0
 10
0.4846430637676207
 20
39.65042506799425
 10
0.4816328584026053
 20
39.65042506799425
 10
0.4214287511022761
 20
39.59022096069393
 10
0.4214287511022761
 20
39.5300168533936
 10
0.4816328584026053
 20
39.46981274609328
 10
0.4846430637676207
 20
39.46981274609328
  0
LWPOLYLINE
  5
C6
100
AcDbEntity
  8
USP-GEO
100
AcDbPolyline
 90
        6
 70
   128
 43
0.0
 10
0.605051278368272
 20
39.46981274609328
 10
0.6020410730032566
 20
39.46981274609328
 10
0.4816328584026053
 20
39.46981274609328
 10
0.6020410730032566
 20
39.46981274609328
 10
0.6622451803035787
 20
39.5300168533936
 10
0.6652553856685941
 20
39.5300168533936
  0
LWPOLYLINE
  5
C7
100
AcDbEntity
  8
USP-GEO
100
AcDbPolyline
 90
        6
 70
   128
 43
0.0
 10
0.605051278368272
 20
39.65042506799425
 10
0.6020410730032566
 20
39.65042506799425
 10
0.4816328584026053
 20
39.65042506799425
 10
0.6020410730032566
 20
39.65042506799425
 10
0.6622451803035787
 20
39.59022096069393
 10
0.6622451803035787
 20
39.5300168533936
  0
LWPOLYLINE
  5
C8
100
AcDbEntity
  8
USP-GEO
100
AcDbPolyline
 90
        6
 70
   128
 43
0.0
 10
1.026480029470548
 20
40.97792563396643
 10
1.023469824105532
 20
40.97792563396643
 10
0.9030616095048813
 20
40.97792563396643
 10
1.023469824105532
 20
40.97792563396643
 10
1.083673931405854
 20
41.03812974126675
 10
1.08668413677087
 20
41.03812974126675
  0
LWPOLYLINE
  5
C9
100
AcDbEntity
  8
USP-GEO
100
AcDbPolyline
 90
        3
 70
   128
 43
0.0
 10
0.8428575022045521
 20
41.03812974126675
 10
0.9030616095048813
 20
40.97792563396643
 10
0.9060718148698967
 20
40.97792563396643
  0
LWPOLYLINE
  5
CA
100
AcDbEntity
  8
USP-GEO
100
AcDbPolyline
 90
        6
 70
   128
 43
0.0
 10
0.4846430637676207
 20
42.66364063837554
 10
0.4816328584026053
 20
42.66364063837554
 10
0.4214287511022761
 20
42.60343653107521
 10
0.4214287511022761
 20
42.54323242377489
 10
0.4816328584026053
 20
42.48302831647456
 10
0.4846430637676207
 20
42.48302831647456
  0
LWPOLYLINE
  5
CB
100
AcDbEntity
  8
USP-GEO
100
AcDbPolyline
 90
        6
 70
   128
 43
0.0
 10
0.605051278368272
 20
42.48302831647456
 10
0.6020410730032566
 20
42.48302831647456
 10
0.4816328584026053
 20
42.48302831647456
 10
0.6020410730032566
 20
42.48302831647456
 10
0.6622451803035787
 20
42.54323242377489
 10
0.6652553856685941
 20
42.54323242377489
  0
LWPOLYLINE
  5
CC
100
AcDbEntity
  8
USP-GEO
100
AcDbPolyline
 90
        6
 70
   128
 43
0.0
 10
0.605051278368272
 20
42.66364063837554
 10
0.6020410730032566
 20
42.66364063837554
 10
0.4816328584026053
 20
42.66364063837554
 10
0.6020410730032566
 20
42.66364063837554
 10
0.6622451803035787
 20
42.60343653107521
 10
0.6622451803035787
 20
42.54323242377489
  0
LWPOLYLINE
  5
CD
100
AcDbEntity
  8
USP-GEO
100
AcDbPolyline
 90
       16
 70
   128
 43
0.0
 10
0.605051278368272
 20
45.49624388685584
 10
0.6020410730032566
 20
45.49624388685584
 10
0.4816328584026053
 20
45.49624388685584
 10
0.6020410730032566
 20
45.49624388685584
 10
0.6622451803035787
 20
45.49624388685584
 10
0.6622451803035787
 20
45.55644799415617
 10
0.6622451803035787
 20
45.61665210145649
 10
0.6020410730032566
 20
45.61665210145649
 10
0.6020410730032566
 20
45.67685620875681
 10
0.4816328584026053
 20
45.67685620875681
 10
0.4816328584026053
 20
45.61665210145649
 10
0.4214287511022761
 20
45.61665210145649
 10
0.4214287511022761
 20
45.55644799415617
 10
0.4214287511022761
 20
45.49624388685584
 10
0.4816328584026053
 20
45.49624388685584
 10
0.4846430637676207
 20
45.49624388685584
  0
LWPOLYLINE
  5
CE
100
AcDbEntity
  8
USP-GEO
100
AcDbPolyline
 90
        2
 70
   128
 43
0.0
 10
0.4816328584026053
 20
45.67685620875681
 10
0.6020410730032566
 20
45.67685620875681
  0
LWPOLYLINE
  5
CF
100
AcDbEntity
  8
USP-GEO
100
AcDbPolyline
 90
        9
 70
   128
 43
0.0
 10
1.083673931405854
 20
44.05134531164804
 10
1.083673931405854
 20
44.11154941894836
 10
1.023469824105532
 20
44.11154941894836
 10
1.023469824105532
 20
44.17175352624869
 10
0.9030616095048813
 20
44.17175352624869
 10
0.9030616095048813
 20
44.11154941894836
 10
0.8428575022045521
 20
44.11154941894836
 10
0.8428575022045521
 20
44.05134531164804
 10
0.8458677075695746
 20
44.05134531164804
  0
LWPOLYLINE
  5
D0
100
AcDbEntity
  8
USP-GEO
100
AcDbPolyline
 90
        6
 70
   128
 43
0.0
 10
1.026480029470548
 20
43.99114120434771
 10
1.023469824105532
 20
43.99114120434771
 10
0.9030616095048813
 20
43.99114120434771
 10
1.023469824105532
 20
43.99114120434771
 10
1.083673931405854
 20
44.05134531164804
 10
1.08668413677087
 20
44.05134531164804
  0
LWPOLYLINE
  5
D1
100
AcDbEntity
  8
USP-GEO
100
AcDbPolyline
 90
        2
 70
   128
 43
0.0
 10
0.9030616095048813
 20
44.17175352624869
 10
1.023469824105532
 20
44.17175352624869
  0
LWPOLYLINE
  5
D2
100
AcDbEntity
  8
USP-GEO
100
AcDbPolyline
 90
        3
 70
   128
 43
0.0
 10
0.8428575022045521
 20
44.05134531164804
 10
0.9030616095048813
 20
43.99114120434771
 10
0.9060718148698967
 20
43.99114120434771
  0
LWPOLYLINE
  5
D3
100
AcDbEntity
  8
USP-GEO
100
AcDbPolyline
 90
       16
 70
   128
 43
0.0
 10
2.110153960876402
 20
27.48016477723349
 10
2.107143755511387
 20
27.48016477723349
 10
1.986735540910736
 20
27.48016477723349
 10
2.107143755511387
 20
27.48016477723349
 10
2.167347862811709
 20
27.48016477723349
 10
2.167347862811709
 20
27.54036888453381
 10
2.167347862811709
 20
27.60057299183414
 10
2.107143755511387
 20
27.60057299183414
 10
2.107143755511387
 20
27.66077709913446
 10
1.986735540910736
 20
27.66077709913446
 10
1.986735540910736
 20
27.60057299183414
 10
1.926531433610414
 20
27.60057299183414
 10
1.926531433610414
 20
27.54036888453381
 10
1.926531433610414
 20
27.48016477723349
 10
1.986735540910736
 20
27.48016477723349
 10
1.989745746275751
 20
27.48016477723349
  0
LWPOLYLINE
  5
D4
100
AcDbEntity
  8
USP-GEO
100
AcDbPolyline
 90
       11
 70
   128
 43
0.0
 10
2.110153960876402
 20
30.61378856221542
 10
2.107143755511387
 20
30.61378856221542
 10
1.986735540910736
 20
30.61378856221542
 10
2.107143755511387
 20
30.61378856221542
 10
2.167347862811709
 20
30.61378856221542
 10
2.167347862811709
 20
30.55358445491509
 10
2.167347862811709
 20
30.49338034761477
 10
2.107143755511387
 20
30.49338034761477
 10
1.986735540910736
 20
30.49338034761477
 10
2.107143755511387
 20
30.49338034761477
 10
2.110153960876402
 20
30.49338034761477
  0
LWPOLYLINE
  5
D5
100
AcDbEntity
  8
USP-GEO
100
AcDbPolyline
 90
        2
 70
   128
 43
0.0
 10
1.986735540910736
 20
27.66077709913446
 10
2.107143755511387
 20
27.66077709913446
  0
LWPOLYLINE
  5
D6
100
AcDbEntity
  8
USP-GEO
100
AcDbPolyline
 90
        7
 70
   128
 43
0.0
 10
1.989745746275751
 20
30.61378856221542
 10
1.986735540910736
 20
30.61378856221542
 10
1.926531433610414
 20
30.61378856221542
 10
1.926531433610414
 20
30.55358445491509
 10
1.926531433610414
 20
30.49338034761477
 10
1.986735540910736
 20
30.49338034761477
 10
1.989745746275751
 20
30.49338034761477
  0
LWPOLYLINE
  5
D7
100
AcDbEntity
  8
USP-GEO
100
AcDbPolyline
 90
       16
 70
   128
 43
0.0
 10
2.531582711978678
 20
28.98526745974162
 10
2.528572506613663
 20
28.98526745974162
 10
2.408164292013012
 20
28.98526745974162
 10
2.528572506613663
 20
28.98526745974162
 10
2.588776613913992
 20
28.98526745974162
 10
2.588776613913992
 20
29.04547156704195
 10
2.588776613913992
 20
29.10567567434227
 10
2.528572506613663
 20
29.10567567434227
 10
2.528572506613663
 20
29.1658797816426
 10
2.408164292013012
 20
29.1658797816426
 10
2.408164292013012
 20
29.10567567434227
 10
2.34796018471269
 20
29.10567567434227
 10
2.34796018471269
 20
29.04547156704195
 10
2.34796018471269
 20
28.98526745974162
 10
2.408164292013012
 20
28.98526745974162
 10
2.411174497378027
 20
28.98526745974162
  0
LWPOLYLINE
  5
D8
100
AcDbEntity
  8
USP-GEO
100
AcDbPolyline
 90
        2
 70
   128
 43
0.0
 10
2.408164292013012
 20
29.1658797816426
 10
2.528572506613663
 20
29.1658797816426
  0
LWPOLYLINE
  5
D9
100
AcDbEntity
  8
USP-GEO
100
AcDbPolyline
 90
       16
 70
   128
 43
0.0
 10
2.110153960876402
 20
33.62700413259671
 10
2.107143755511387
 20
33.62700413259671
 10
1.986735540910736
 20
33.62700413259671
 10
2.107143755511387
 20
33.62700413259671
 10
2.167347862811709
 20
33.62700413259671
 10
2.167347862811709
 20
33.56680002529638
 10
2.167347862811709
 20
33.50659591799606
 10
2.107143755511387
 20
33.50659591799606
 10
2.107143755511387
 20
33.44639181069573
 10
1.986735540910736
 20
33.44639181069573
 10
1.986735540910736
 20
33.50659591799606
 10
1.926531433610414
 20
33.50659591799606
 10
1.926531433610414
 20
33.56680002529638
 10
1.926531433610414
 20
33.62700413259671
 10
1.986735540910736
 20
33.62700413259671
 10
1.989745746275751
 20
33.62700413259671
  0
LWPOLYLINE
  5
DA
100
AcDbEntity
  8
USP-GEO
100
AcDbPolyline
 90
        2
 70
   128
 43
0.0
 10
2.107143755511387
 20
33.44639181069573
 10
1.986735540910736
 20
33.44639181069573
  0
LWPOLYLINE
  5
DB
100
AcDbEntity
  8
USP-GEO
100
AcDbPolyline
 90
       16
 70
   128
 43
0.0
 10
2.531582711978678
 20
32.11889124472355
 10
2.528572506613663
 20
32.11889124472355
 10
2.408164292013012
 20
32.11889124472355
 10
2.528572506613663
 20
32.11889124472355
 10
2.588776613913992
 20
32.11889124472355
 10
2.588776613913992
 20
32.05868713742323
 10
2.588776613913992
 20
31.99848303012291
 10
2.528572506613663
 20
31.99848303012291
 10
2.528572506613663
 20
31.93827892282258
 10
2.408164292013012
 20
31.93827892282258
 10
2.408164292013012
 20
31.99848303012291
 10
2.34796018471269
 20
31.99848303012291
 10
2.34796018471269
 20
32.05868713742323
 10
2.34796018471269
 20
32.11889124472355
 10
2.408164292013012
 20
32.11889124472355
 10
2.411174497378027
 20
32.11889124472355
  0
LWPOLYLINE
  5
DC
100
AcDbEntity
  8
USP-GEO
100
AcDbPolyline
 90
        2
 70
   128
 43
0.0
 10
2.528572506613663
 20
31.93827892282258
 10
2.408164292013012
 20
31.93827892282258
  0
LWPOLYLINE
  5
DD
100
AcDbEntity
  8
USP-GEO
100
AcDbPolyline
 90
       13
 70
   128
 43
0.0
 10
2.531582711978678
 20
35.13210681510484
 10
2.528572506613663
 20
35.13210681510484
 10
2.408164292013012
 20
35.13210681510484
 10
2.528572506613663
 20
35.13210681510484
 10
2.588776613913992
 20
35.07190270780451
 10
2.588776613913992
 20
35.01169860050419
 10
2.528572506613663
 20
35.01169860050419
 10
2.528572506613663
 20
34.95149449320386
 10
2.408164292013012
 20
34.95149449320386
 10
2.408164292013012
 20
35.01169860050419
 10
2.34796018471269
 20
35.01169860050419
 10
2.34796018471269
 20
35.07190270780451
 10
2.350970390077705
 20
35.07190270780451
  0
LWPOLYLINE
  5
DE
100
AcDbEntity
  8
USP-GEO
100
AcDbPolyline
 90
        3
 70
   128
 43
0.0
 10
2.34796018471269
 20
35.07190270780451
 10
2.408164292013012
 20
35.13210681510484
 10
2.411174497378027
 20
35.13210681510484
  0
LWPOLYLINE
  5
DF
100
AcDbEntity
  8
USP-GEO
100
AcDbPolyline
 90
        2
 70
   128
 43
0.0
 10
2.588776613913992
 20
35.07190270780451
 10
2.591786819279008
 20
35.07190270780451
  0
LWPOLYLINE
  5
E0
100
AcDbEntity
  8
USP-GEO
100
AcDbPolyline
 90
        2
 70
   128
 43
0.0
 10
2.528572506613663
 20
34.95149449320386
 10
2.408164292013012
 20
34.95149449320386
  0
LWPOLYLINE
  5
E1
100
AcDbEntity
  8
USP-GEO
100
AcDbPolyline
 90
        6
 70
   128
 43
0.0
 10
2.411174497378027
 20
41.1585379558674
 10
2.408164292013012
 20
41.1585379558674
 10
2.34796018471269
 20
41.09833384856708
 10
2.34796018471269
 20
41.03812974126675
 10
2.408164292013012
 20
40.97792563396643
 10
2.411174497378027
 20
40.97792563396643
  0
LWPOLYLINE
  5
E2
100
AcDbEntity
  8
USP-GEO
100
AcDbPolyline
 90
       10
 70
   128
 43
0.0
 10
2.531582711978678
 20
41.1585379558674
 10
2.528572506613663
 20
41.1585379558674
 10
2.408164292013012
 20
41.1585379558674
 10
2.528572506613663
 20
41.1585379558674
 10
2.588776613913992
 20
41.09833384856708
 10
2.588776613913992
 20
41.03812974126675
 10
2.528572506613663
 20
40.97792563396643
 10
2.408164292013012
 20
40.97792563396643
 10
2.528572506613663
 20
40.97792563396643
 10
2.531582711978678
 20
40.97792563396643
  0
LWPOLYLINE
  5
E3
100
AcDbEntity
  8
USP-GEO
100
AcDbPolyline
 90
       10
 70
   128
 43
0.0
 10
2.110153960876402
 20
36.64021970297798
 10
2.107143755511387
 20
36.64021970297798
 10
1.986735540910736
 20
36.64021970297798
 10
2.107143755511387
 20
36.64021970297798
 10
2.167347862811709
 20
36.58001559567766
 10
2.167347862811709
 20
36.51981148837734
 10
2.107143755511387
 20
36.45659717571199
 10
1.986735540910736
 20
36.45659717571199
 10
2.107143755511387
 20
36.45659717571199
 10
2.110153960876402
 20
36.45659717571199
  0
LWPOLYLINE
  5
E4
100
AcDbEntity
  8
USP-GEO
100
AcDbPolyline
 90
       10
 70
   128
 43
0.0
 10
2.110153960876402
 20
39.65042506799425
 10
2.107143755511387
 20
39.65042506799425
 10
1.986735540910736
 20
39.65042506799425
 10
2.107143755511387
 20
39.65042506799425
 10
2.167347862811709
 20
39.59022096069393
 10
2.167347862811709
 20
39.5300168533936
 10
2.107143755511387
 20
39.46981274609328
 10
1.986735540910736
 20
39.46981274609328
 10
2.107143755511387
 20
39.46981274609328
 10
2.110153960876402
 20
39.46981274609328
  0
LWPOLYLINE
  5
E5
100
AcDbEntity
  8
USP-GEO
100
AcDbPolyline
 90
        5
 70
   128
 43
0.0
 10
1.989745746275751
 20
36.45659717571199
 10
1.986735540910736
 20
36.45659717571199
 10
1.926531433610414
 20
36.51981148837734
 10
1.926531433610414
 20
36.58001559567766
 10
1.929541638975429
 20
36.58001559567766
  0
LWPOLYLINE
  5
E6
100
AcDbEntity
  8
USP-GEO
100
AcDbPolyline
 90
        3
 70
   128
 43
0.0
 10
1.926531433610414
 20
36.58001559567766
 10
1.986735540910736
 20
36.64021970297798
 10
1.989745746275751
 20
36.64021970297798
  0
LWPOLYLINE
  5
E7
100
AcDbEntity
  8
USP-GEO
100
AcDbPolyline
 90
        6
 70
   128
 43
0.0
 10
1.989745746275751
 20
39.65042506799425
 10
1.986735540910736
 20
39.65042506799425
 10
1.926531433610414
 20
39.59022096069393
 10
1.926531433610414
 20
39.5300168533936
 10
1.986735540910736
 20
39.46981274609328
 10
1.989745746275751
 20
39.46981274609328
  0
LWPOLYLINE
  5
E8
100
AcDbEntity
  8
USP-GEO
100
AcDbPolyline
 90
        2
 70
   128
 43
0.0
 10
2.167347862811709
 20
36.58001559567766
 10
2.170358068176732
 20
36.58001559567766
  0
LWPOLYLINE
  5
E9
100
AcDbEntity
  8
USP-GEO
100
AcDbPolyline
 90
        5
 70
   128
 43
0.0
 10
2.411174497378027
 20
37.96471006358514
 10
2.408164292013012
 20
37.96471006358514
 10
2.34796018471269
 20
38.02491417088547
 10
2.34796018471269
 20
38.0851182781858
 10
2.350970390077705
 20
38.0851182781858
  0
LWPOLYLINE
  5
EA
100
AcDbEntity
  8
USP-GEO
100
AcDbPolyline
 90
        3
 70
   128
 43
0.0
 10
2.34796018471269
 20
38.0851182781858
 10
2.408164292013012
 20
38.14532238548612
 10
2.411174497378027
 20
38.14532238548612
  0
LWPOLYLINE
  5
EB
100
AcDbEntity
  8
USP-GEO
100
AcDbPolyline
 90
       10
 70
   128
 43
0.0
 10
2.531582711978678
 20
38.14532238548612
 10
2.528572506613663
 20
38.14532238548612
 10
2.408164292013012
 20
38.14532238548612
 10
2.528572506613663
 20
38.14532238548612
 10
2.588776613913992
 20
38.0851182781858
 10
2.588776613913992
 20
38.02491417088547
 10
2.528572506613663
 20
37.96471006358514
 10
2.408164292013012
 20
37.96471006358514
 10
2.528572506613663
 20
37.96471006358514
 10
2.531582711978678
 20
37.96471006358514
  0
LWPOLYLINE
  5
EC
100
AcDbEntity
  8
USP-GEO
100
AcDbPolyline
 90
        2
 70
   128
 43
0.0
 10
2.588776613913992
 20
38.0851182781858
 10
2.591786819279008
 20
38.0851182781858
  0
LWPOLYLINE
  5
ED
100
AcDbEntity
  8
USP-GEO
100
AcDbPolyline
 90
       16
 70
   128
 43
0.0
 10
2.110153960876402
 20
45.49624388685584
 10
2.107143755511387
 20
45.49624388685584
 10
1.986735540910736
 20
45.49624388685584
 10
2.107143755511387
 20
45.49624388685584
 10
2.167347862811709
 20
45.49624388685584
 10
2.167347862811709
 20
45.55644799415617
 10
2.167347862811709
 20
45.61665210145649
 10
2.107143755511387
 20
45.61665210145649
 10
2.107143755511387
 20
45.67685620875681
 10
1.986735540910736
 20
45.67685620875681
 10
1.986735540910736
 20
45.61665210145649
 10
1.926531433610414
 20
45.61665210145649
 10
1.926531433610414
 20
45.55644799415617
 10
1.926531433610414
 20
45.49624388685584
 10
1.986735540910736
 20
45.49624388685584
 10
1.989745746275751
 20
45.49624388685584
  0
LWPOLYLINE
  5
EE
100
AcDbEntity
  8
USP-GEO
100
AcDbPolyline
 90
       10
 70
   128
 43
0.0
 10
2.110153960876402
 20
42.66364063837554
 10
2.107143755511387
 20
42.66364063837554
 10
1.986735540910736
 20
42.66364063837554
 10
2.107143755511387
 20
42.66364063837554
 10
2.167347862811709
 20
42.60343653107521
 10
2.167347862811709
 20
42.54323242377489
 10
2.107143755511387
 20
42.48302831647456
 10
1.986735540910736
 20
42.48302831647456
 10
2.107143755511387
 20
42.48302831647456
 10
2.110153960876402
 20
42.48302831647456
  0
LWPOLYLINE
  5
EF
100
AcDbEntity
  8
USP-GEO
100
AcDbPolyline
 90
        6
 70
   128
 43
0.0
 10
1.989745746275751
 20
42.66364063837554
 10
1.986735540910736
 20
42.66364063837554
 10
1.926531433610414
 20
42.60343653107521
 10
1.926531433610414
 20
42.54323242377489
 10
1.986735540910736
 20
42.48302831647456
 10
1.989745746275751
 20
42.48302831647456
  0
LWPOLYLINE
  5
F0
100
AcDbEntity
  8
USP-GEO
100
AcDbPolyline
 90
        2
 70
   128
 43
0.0
 10
1.986735540910736
 20
45.67685620875681
 10
2.107143755511387
 20
45.67685620875681
  0
LWPOLYLINE
  5
F1
100
AcDbEntity
  8
USP-GEO
100
AcDbPolyline
 90
       13
 70
   128
 43
0.0
 10
2.531582711978678
 20
43.99114120434771
 10
2.528572506613663
 20
43.99114120434771
 10
2.408164292013012
 20
43.99114120434771
 10
2.528572506613663
 20
43.99114120434771
 10
2.588776613913992
 20
44.05134531164804
 10
2.588776613913992
 20
44.11154941894836
 10
2.528572506613663
 20
44.11154941894836
 10
2.528572506613663
 20
44.17175352624869
 10
2.408164292013012
 20
44.17175352624869
 10
2.408164292013012
 20
44.11154941894836
 10
2.34796018471269
 20
44.11154941894836
 10
2.34796018471269
 20
44.05134531164804
 10
2.350970390077705
 20
44.05134531164804
  0
LWPOLYLINE
  5
F2
100
AcDbEntity
  8
USP-GEO
100
AcDbPolyline
 90
        3
 70
   128
 43
0.0
 10
2.34796018471269
 20
44.05134531164804
 10
2.408164292013012
 20
43.99114120434771
 10
2.411174497378027
 20
43.99114120434771
  0
LWPOLYLINE
  5
F3
100
AcDbEntity
  8
USP-GEO
100
AcDbPolyline
 90
        2
 70
   128
 43
0.0
 10
2.408164292013012
 20
44.17175352624869
 10
2.528572506613663
 20
44.17175352624869
  0
ENDBLK
  5
F5
100
AcDbEntity
  8
0
100
AcDbBlockEnd
  0
BLOCK
  5
129
100
AcDbEntity
  8
0
100
AcDbBlockBegin
  2
STAD10RJ_S
 70
     0
 10
0.0
 20
0.0
 30
0.0
  3
STAD10RJ_S
  1

  0
LWPOLYLINE
  5
F8
100
AcDbEntity
  8
USP-GEO
100
AcDbPolyline
 90
       14
 70
   128
 43
0.0
 10
5.060155218592342
 20
45.61665210145649
 10
4.939747003991691
 20
45.61665210145649
 10
4.939747003991691
 20
45.97787674525845
 10
4.939747003991691
 20
45.61665210145649
 10
4.939747003991691
 20
9.882504213348397
 10
4.939747003991691
 20
9.762095998747746
 10
4.879542896691368
 20
9.701891891447424
 10
4.879542896691368
 20
9.581483676846772
 10
4.819338789391039
 20
9.52127956954645
 10
4.759134682090717
 20
9.34066724764547
 10
4.819338789391039
 20
9.52127956954645
 10
4.879542896691368
 20
9.581483676846772
 10
4.879542896691368
 20
9.701891891447424
 10
4.939747003991691
 20
9.762095998747746
  0
LWPOLYLINE
  5
F9
100
AcDbEntity
  8
USP-GEO
100
AcDbPolyline
 90
        7
 70
   128
 43
0.0
 10
4.939747003991691
 20
45.61665210145649
 10
4.939747003991691
 20
9.882504213348397
 10
4.939747003991691
 20
9.762095998747746
 10
5.060155218592342
 20
9.762095998747746
 10
4.939747003991691
 20
9.581483676846772
 10
4.879542896691368
 20
9.461075462246121
 10
4.819338789391039
 20
9.52127956954645
  0
LWPOLYLINE
  5
FA
100
AcDbEntity
  8
USP-GEO
100
AcDbPolyline
 90
       51
 70
   128
 43
0.0
 10
1.685715004409111
 20
0.1806123219009734
 10
1.56530678980846
 20
0.2408164292012955
 10
1.806123219009762
 20
0.1806123219009734
 10
1.685715004409111
 20
0.1806123219009734
 10
1.688725209774126
 20
0.1806123219009734
 10
1.685715004409111
 20
0.1806123219009734
 10
1.806123219009762
 20
0.1806123219009734
 10
1.685715004409111
 20
0.1806123219009734
 10
1.56530678980846
 20
0.2408164292012955
 10
1.50510268250813
 20
0.1204082146006513
 10
1.508112887873153
 20
0.1204082146006513
 10
1.50510268250813
 20
0.1204082146006513
 10
1.56530678980846
 20
0.2408164292012955
 10
1.50510268250813
 20
0.0
 10
0.0
 20
0.6020410730032495
 10
0.0602041073003292
 20
0.7826533949042301
 10
0.1204082146006513
 20
0.9030616095048742
 10
1.50510268250813
 20
0.3612246438019468
 10
1.926531433610414
 20
1.568316995173475
 10
1.986735540910736
 20
1.628521102473797
 10
1.986735540910736
 20
1.748929317074448
 10
1.986735540910736
 20
1.628521102473797
 10
1.926531433610414
 20
1.568316995173475
 10
2.046939648211065
 20
1.508112887873146
 10
1.56530678980846
 20
0.2408164292012955
 10
2.046939648211065
 20
1.508112887873146
 10
2.046939648211065
 20
1.628521102473797
 10
2.107143755511387
 20
1.748929317074448
 10
2.167347862811709
 20
1.8693375316751
 10
2.28775607741236
 20
2.230562175477054
 10
2.28775607741236
 20
2.290766282777376
 10
2.34796018471269
 20
2.350970390077698
 10
2.34796018471269
 20
2.471378604678349
 10
4.698930574790395
 20
8.798830281942542
 10
4.698930574790395
 20
8.859034389242872
 10
4.759134682090717
 20
8.979442603843523
 10
4.759134682090717
 20
9.039646711143845
 10
4.879542896691368
 20
9.400871354945799
 10
4.939747003991691
 20
9.52127956954645
 10
4.99995111129202
 20
9.641687784147094
 10
5.060155218592342
 20
9.762095998747746
 10
5.060155218592342
 20
9.822300106048075
 10
5.060155218592342
 20
45.61665210145649
 10
5.060155218592342
 20
45.97787674525845
 10
4.939747003991691
 20
45.97787674525845
 10
5.060155218592342
 20
45.97787674525845
 10
5.060155218592342
 20
45.61665210145649
 10
5.060155218592342
 20
9.822300106048075
 10
5.060155218592342
 20
9.762095998747746
 10
4.939747003991691
 20
9.581483676846772
 10
4.942757209356706
 20
9.581483676846772
  0
LWPOLYLINE
  5
FB
100
AcDbEntity
  8
USP-GEO
100
AcDbPolyline
 90
       17
 70
   128
 43
0.0
 10
2.227551970112038
 20
1.447908780572824
 10
2.34796018471269
 20
1.688725209774119
 10
2.408164292013012
 20
1.80913342437477
 10
2.408164292013012
 20
1.8693375316751
 10
2.408164292013012
 20
1.80913342437477
 10
2.34796018471269
 20
1.688725209774119
 10
2.227551970112038
 20
1.447908780572824
 10
1.806123219009762
 20
0.1806123219009734
 10
1.56530678980846
 20
0.2408164292012955
 10
0.0602041073003292
 20
0.7826533949042301
 10
0.1204082146006513
 20
0.9030616095048742
 10
1.50510268250813
 20
0.3612246438019468
 10
1.926531433610414
 20
1.568316995173475
 10
1.986735540910736
 20
1.748929317074448
 10
2.046939648211065
 20
1.8693375316751
 10
2.046939648211065
 20
1.929541638975422
 10
2.04994985357608
 20
1.929541638975422
  0
LWPOLYLINE
  5
FC
100
AcDbEntity
  8
USP-GEO
100
AcDbPolyline
 90
        4
 70
   128
 43
0.0
 10
1.926531433610414
 20
2.65199092657933
 10
2.34796018471269
 20
2.471378604678349
 10
4.698930574790395
 20
8.798830281942542
 10
4.214287511022774
 20
8.979442603843523
  0
LWPOLYLINE
  5
FD
100
AcDbEntity
  8
USP-GEO
100
AcDbPolyline
 90
        7
 70
   128
 43
0.0
 10
2.107143755511387
 20
1.80913342437477
 10
2.046939648211065
 20
1.80913342437477
 10
2.107143755511387
 20
1.989745746275751
 10
2.046939648211065
 20
1.80913342437477
 10
1.986735540910736
 20
1.748929317074448
 10
2.046939648211065
 20
1.8693375316751
 10
2.046939648211065
 20
1.929541638975422
  0
LWPOLYLINE
  5
FE
100
AcDbEntity
  8
USP-GEO
100
AcDbPolyline
 90
        6
 70
   128
 43
0.0
 10
1.806123219009762
 20
0.1806123219009734
 10
2.227551970112038
 20
1.447908780572824
 10
2.046939648211065
 20
1.508112887873146
 10
2.046939648211065
 20
1.688725209774119
 10
2.107143755511387
 20
1.80913342437477
 10
2.107143755511387
 20
1.929541638975422
  0
LWPOLYLINE
  5
FF
100
AcDbEntity
  8
USP-GEO
100
AcDbPolyline
 90
        3
 70
   128
 43
0.0
 10
1.926531433610414
 20
1.568316995173475
 10
1.986735540910736
 20
1.748929317074448
 10
2.046939648211065
 20
1.80913342437477
  0
LWPOLYLINE
  5
100
100
AcDbEntity
  8
USP-GEO
100
AcDbPolyline
 90
        2
 70
   129
 43
0.0
 10
1.926531433610414
 20
2.65199092657933
 10
4.214287511022774
 20
8.979442603843523
  0
LWPOLYLINE
  5
101
100
AcDbEntity
  8
USP-GEO
100
AcDbPolyline
 90
        6
 70
   128
 43
0.0
 10
1.986735540910736
 20
2.471378604678349
 10
1.926531433610414
 20
2.65199092657933
 10
1.986735540910736
 20
2.471378604678349
 10
2.046939648211065
 20
2.290766282777376
 10
2.28775607741236
 20
2.230562175477054
 10
2.167347862811709
 20
1.8693375316751
  0
TEXT
  5
102
100
AcDbEntity
  8
USP-TXT
100
AcDbText
 10
-2.990129519990057
 20
-3.256426743371065
 30
0.0
 40
0.5
  1
STAD10RJ - SIDE VIEW
 72
     1
 11
1.801537146676608
 21
-3.256426743371065
 31
0.0
100
AcDbText
  0
LWPOLYLINE
  5
103
100
AcDbEntity
  8
USP-GEO
100
AcDbPolyline
 90
        4
 70
   129
 43
0.0
 10
1.56530678980846
 20
0.2408164292012955
 10
1.50510268250813
 20
0.0
 10
0.0
 20
0.6020410730032495
 10
0.0602041073003292
 20
0.7826533949042301
  0
LWPOLYLINE
  5
104
100
AcDbEntity
  8
USP-GEO
100
AcDbPolyline
 90
        6
 70
   128
 43
0.0
 10
2.046939648211065
 20
2.411174497378027
 10
2.046939648211065
 20
2.290766282777376
 10
2.107143755511387
 20
2.170358068176724
 10
2.107143755511387
 20
1.989745746275751
 10
2.107143755511387
 20
2.170358068176724
 10
2.107143755511387
 20
1.8693375316751
  0
LWPOLYLINE
  5
105
100
AcDbEntity
  8
USP-GEO
100
AcDbPolyline
 90
        2
 70
   128
 43
0.0
 10
2.408164292013012
 20
1.8693375316751
 10
2.167347862811709
 20
1.989745746275751
  0
LWPOLYLINE
  5
106
100
AcDbEntity
  8
USP-GEO
100
AcDbPolyline
 90
        2
 70
   129
 43
0.0
 10
2.167347862811709
 20
1.929541638975422
 10
2.167347862811709
 20
1.989745746275751
  0
LWPOLYLINE
  5
107
100
AcDbEntity
  8
USP-GEO
100
AcDbPolyline
 90
       11
 70
   128
 43
0.0
 10
2.04994985357608
 20
1.688725209774119
 10
2.046939648211065
 20
1.688725209774119
 10
2.046939648211065
 20
1.508112887873146
 10
2.046939648211065
 20
1.628521102473797
 10
2.107143755511387
 20
1.748929317074448
 10
2.167347862811709
 20
1.8693375316751
 10
2.107143755511387
 20
1.8693375316751
 10
2.046939648211065
 20
1.688725209774119
 10
2.107143755511387
 20
1.80913342437477
 10
2.107143755511387
 20
1.8693375316751
 10
2.107143755511387
 20
1.989745746275751
  0
LWPOLYLINE
  5
108
100
AcDbEntity
  8
USP-GEO
100
AcDbPolyline
 90
        4
 70
   128
 43
0.0
 10
2.28775607741236
 20
2.230562175477054
 10
2.28775607741236
 20
2.290766282777376
 10
2.34796018471269
 20
2.350970390077698
 10
2.34796018471269
 20
2.471378604678349
  0
LWPOLYLINE
  5
109
100
AcDbEntity
  8
USP-GEO
100
AcDbPolyline
 90
        6
 70
   128
 43
0.0
 10
3.13061357961692
 20
6.08663524806289
 10
3.07040947231659
 20
6.026431140762561
 10
3.010205365016268
 20
5.966227033462239
 10
3.010205365016268
 20
5.906022926161909
 10
2.950001257715939
 20
5.725410604260936
 10
3.010205365016268
 20
5.665206496960607
  0
LWPOLYLINE
  5
10A
100
AcDbEntity
  8
USP-GEO
100
AcDbPolyline
 90
        2
 70
   128
 43
0.0
 10
2.950001257715939
 20
5.725410604260936
 10
2.950001257715939
 20
5.544798282359963
  0
LWPOLYLINE
  5
10B
100
AcDbEntity
  8
USP-GEO
100
AcDbPolyline
 90
        3
 70
   128
 43
0.0
 10
2.468368399313341
 20
4.157093609087461
 10
2.408164292013012
 20
4.21729771638779
 10
2.468368399313341
 20
4.21729771638779
  0
LWPOLYLINE
  5
10C
100
AcDbEntity
  8
USP-GEO
100
AcDbPolyline
 90
        6
 70
   128
 43
0.0
 10
2.408164292013012
 20
4.21729771638779
 10
2.34796018471269
 20
4.157093609087461
 10
2.28775607741236
 20
4.096889501787138
 10
2.28775607741236
 20
4.036685394486809
 10
2.28775607741236
 20
3.795868965285507
 10
2.34796018471269
 20
3.795868965285507
  0
LWPOLYLINE
  5
10D
100
AcDbEntity
  8
USP-GEO
100
AcDbPolyline
 90
        3
 70
   128
 43
0.0
 10
2.408164292013012
 20
4.036685394486809
 10
2.34796018471269
 20
4.036685394486809
 10
2.28775607741236
 20
4.036685394486809
  0
LWPOLYLINE
  5
10E
100
AcDbEntity
  8
USP-GEO
100
AcDbPolyline
 90
        2
 70
   128
 43
0.0
 10
2.28775607741236
 20
3.795868965285507
 10
2.28775607741236
 20
3.675460750684855
  0
LWPOLYLINE
  5
10F
100
AcDbEntity
  8
USP-GEO
100
AcDbPolyline
 90
        2
 70
   128
 43
0.0
 10
2.829593043115288
 20
3.675460750684855
 10
2.83260324848031
 20
3.675460750684855
  0
LWPOLYLINE
  5
110
100
AcDbEntity
  8
USP-GEO
100
AcDbPolyline
 90
        4
 70
   129
 43
0.0
 10
2.829593043115288
 20
3.675460750684855
 10
2.829593043115288
 20
3.735664857985184
 10
2.829593043115288
 20
3.675460750684855
 10
2.829593043115288
 20
3.615256643384533
  0
LWPOLYLINE
  5
111
100
AcDbEntity
  8
USP-GEO
100
AcDbPolyline
 90
        2
 70
   129
 43
0.0
 10
3.374440214183238
 20
5.243777745858331
 10
3.371430008818215
 20
5.243777745858331
  0
LWPOLYLINE
  5
112
100
AcDbEntity
  8
USP-GEO
100
AcDbPolyline
 90
        2
 70
   128
 43
0.0
 10
3.371430008818215
 20
5.243777745858331
 10
3.374440214183238
 20
5.243777745858331
  0
LWPOLYLINE
  5
113
100
AcDbEntity
  8
USP-GEO
100
AcDbPolyline
 90
        3
 70
   128
 43
0.0
 10
3.190817686917242
 20
6.08663524806289
 10
3.13061357961692
 20
6.08663524806289
 10
3.133623784981935
 20
6.08663524806289
  0
LWPOLYLINE
  5
114
100
AcDbEntity
  8
USP-GEO
100
AcDbPolyline
 90
        3
 70
   128
 43
0.0
 10
3.010205365016268
 20
5.906022926161909
 10
3.07040947231659
 20
5.906022926161909
 10
3.073419677681606
 20
5.906022926161909
  0
LWPOLYLINE
  5
115
100
AcDbEntity
  8
USP-GEO
100
AcDbPolyline
 90
        2
 70
   129
 43
0.0
 10
3.615256643384533
 20
5.845818818861587
 10
3.612246438019518
 20
5.845818818861587
  0
LWPOLYLINE
  5
116
100
AcDbEntity
  8
USP-GEO
100
AcDbPolyline
 90
        2
 70
   129
 43
0.0
 10
3.615256643384533
 20
5.845818818861587
 10
3.612246438019518
 20
5.845818818861587
  0
LWPOLYLINE
  5
117
100
AcDbEntity
  8
USP-GEO
100
AcDbPolyline
 90
        5
 70
   128
 43
0.0
 10
3.792858759920498
 20
7.95597277973799
 10
3.732654652620169
 20
7.95597277973799
 10
3.672450545319847
 20
7.835564565137339
 10
3.672450545319847
 20
7.591737930571021
 10
3.672450545319847
 20
7.531533823270699
  0
LWPOLYLINE
  5
118
100
AcDbEntity
  8
USP-GEO
100
AcDbPolyline
 90
        3
 70
   128
 43
0.0
 10
3.792858759920498
 20
7.77536045783701
 10
3.732654652620169
 20
7.77536045783701
 10
3.672450545319847
 20
7.835564565137339
  0
LWPOLYLINE
  5
119
100
AcDbEntity
  8
USP-GEO
100
AcDbPolyline
 90
        2
 70
   128
 43
0.0
 10
3.672450545319847
 20
7.591737930571021
 10
3.672450545319847
 20
7.411125608670047
  0
LWPOLYLINE
  5
11A
100
AcDbEntity
  8
USP-GEO
100
AcDbPolyline
 90
        2
 70
   129
 43
0.0
 10
3.792858759920498
 20
7.95597277973799
 10
3.85306286722082
 20
7.95597277973799
  0
LWPOLYLINE
  5
11B
100
AcDbEntity
  8
USP-GEO
100
AcDbPolyline
 90
        2
 70
   128
 43
0.0
 10
4.093879296422123
 20
7.110105072168416
 10
4.096889501787138
 20
7.110105072168416
  0
LWPOLYLINE
  5
11C
100
AcDbEntity
  8
USP-GEO
100
AcDbPolyline
 90
        2
 70
   129
 43
0.0
 10
4.093879296422123
 20
7.170309179468745
 10
4.093879296422123
 20
7.110105072168416
  0
LWPOLYLINE
  5
11D
100
AcDbEntity
  8
USP-GEO
100
AcDbPolyline
 90
        2
 70
   129
 43
0.0
 10
4.277501823688112
 20
7.651942037871343
 10
4.274491618323096
 20
7.651942037871343
  0
LWPOLYLINE
  5
11E
100
AcDbEntity
  8
USP-GEO
100
AcDbPolyline
 90
        2
 70
   129
 43
0.0
 10
4.337705930988441
 20
7.835564565137339
 10
4.334695725623426
 20
7.835564565137339
  0
LWPOLYLINE
  5
11F
100
AcDbEntity
  8
USP-GEO
100
AcDbPolyline
 90
        2
 70
   129
 43
0.0
 10
4.337705930988441
 20
7.835564565137339
 10
4.334695725623426
 20
7.835564565137339
  0
LWPOLYLINE
  5
120
100
AcDbEntity
  8
USP-GEO
100
AcDbPolyline
 90
        2
 70
   129
 43
0.0
 10
4.274491618323096
 20
7.651942037871343
 10
4.214287511022774
 20
7.591737930571021
  0
LWPOLYLINE
  5
121
100
AcDbEntity
  8
USP-GEO
100
AcDbPolyline
 90
        6
 70
   128
 43
0.0
 10
4.759134682090717
 20
9.039646711143845
 10
4.879542896691368
 20
9.400871354945799
 10
4.819338789391039
 20
9.400871354945799
 10
4.759134682090717
 20
9.34066724764547
 10
4.638726467490066
 20
9.220259033044818
 10
4.518318252889415
 20
9.099850818444167
  0
LWPOLYLINE
  5
122
100
AcDbEntity
  8
USP-GEO
100
AcDbPolyline
 90
        2
 70
   128
 43
0.0
 10
4.879542896691368
 20
9.461075462246121
 10
4.759134682090717
 20
9.34066724764547
  0
LWPOLYLINE
  5
123
100
AcDbEntity
  8
USP-GEO
100
AcDbPolyline
 90
        3
 70
   129
 43
0.0
 10
4.819338789391039
 20
9.400871354945799
 10
4.879542896691368
 20
9.461075462246121
 10
4.939747003991691
 20
9.581483676846772
  0
LWPOLYLINE
  5
124
100
AcDbEntity
  8
USP-GEO
100
AcDbPolyline
 90
        7
 70
   128
 43
0.0
 10
4.698930574790395
 20
8.798830281942542
 10
4.698930574790395
 20
8.859034389242872
 10
4.759134682090717
 20
8.979442603843523
 10
4.759134682090717
 20
9.039646711143845
 10
4.518318252889415
 20
9.099850818444167
 10
4.397910038288763
 20
9.039646711143845
 10
4.214287511022774
 20
8.979442603843523
  0
LWPOLYLINE
  5
125
100
AcDbEntity
  8
USP-GEO
100
AcDbPolyline
 90
        2
 70
   129
 43
0.0
 10
4.214287511022774
 20
8.979442603843523
 10
4.397910038288763
 20
9.039646711143845
  0
LWPOLYLINE
  5
126
100
AcDbEntity
  8
USP-GEO
100
AcDbPolyline
 90
        2
 70
   128
 43
0.0
 10
4.819338789391039
 20
9.400871354945799
 10
4.638726467490066
 20
9.220259033044818
  0
LWPOLYLINE
  5
127
100
AcDbEntity
  8
USP-GEO
100
AcDbPolyline
 90
        2
 70
   128
 43
0.0
 10
4.578522360189744
 20
9.160054925744496
 10
4.458114145589092
 20
9.099850818444167
  0
LWPOLYLINE
  5
128
100
AcDbEntity
  8
USP-GEO
100
AcDbPolyline
 90
        4
 70
   128
 43
0.0
 10
4.879542896691368
 20
9.400871354945799
 10
4.939747003991691
 20
9.52127956954645
 10
4.99995111129202
 20
9.641687784147094
 10
5.060155218592342
 20
9.762095998747746
  0
ENDBLK
  5
12A
100
AcDbEntity
  8
0
100
AcDbBlockEnd
  0
ENDSEC
  0
SECTION
  2
ENTITIES
  0
INSERT
  5
3
100
AcDbEntity
  8
USP
100
AcDbBlockReference
  2
STAD10RJ_T
 10
3.400301751245109
 20
55.32296722094486
 30
0.0
  0
INSERT
  5
52
100
AcDbEntity
  8
USP
100
AcDbBlockReference
  2
STAD10RJ_F
 10
3.400301751245109
 20
3.258455227623528
 30
0.0
  0
INSERT
  5
F6
100
AcDbEntity
  8
USP
100
AcDbBlockReference
  2
STAD10RJ_S
 10
17.85831811941823
 20
3.258455227623528
 30
0.0
  0
ENDSEC
  0
SECTION
  2
OBJECTS
  0
DICTIONARY
  5
143
102
{ACAD_XDICTIONARY
360
144
102
}
100
AcDbDictionary
  3
ACAD_GROUP
350
141
  3
ACAD_MLINESTYLE
350
142
  0
DICTIONARY
  5
E
100
AcDbDictionary
280
     1
  3
ACAD_XREC_ROUNDTRIP
360
F
  0
DICTIONARY
  5
9
100
AcDbDictionary
280
     1
  3
ACAD_XREC_ROUNDTRIP
360
A
  0
DICTIONARY
  5
12B
100
AcDbDictionary
280
     1
  3
ACAD_LAYOUTSELFREF
360
12C
  0
DICTIONARY
  5
130
100
AcDbDictionary
280
     1
  3
ACAD_LAYOUTSELFREF
360
131
  0
DICTIONARY
  5
144
100
AcDbDictionary
280
     1
  3
ACAD_XREC_ROUNDTRIP
360
145
  0
DICTIONARY
  5
141
102
{ACAD_REACTORS
330
143
102
}
100
AcDbDictionary
  0
DICTIONARY
  5
142
102
{ACAD_REACTORS
330
143
102
}
100
AcDbDictionary
  3
STANDARD
350
146
  0
XRECORD
  5
F
102
{ACAD_REACTORS
330
E
102
}
100
AcDbXrecord
102
EXTNAMES
  1
USP-GEO
  2
USP-Geo
  0
XRECORD
  5
A
102
{ACAD_REACTORS
330
9
102
}
100
AcDbXrecord
102
EXTNAMES
  1
USP-TXT
  2
USP-Txt
  0
XRECORD
  5
12C
102
{ACAD_REACTORS
330
12B
102
}
100
AcDbXrecord
340
18
  0
XRECORD
  5
131
102
{ACAD_REACTORS
330
130
102
}
100
AcDbXrecord
340
15
  0
XRECORD
  5
145
102
{ACAD_REACTORS
330
144
102
}
100
AcDbXrecord
102
EXTNAMES
  1
ACDBVARIABLEDICTIONARY
  2
AcDbVariableDictionary
  0
MLINESTYLE
  5
146
102
{ACAD_REACTORS
330
142
102
}
100
AcDbMlineStyle
  2
STANDARD
 70
     0
  3

 62
     0
 51
90.0
 52
90.0
 71
     2
 49
0.5
 62
   256
  6
BYLAYER
 49
-0.5
 62
   256
  6
BYLAYER
  0
ENDSEC
  0
EOF
