  0
SECTION
  2
HEADER
  9
$ACADVER
  1
AC1014
  9
$ACADMAINTVER
 70
     9
  9
$DWGCODEPAGE
  3
ANSI_1252
  9
$INSBASE
 10
0.0
 20
0.0
 30
0.0
  9
$EXTMIN
 10
-0.28222506402484
 20
0.0014043518156122
 30
0.0
  9
$EXTMAX
 10
16.41300052368503
 20
46.02353720407691
 30
4.196879291630274
  9
$LIMMIN
 10
0.0
 20
0.0
  9
$LIMMAX
 10
12.0
 20
9.0
  9
$ORTHOMODE
 70
     1
  9
$REGENMODE
 70
     1
  9
$FILLMODE
 70
     1
  9
$QTEXTMODE
 70
     0
  9
$MIRRTEXT
 70
     0
  9
$DRAGMODE
 70
     2
  9
$LTSCALE
 40
1.5
  9
$OSMODE
 70
     0
  9
$ATTMODE
 70
     1
  9
$TEXTSIZE
 40
0.75
  9
$TRACEWID
 40
0.05
  9
$TEXTSTYLE
  7
STANDARD
  9
$CLAYER
  8
USP
  9
$CELTYPE
  6
BYLAYER
  9
$CECOLOR
 62
   256
  9
$CELTSCALE
 40
1.0
  9
$DELOBJ
 70
     1
  9
$DISPSILH
 70
     1
  9
$DIMSCALE
 40
3.0
  9
$DIMASZ
 40
0.125
  9
$DIMEXO
 40
0.0625
  9
$DIMDLI
 40
0.37890625
  9
$DIMRND
 40
0.0
  9
$DIMDLE
 40
0.0
  9
$DIMEXE
 40
0.09375
  9
$DIMTP
 40
0.0
  9
$DIMTM
 40
0.0
  9
$DIMTXT
 40
0.109375
  9
$DIMCEN
 40
0.0
  9
$DIMTSZ
 40
0.0
  9
$DIMTOL
 70
     0
  9
$DIMLIM
 70
     0
  9
$DIMTIH
 70
     1
  9
$DIMTOH
 70
     1
  9
$DIMSE1
 70
     0
  9
$DIMSE2
 70
     0
  9
$DIMTAD
 70
     0
  9
$DIMZIN
 70
     8
  9
$DIMBLK
  1

  9
$DIMASO
 70
     1
  9
$DIMSHO
 70
     1
  9
$DIMPOST
  1

  9
$DIMAPOST
  1

  9
$DIMALT
 70
     0
  9
$DIMALTD
 70
     2
  9
$DIMALTF
 40
25.4
  9
$DIMLFAC
 40
1.0
  9
$DIMTOFL
 70
     0
  9
$DIMTVP
 40
0.0
  9
$DIMTIX
 70
     0
  9
$DIMSOXD
 70
     0
  9
$DIMSAH
 70
     0
  9
$DIMBLK1
  1

  9
$DIMBLK2
  1

  9
$DIMSTYLE
  2
STANDARD
  9
$DIMCLRD
 70
     0
  9
$DIMCLRE
 70
     0
  9
$DIMCLRT
 70
   256
  9
$DIMTFAC
 40
1.0
  9
$DIMGAP
 40
0.08984375
  9
$DIMJUST
 70
     0
  9
$DIMSD1
 70
     0
  9
$DIMSD2
 70
     0
  9
$DIMTOLJ
 70
     1
  9
$DIMTZIN
 70
     0
  9
$DIMALTZ
 70
     0
  9
$DIMALTTZ
 70
     0
  9
$DIMFIT
 70
     3
  9
$DIMUPT
 70
     1
  9
$DIMUNIT
 70
     7
  9
$DIMDEC
 70
     4
  9
$DIMTDEC
 70
     4
  9
$DIMALTU
 70
     2
  9
$DIMALTTD
 70
     2
  9
$DIMTXSTY
  7
STANDARD
  9
$DIMAUNIT
 70
     0
  9
$LUNITS
 70
     5
  9
$LUPREC
 70
     6
  9
$SKETCHINC
 40
0.1
  9
$FILLETRAD
 40
0.0
  9
$AUNITS
 70
     0
  9
$AUPREC
 70
     1
  9
$MENU
  1
CUSTOM
  9
$ELEVATION
 40
0.0
  9
$PELEVATION
 40
0.0
  9
$THICKNESS
 40
0.0
  9
$LIMCHECK
 70
     0
  9
$BLIPMODE
 70
     0
  9
$CHAMFERA
 40
0.0
  9
$CHAMFERB
 40
0.0
  9
$CHAMFERC
 40
0.0
  9
$CHAMFERD
 40
0.0
  9
$SKPOLY
 70
     0
  9
$TDCREATE
 40
2451263.663231366
  9
$TDUPDATE
 40
2452768.668333692
  9
$TDINDWG
 40
0.6247921065
  9
$TDUSRTIMER
 40
0.6247921065
  9
$USRTIMER
 70
     1
  9
$ANGBASE
 50
0.0
  9
$ANGDIR
 70
     0
  9
$PDMODE
 70
     0
  9
$PDSIZE
 40
0.0
  9
$PLINEWID
 40
0.0
  9
$COORDS
 70
     2
  9
$SPLFRAME
 70
     0
  9
$SPLINETYPE
 70
     6
  9
$SPLINESEGS
 70
     8
  9
$ATTDIA
 70
     0
  9
$ATTREQ
 70
     0
  9
$HANDLING
 70
     1
  9
$HANDSEED
  5
14C
  9
$SURFTAB1
 70
     6
  9
$SURFTAB2
 70
     6
  9
$SURFTYPE
 70
     6
  9
$SURFU
 70
     6
  9
$SURFV
 70
     6
  9
$UCSNAME
  2

  9
$UCSORG
 10
0.0
 20
0.0
 30
0.0
  9
$UCSXDIR
 10
1.0
 20
0.0
 30
0.0
  9
$UCSYDIR
 10
0.0
 20
1.0
 30
0.0
  9
$PUCSNAME
  2

  9
$PUCSORG
 10
0.0
 20
0.0
 30
0.0
  9
$PUCSXDIR
 10
1.0
 20
0.0
 30
0.0
  9
$PUCSYDIR
 10
0.0
 20
1.0
 30
0.0
  9
$USERI1
 70
     0
  9
$USERI2
 70
     0
  9
$USERI3
 70
     0
  9
$USERI4
 70
     0
  9
$USERI5
 70
     0
  9
$USERR1
 40
0.0
  9
$USERR2
 40
0.0
  9
$USERR3
 40
0.0
  9
$USERR4
 40
0.0
  9
$USERR5
 40
0.0
  9
$WORLDVIEW
 70
     1
  9
$SHADEDGE
 70
     3
  9
$SHADEDIF
 70
    70
  9
$TILEMODE
 70
     1
  9
$MAXACTVP
 70
    16
  9
$PINSBASE
 10
0.0
 20
0.0
 30
0.0
  9
$PLIMCHECK
 70
     0
  9
$PEXTMIN
 10
1.000000000000000E+20
 20
1.000000000000000E+20
 30
1.000000000000000E+20
  9
$PEXTMAX
 10
-1.000000000000000E+20
 20
-1.000000000000000E+20
 30
-1.000000000000000E+20
  9
$PLIMMIN
 10
0.0
 20
0.0
  9
$PLIMMAX
 10
12.0
 20
9.0
  9
$UNITMODE
 70
     0
  9
$VISRETAIN
 70
     0
  9
$PLINEGEN
 70
     0
  9
$PSLTSCALE
 70
     0
  9
$TREEDEPTH
 70
  3020
  9
$PICKSTYLE
 70
     0
  9
$CMLSTYLE
  2
STANDARD
  9
$CMLJUST
 70
     0
  9
$CMLSCALE
 40
1.0
  9
$PROXYGRAPHICS
 70
     1
  9
$MEASUREMENT
 70
     0
  0
ENDSEC
  0
SECTION
  2
CLASSES
  0
CLASS
  1
ACDBDICTIONARYWDFLT
  2
AcDbDictionaryWithDefault
  3
AutoCAD 2000
 90
        0
280
     0
281
     0
  0
CLASS
  1
ACDBPLACEHOLDER
  2
AcDbPlaceHolder
  3
AutoCAD 2000
 90
        0
280
     0
281
     0
  0
CLASS
  1
LAYOUT
  2
AcDbLayout
  3
AutoCAD 2000
 90
        0
280
     0
281
     0
  0
CLASS
  1
DICTIONARYVAR
  2
AcDbDictionaryVar
  3
"AutoCAD"
 90
        0
280
     0
281
     0
  0
CLASS
  1
LONG_TRANSACTION
  2
AcDbLongTransaction
  3
AutoCAD 2000
 90
        0
280
     0
281
     0
  0
CLASS
  1
LWPOLYLINE
  2
AcDbPolyline
  3
"AutoCAD"
 90
        0
280
     0
281
     1
  0
CLASS
  1
HATCH
  2
AcDbHatch
  3
"ACAD_SEDONA"
 90
        0
280
     0
281
     1
  0
CLASS
  1
XRECORD
  2
AcDbXrecord
  3
"<Built In>"
 90
        0
280
     0
281
     0
  0
CLASS
  1
LONG_TRANSACTION
  2
AcDbLongTransaction
  3
AutoCAD 2000
 90
        0
280
     0
281
     0
  0
CLASS
  1
LWPOLYLINE
  2
AcDbPolyline
  3
"AutoCAD"
 90
        0
280
     0
281
     1
  0
CLASS
  1
HATCH
  2
AcDbHatch
  3
"ACAD_SEDONA"
 90
        0
280
     0
281
     1
  0
CLASS
  1
XRECORD
  2
AcDbXrecord
  3
"<Built In>"
 90
        0
280
     0
281
     0
  0
ENDSEC
  0
SECTION
  2
TABLES
  0
TABLE
  2
VPORT
  5
13C
100
AcDbSymbolTable
 70
     1
  0
VPORT
  5
13D
100
AcDbSymbolTableRecord
100
AcDbViewportTableRecord
  2
*ACTIVE
 70
     0
 10
0.0
 20
0.0
 11
1.0
 21
1.0
 12
-7.704845546842449
 22
12.41872658405223
 13
0.0
 23
0.0
 14
1.0
 24
1.0
 15
0.0
 25
0.0
 16
0.0
 26
0.0
 36
1.0
 17
18.06596660309899
 27
8.119903606830565
 37
5.823974399722915
 40
62.62104508381419
 41
1.457627118644067
 42
50.0
 43
10.55307667737539
 44
10.55307667737539
 50
0.0
 51
0.0
 71
     0
 72
   100
 73
     1
 74
     1
 75
     0
 76
     0
 77
     0
 78
     0
  0
ENDTAB
  0
TABLE
  2
LTYPE
  5
137
100
AcDbSymbolTable
 70
     1
  0
LTYPE
  5
138
100
AcDbSymbolTableRecord
100
AcDbLinetypeTableRecord
  2
BYBLOCK
 70
     0
  3

 72
    65
 73
     0
 40
0.0
  0
LTYPE
  5
139
100
AcDbSymbolTableRecord
100
AcDbLinetypeTableRecord
  2
BYLAYER
 70
     0
  3

 72
    65
 73
     0
 40
0.0
  0
LTYPE
  5
5
100
AcDbSymbolTableRecord
100
AcDbLinetypeTableRecord
  2
CONTINUOUS
 70
     0
  3
Solid line
 72
    65
 73
     0
 40
0.0
  0
ENDTAB
  0
TABLE
  2
LAYER
  5
135
100
AcDbSymbolTable
 70
     4
  0
LAYER
  5
52
100
AcDbSymbolTableRecord
100
AcDbLayerTableRecord
  2
0
 70
     0
 62
     7
  6
CONTINUOUS
  0
LAYER
  5
8
102
{ACAD_XDICTIONARY
360
9
102
}
100
AcDbSymbolTableRecord
100
AcDbLayerTableRecord
  2
USP-GEO
 70
     0
 62
     7
  6
CONTINUOUS
  0
LAYER
  5
4D
102
{ACAD_XDICTIONARY
360
4E
102
}
100
AcDbSymbolTableRecord
100
AcDbLayerTableRecord
  2
USP-TXT
 70
     0
 62
     7
  6
CONTINUOUS
  0
LAYER
  5
4
100
AcDbSymbolTableRecord
100
AcDbLayerTableRecord
  2
USP
 70
     0
 62
     7
  6
CONTINUOUS
  0
ENDTAB
  0
TABLE
  2
STYLE
  5
136
100
AcDbSymbolTable
 70
     1
  0
STYLE
  5
50
100
AcDbSymbolTableRecord
100
AcDbTextStyleTableRecord
  2
STANDARD
 70
     0
 40
0.0
 41
1.0
 50
0.0
 71
     0
 42
0.75
  3
txt
  4

  0
ENDTAB
  0
TABLE
  2
VIEW
  5
13A
100
AcDbSymbolTable
 70
     0
  0
ENDTAB
  0
TABLE
  2
UCS
  5
13B
100
AcDbSymbolTable
 70
     0
  0
ENDTAB
  0
TABLE
  2
APPID
  5
13E
100
AcDbSymbolTable
 70
     1
  0
APPID
  5
13F
100
AcDbSymbolTableRecord
100
AcDbRegAppTableRecord
  2
ACAD
 70
     0
  0
ENDTAB
  0
TABLE
  2
DIMSTYLE
  5
140
100
AcDbSymbolTable
 70
     1
  0
DIMSTYLE
105
148
100
AcDbSymbolTableRecord
100
AcDbDimStyleTableRecord
  2
STANDARD
 70
     0
  3

  4

  5

  6

  7

 40
1.0
 41
0.18
 42
0.0625
 43
0.38
 44
0.18
 45
0.0
 46
0.0
 47
0.0
 48
0.0
140
0.18
141
0.09
142
0.0
143
25.4
144
1.0
145
0.0
146
1.0
147
0.09
 71
     0
 72
     0
 73
     1
 74
     1
 75
     0
 76
     0
 77
     0
 78
     0
170
     0
171
     2
172
     0
173
     0
174
     0
175
     0
176
     0
177
     0
178
     0
270
     2
271
     4
272
     4
273
     2
274
     2
340
50
275
     0
280
     0
281
     0
282
     0
283
     1
284
     0
285
     0
286
     0
287
     3
288
     0
  0
ENDTAB
  0
TABLE
  2
BLOCK_RECORD
  5
1
100
AcDbSymbolTable
 70
     3
  0
BLOCK_RECORD
  5
2
102
{ACAD_XDICTIONARY
360
12C
102
}
100
AcDbSymbolTableRecord
100
AcDbBlockTableRecord
  2
*MODEL_SPACE
  0
BLOCK_RECORD
  5
130
102
{ACAD_XDICTIONARY
360
131
102
}
100
AcDbSymbolTableRecord
100
AcDbBlockTableRecord
  2
*PAPER_SPACE
  0
BLOCK_RECORD
  5
6
100
AcDbSymbolTableRecord
100
AcDbBlockTableRecord
  2
STAD10_T
  0
BLOCK_RECORD
  5
55
100
AcDbSymbolTableRecord
100
AcDbBlockTableRecord
  2
STAD10_F
  0
BLOCK_RECORD
  5
F6
100
AcDbSymbolTableRecord
100
AcDbBlockTableRecord
  2
STAD10_S
  0
ENDTAB
  0
ENDSEC
  0
SECTION
  2
BLOCKS
  0
BLOCK
  5
12E
100
AcDbEntity
  8
0
100
AcDbBlockBegin
  2
*MODEL_SPACE
 70
     0
 10
0.0
 20
0.0
 30
0.0
  3
*MODEL_SPACE
  1

  0
ENDBLK
  5
12F
100
AcDbEntity
  8
0
100
AcDbBlockEnd
  0
BLOCK
  5
133
100
AcDbEntity
 67
     1
  8
0
100
AcDbBlockBegin
  2
*PAPER_SPACE
 70
     0
 10
0.0
 20
0.0
 30
0.0
  3
*PAPER_SPACE
  1

  0
ENDBLK
  5
134
100
AcDbEntity
 67
     1
  8
0
100
AcDbBlockEnd
  0
BLOCK
  5
51
100
AcDbEntity
  8
0
100
AcDbBlockBegin
  2
STAD10_T
 70
     0
 10
0.0
 20
0.0
 30
0.0
  3
STAD10_T
  1

  0
LWPOLYLINE
  5
7
100
AcDbEntity
  8
USP-GEO
100
AcDbPolyline
 90
       12
 70
   128
 43
0.0
 10
1.056404452641842
 20
-0.0459306283757286
 10
2.020947648532217
 20
-0.0459306283757286
 10
2.020947648532217
 20
0.0
 10
3.031421472798324
 20
0.0
 10
3.031421472798324
 20
0.0459306283757357
 10
3.031421472798324
 20
1.469780108023435
 10
3.031421472798324
 20
1.885452294823807
 10
3.031421472798324
 20
1.977313551575271
 10
3.031421472798324
 20
1.885452294823807
 10
3.031421472798324
 20
1.469780108023435
 10
1.883155763405021
 20
1.469780108023435
 10
1.148265709393307
 20
1.469780108023435
  0
LWPOLYLINE
  5
B
100
AcDbEntity
  8
USP-GEO
100
AcDbPolyline
 90
        2
 70
   128
 43
0.0
 10
1.883155763405021
 20
0.0459306283757357
 10
3.031421472798324
 20
0.0459306283757357
  0
LWPOLYLINE
  5
C
100
AcDbEntity
  8
USP-GEO
100
AcDbPolyline
 90
        3
 70
   128
 43
0.0
 10
0.4133756553815893
 20
4.919170299040921
 10
2.663976445792471
 20
4.919170299040921
 10
2.663976445792471
 20
5.011031555792385
  0
LWPOLYLINE
  5
D
100
AcDbEntity
  8
USP-GEO
100
AcDbPolyline
 90
       38
 70
   128
 43
0.0
 10
0.4133756553815893
 20
5.011031555792385
 10
0.0
 20
5.011031555792385
 10
0.0
 20
4.919170299040921
 10
0.4133756553815893
 20
4.919170299040921
 10
0.4133756553815893
 20
5.011031555792385
 10
2.663976445792471
 20
5.011031555792385
 10
3.031421472798324
 20
5.011031555792385
 10
3.031421472798324
 20
4.919170299040921
 10
2.663976445792471
 20
4.919170299040921
 10
0.4133756553815893
 20
4.919170299040921
 10
0.0
 20
4.919170299040921
 10
0.0022965314187857
 20
4.919170299040921
 10
0.0
 20
4.919170299040921
 10
0.0
 20
5.011031555792385
 10
0.4133756553815893
 20
5.011031555792385
 10
2.663976445792471
 20
5.011031555792385
 10
3.031421472798324
 20
5.011031555792385
 10
3.031421472798324
 20
4.919170299040921
 10
3.03371800421711
 20
4.919170299040921
 10
3.031421472798324
 20
4.919170299040921
 10
3.031421472798324
 20
4.873239670665192
 10
2.985490844422596
 20
4.827309042289456
 10
2.939560216046864
 20
4.781378413913728
 10
2.801768330919667
 20
4.735447785537992
 10
2.709907074168203
 20
4.735447785537992
 10
2.572115189041003
 20
4.643586528786528
 10
2.526184560665271
 20
4.551725272035064
 10
2.434323303913807
 20
4.413933386907871
 10
2.434323303913807
 20
4.184280245029206
 10
2.434323303913807
 20
1.885452294823807
 10
2.434323303913807
 20
4.184280245029206
 10
2.526184560665271
 20
4.184280245029206
 10
2.526184560665271
 20
1.885452294823807
 10
2.526184560665271
 20
4.184280245029206
 10
2.526184560665271
 20
4.368002758532135
 10
2.618045817416735
 20
4.505794643659335
 10
2.709907074168203
 20
4.643586528786528
 10
2.572115189041003
 20
4.643586528786528
  0
LWPOLYLINE
  5
E
100
AcDbEntity
  8
USP-GEO
100
AcDbPolyline
 90
        2
 70
   129
 43
0.0
 10
0.5052369121330536
 20
1.885452294823807
 10
0.5052369121330536
 20
4.184280245029206
  0
LWPOLYLINE
  5
F
100
AcDbEntity
  8
USP-GEO
100
AcDbPolyline
 90
       10
 70
   128
 43
0.0
 10
0.4593062837573214
 20
2.023244179951007
 10
0.5052369121330536
 20
1.977313551575271
 10
0.5052369121330536
 20
1.885452294823807
 10
0.64302879726025
 20
1.885452294823807
 10
0.64302879726025
 20
4.184280245029206
 10
0.5052369121330536
 20
4.184280245029206
 10
0.5052369121330536
 20
4.368002758532135
 10
0.4593062837573214
 20
4.505794643659335
 10
0.321514398630125
 20
4.643586528786528
 10
0.1837225135029285
 20
4.781378413913728
  0
LWPOLYLINE
  5
10
100
AcDbEntity
  8
USP-GEO
100
AcDbPolyline
 90
        3
 70
   128
 43
0.0
 10
0.64302879726025
 20
1.885452294823807
 10
0.64302879726025
 20
4.184280245029206
 10
0.64302879726025
 20
4.551725272035064
  0
LWPOLYLINE
  5
11
100
AcDbEntity
  8
USP-GEO
100
AcDbPolyline
 90
        2
 70
   128
 43
0.0
 10
1.148265709393307
 20
1.469780108023435
 10
0.0
 20
1.469780108023435
  0
LWPOLYLINE
  5
12
100
AcDbEntity
  8
USP-GEO
100
AcDbPolyline
 90
        4
 70
   128
 43
0.0
 10
1.148265709393307
 20
1.469780108023435
 10
1.148265709393307
 20
0.0459306283757357
 10
0.0
 20
0.0459306283757357
 10
0.0
 20
1.469780108023435
  0
LWPOLYLINE
  5
13
100
AcDbEntity
  8
USP-GEO
100
AcDbPolyline
 90
        2
 70
   128
 43
0.0
 10
0.0
 20
0.0
 10
1.056404452641842
 20
0.0
  0
LWPOLYLINE
  5
14
100
AcDbEntity
  8
USP-GEO
100
AcDbPolyline
 90
        8
 70
   128
 43
0.0
 10
0.1377918851271964
 20
2.069174808326735
 10
0.321514398630125
 20
2.069174808326735
 10
0.4593062837573214
 20
2.023244179951007
 10
0.4593062837573214
 20
2.252897321829664
 10
0.1377918851271964
 20
2.115105436702471
 10
0.0918612567514643
 20
2.069174808326735
 10
0.0459306283757322
 20
2.023244179951007
 10
0.0
 20
1.977313551575271
  0
LWPOLYLINE
  5
15
100
AcDbEntity
  8
USP-GEO
100
AcDbPolyline
 90
        3
 70
   128
 43
0.0
 10
0.2296531418786607
 20
2.069174808326735
 10
0.1377918851271964
 20
1.977313551575271
 10
0.1377918851271964
 20
2.023244179951007
  0
LWPOLYLINE
  5
16
100
AcDbEntity
  8
USP-GEO
100
AcDbPolyline
 90
        4
 70
   129
 43
0.0
 10
0.0
 20
1.469780108023435
 10
0.0
 20
1.885452294823807
 10
0.0
 20
1.977313551575271
 10
0.0
 20
1.885452294823807
  0
LWPOLYLINE
  5
17
100
AcDbEntity
  8
USP-GEO
100
AcDbPolyline
 90
        4
 70
   128
 43
0.0
 10
0.0
 20
0.0459306283757357
 10
0.0
 20
0.0
 10
0.0
 20
0.0459306283757357
 10
0.0
 20
1.469780108023435
  0
LWPOLYLINE
  5
18
100
AcDbEntity
  8
USP-GEO
100
AcDbPolyline
 90
        4
 70
   128
 43
0.0
 10
0.0459306283757322
 20
2.023244179951007
 10
0.0
 20
1.977313551575271
 10
0.0459306283757322
 20
2.023244179951007
 10
0.0918612567514643
 20
2.023244179951007
  0
LWPOLYLINE
  5
19
100
AcDbEntity
  8
USP-GEO
100
AcDbPolyline
 90
        4
 70
   128
 43
0.0
 10
0.1377918851271964
 20
2.115105436702471
 10
0.1377918851271964
 20
2.069174808326735
 10
0.0459306283757322
 20
2.023244179951007
 10
0.1377918851271964
 20
2.069174808326735
  0
LWPOLYLINE
  5
1A
100
AcDbEntity
  8
USP-GEO
100
AcDbPolyline
 90
        4
 70
   128
 43
0.0
 10
0.1377918851271964
 20
1.977313551575271
 10
0.0459306283757322
 20
1.977313551575271
 10
0.0459306283757322
 20
1.931382923199542
 10
0.0
 20
1.885452294823807
  0
LWPOLYLINE
  5
1B
100
AcDbEntity
  8
USP-GEO
100
AcDbPolyline
 90
        2
 70
   129
 43
0.0
 10
0.1400884165459821
 20
2.069174808326735
 10
0.1377918851271964
 20
2.069174808326735
  0
LWPOLYLINE
  5
1C
100
AcDbEntity
  8
USP-GEO
100
AcDbPolyline
 90
        3
 70
   128
 43
0.0
 10
0.5052369121330536
 20
2.344758578581135
 10
0.5052369121330536
 20
2.298827950205399
 10
0.4593062837573214
 20
2.252897321829664
  0
LWPOLYLINE
  5
1D
100
AcDbEntity
  8
USP-GEO
100
AcDbPolyline
 90
        2
 70
   129
 43
0.0
 10
1.056404452641842
 20
-0.0459306283757286
 10
1.056404452641842
 20
0.0
  0
LWPOLYLINE
  5
1E
100
AcDbEntity
  8
USP-GEO
100
AcDbPolyline
 90
        2
 70
   128
 43
0.0
 10
2.020947648532217
 20
-0.0459306283757286
 10
2.020947648532217
 20
0.0
  0
LWPOLYLINE
  5
1F
100
AcDbEntity
  8
USP-GEO
100
AcDbPolyline
 90
        6
 70
   128
 43
0.0
 10
2.066878276907949
 20
2.804064862338456
 10
1.791294506653557
 20
2.849995490714185
 10
1.515710736399164
 20
2.849995490714185
 10
1.240126966144771
 20
2.849995490714185
 10
0.9645431958903749
 20
2.804064862338456
 10
0.9668397273091642
 20
2.804064862338456
  0
LWPOLYLINE
  5
20
100
AcDbEntity
  8
USP-GEO
100
AcDbPolyline
 90
       14
 70
   128
 43
0.0
 10
1.745363878277824
 20
2.298827950205399
 10
1.975017020156485
 20
2.436619835332599
 10
2.020947648532217
 20
2.482550463708328
 10
2.066878276907949
 20
2.574411720459792
 10
2.112808905283682
 20
2.758134233962721
 10
2.112808905283682
 20
2.804064862338456
 10
2.066878276907949
 20
2.804064862338456
 10
1.975017020156485
 20
2.574411720459792
 10
1.745363878277824
 20
2.436619835332599
 10
1.515710736399164
 20
2.390689206956864
 10
1.286057594520503
 20
2.436619835332599
 10
1.102335081017574
 20
2.574411720459792
 10
0.9645431958903749
 20
2.804064862338456
 10
0.9186125675146428
 20
2.758134233962721
  0
LWPOLYLINE
  5
21
100
AcDbEntity
  8
USP-GEO
100
AcDbPolyline
 90
        5
 70
   128
 43
0.0
 10
2.020947648532217
 20
2.482550463708328
 10
1.791294506653557
 20
2.344758578581135
 10
1.515710736399164
 20
2.252897321829664
 10
1.240126966144771
 20
2.344758578581135
 10
1.010473824266107
 20
2.482550463708328
  0
LWPOLYLINE
  5
22
100
AcDbEntity
  8
USP-GEO
100
AcDbPolyline
 90
        3
 70
   129
 43
0.0
 10
1.286057594520503
 20
2.298827950205399
 10
1.377918851271967
 20
2.252897321829664
 10
1.515710736399164
 20
2.252897321829664
  0
LWPOLYLINE
  5
23
100
AcDbEntity
  8
USP-GEO
100
AcDbPolyline
 90
        5
 70
   128
 43
0.0
 10
2.020947648532217
 20
3.171509889344314
 10
1.791294506653557
 20
3.033718004217114
 10
1.515710736399164
 20
2.941856747465649
 10
1.240126966144771
 20
3.033718004217114
 10
1.010473824266107
 20
3.171509889344314
  0
LWPOLYLINE
  5
24
100
AcDbEntity
  8
USP-GEO
100
AcDbPolyline
 90
        3
 70
   129
 43
0.0
 10
1.286057594520503
 20
2.987787375841385
 10
1.377918851271967
 20
2.941856747465649
 10
1.515710736399164
 20
2.941856747465649
  0
LWPOLYLINE
  5
25
100
AcDbEntity
  8
USP-GEO
100
AcDbPolyline
 90
        3
 70
   128
 43
0.0
 10
1.148265709393307
 20
1.655799152945149
 10
1.515710736399164
 20
1.655799152945149
 10
1.883155763405021
 20
1.655799152945149
  0
LWPOLYLINE
  5
26
100
AcDbEntity
  8
USP-GEO
100
AcDbPolyline
 90
       14
 70
   128
 43
0.0
 10
1.745363878277824
 20
2.987787375841385
 10
1.975017020156485
 20
3.125579260968578
 10
2.020947648532217
 20
3.171509889344314
 10
2.066878276907949
 20
3.263371146095778
 10
2.112808905283682
 20
3.447093659598706
 10
2.112808905283682
 20
3.493024287974435
 10
2.066878276907949
 20
3.493024287974435
 10
1.975017020156485
 20
3.263371146095778
 10
1.745363878277824
 20
3.125579260968578
 10
1.515710736399164
 20
3.079648632592849
 10
1.286057594520503
 20
3.125579260968578
 10
1.102335081017574
 20
3.263371146095778
 10
0.9645431958903749
 20
3.493024287974435
 10
0.9186125675146428
 20
3.447093659598706
  0
LWPOLYLINE
  5
27
100
AcDbEntity
  8
USP-GEO
100
AcDbPolyline
 90
        6
 70
   128
 43
0.0
 10
2.066878276907949
 20
3.493024287974435
 10
1.791294506653557
 20
3.538954916350171
 10
1.515710736399164
 20
3.538954916350171
 10
1.240126966144771
 20
3.538954916350171
 10
0.9645431958903749
 20
3.493024287974435
 10
0.9668397273091642
 20
3.493024287974435
  0
LWPOLYLINE
  5
28
100
AcDbEntity
  8
USP-GEO
100
AcDbPolyline
 90
       11
 70
   128
 43
0.0
 10
1.148265709393307
 20
1.885452294823807
 10
1.194196337769039
 20
1.977313551575271
 10
1.331988222896235
 20
2.023244179951007
 10
1.515710736399164
 20
2.023244179951007
 10
1.699433249902092
 20
2.023244179951007
 10
1.837225135029289
 20
1.977313551575271
 10
1.883155763405021
 20
1.885452294823807
 10
1.883155763405021
 20
1.469780108023435
 10
1.883155763405021
 20
0.0459306283757357
 10
1.883155763405021
 20
0.0
 10
1.148265709393307
 20
0.0
  0
LWPOLYLINE
  5
29
100
AcDbEntity
  8
USP-GEO
100
AcDbPolyline
 90
        2
 70
   129
 43
0.0
 10
1.148265709393307
 20
1.885452294823807
 10
1.148265709393307
 20
1.469780108023435
  0
LWPOLYLINE
  5
2A
100
AcDbEntity
  8
USP-GEO
100
AcDbPolyline
 90
        4
 70
   128
 43
0.0
 10
1.148265709393307
 20
1.469780108023435
 10
1.148265709393307
 20
0.0459306283757357
 10
1.148265709393307
 20
0.0
 10
1.148265709393307
 20
0.0459306283757357
  0
LWPOLYLINE
  5
2B
100
AcDbEntity
  8
USP-GEO
100
AcDbPolyline
 90
        5
 70
   128
 43
0.0
 10
0.9186125675146428
 20
2.758134233962721
 10
0.9645431958903749
 20
2.574411720459792
 10
1.010473824266107
 20
2.482550463708328
 10
1.102335081017574
 20
2.436619835332599
 10
1.286057594520503
 20
2.298827950205399
  0
LWPOLYLINE
  5
2C
100
AcDbEntity
  8
USP-GEO
100
AcDbPolyline
 90
        6
 70
   128
 43
0.0
 10
0.920909098933432
 20
3.447093659598706
 10
0.9186125675146428
 20
3.447093659598706
 10
0.9645431958903749
 20
3.263371146095778
 10
1.010473824266107
 20
3.171509889344314
 10
1.102335081017574
 20
3.125579260968578
 10
1.286057594520503
 20
2.987787375841385
  0
LWPOLYLINE
  5
2D
100
AcDbEntity
  8
USP-GEO
100
AcDbPolyline
 90
        2
 70
   129
 43
0.0
 10
0.920909098933432
 20
2.758134233962721
 10
0.9186125675146428
 20
2.758134233962721
  0
LWPOLYLINE
  5
2E
100
AcDbEntity
  8
USP-GEO
100
AcDbPolyline
 90
        2
 70
   129
 43
0.0
 10
1.515710736399164
 20
1.655799152945149
 10
1.515710736399164
 20
2.023244179951007
  0
LWPOLYLINE
  5
2F
100
AcDbEntity
  8
USP-GEO
100
AcDbPolyline
 90
        2
 70
   128
 43
0.0
 10
1.515710736399164
 20
1.655799152945149
 10
1.515710736399164
 20
2.023244179951007
  0
LWPOLYLINE
  5
30
100
AcDbEntity
  8
USP-GEO
100
AcDbPolyline
 90
        4
 70
   128
 43
0.0
 10
1.883155763405021
 20
1.885452294823807
 10
1.883155763405021
 20
1.469780108023435
 10
1.883155763405021
 20
0.0459306283757357
 10
1.883155763405021
 20
0.0
  0
LWPOLYLINE
  5
31
100
AcDbEntity
  8
USP-GEO
100
AcDbPolyline
 90
        3
 70
   129
 43
0.0
 10
1.745363878277824
 20
2.298827950205399
 10
1.515710736399164
 20
2.252897321829664
 10
1.65350262152636
 20
2.252897321829664
  0
LWPOLYLINE
  5
32
100
AcDbEntity
  8
USP-GEO
100
AcDbPolyline
 90
        3
 70
   129
 43
0.0
 10
1.745363878277824
 20
2.987787375841385
 10
1.515710736399164
 20
2.941856747465649
 10
1.65350262152636
 20
2.941856747465649
  0
LWPOLYLINE
  5
33
100
AcDbEntity
  8
USP-GEO
100
AcDbPolyline
 90
        2
 70
   128
 43
0.0
 10
2.112808905283682
 20
2.758134233962721
 10
2.115105436702467
 20
2.758134233962721
  0
LWPOLYLINE
  5
34
100
AcDbEntity
  8
USP-GEO
100
AcDbPolyline
 90
        2
 70
   128
 43
0.0
 10
2.112808905283682
 20
3.447093659598706
 10
2.115105436702467
 20
3.447093659598706
  0
LWPOLYLINE
  5
35
100
AcDbEntity
  8
USP-GEO
100
AcDbPolyline
 90
        7
 70
   128
 43
0.0
 10
0.0
 20
4.919170299040921
 10
0.0459306283757322
 20
4.873239670665192
 10
0.0459306283757322
 20
4.827309042289456
 10
0.1377918851271964
 20
4.781378413913728
 10
0.2296531418786607
 20
4.735447785537992
 10
0.3674450270058571
 20
4.735447785537992
 10
0.4593062837573214
 20
4.643586528786528
  0
LWPOLYLINE
  5
36
100
AcDbEntity
  8
USP-GEO
100
AcDbPolyline
 90
        9
 70
   128
 43
0.0
 10
0.321514398630125
 20
4.643586528786528
 10
0.4593062837573214
 20
4.643586528786528
 10
0.5052369121330536
 20
4.551725272035064
 10
0.5970981688845179
 20
4.413933386907871
 10
0.64302879726025
 20
4.184280245029206
 10
0.64302879726025
 20
4.551725272035064
 10
0.5970981688845179
 20
4.597655900410799
 10
0.5970981688845179
 20
4.643586528786528
 10
0.5052369121330536
 20
4.643586528786528
  0
LWPOLYLINE
  5
37
100
AcDbEntity
  8
USP-GEO
100
AcDbPolyline
 90
        3
 70
   128
 43
0.0
 10
0.3674450270058571
 20
4.735447785537992
 10
0.5052369121330536
 20
4.643586528786528
 10
0.5052369121330536
 20
4.551725272035064
  0
LWPOLYLINE
  5
38
100
AcDbEntity
  8
USP-GEO
100
AcDbPolyline
 90
        5
 70
   128
 43
0.0
 10
2.020947648532217
 20
3.860469314980292
 10
1.791294506653557
 20
3.676746801477364
 10
1.515710736399164
 20
3.630816173101635
 10
1.240126966144771
 20
3.676746801477364
 10
1.010473824266107
 20
3.860469314980292
  0
LWPOLYLINE
  5
39
100
AcDbEntity
  8
USP-GEO
100
AcDbPolyline
 90
       18
 70
   128
 43
0.0
 10
1.745363878277824
 20
3.676746801477364
 10
1.975017020156485
 20
3.814538686604564
 10
2.020947648532217
 20
3.860469314980292
 10
2.066878276907949
 20
3.954627103150549
 10
2.112808905283682
 20
4.138349616653478
 10
2.112808905283682
 20
4.184280245029206
 10
2.066878276907949
 20
4.184280245029206
 10
1.975017020156485
 20
3.954627103150549
 10
1.745363878277824
 20
3.814538686604564
 10
1.515710736399164
 20
3.768608058228828
 10
1.286057594520503
 20
3.814538686604564
 10
1.102335081017574
 20
3.954627103150549
 10
0.9645431958903749
 20
4.184280245029206
 10
0.9186125675146428
 20
4.138349616653478
 10
0.9645431958903749
 20
3.954627103150549
 10
1.010473824266107
 20
3.860469314980292
 10
1.102335081017574
 20
3.814538686604564
 10
1.286057594520503
 20
3.676746801477364
  0
LWPOLYLINE
  5
3A
100
AcDbEntity
  8
USP-GEO
100
AcDbPolyline
 90
        3
 70
   129
 43
0.0
 10
1.286057594520503
 20
3.676746801477364
 10
1.377918851271967
 20
3.630816173101635
 10
1.515710736399164
 20
3.630816173101635
  0
LWPOLYLINE
  5
3B
100
AcDbEntity
  8
USP-GEO
100
AcDbPolyline
 90
        6
 70
   128
 43
0.0
 10
2.066878276907949
 20
4.184280245029206
 10
1.791294506653557
 20
4.230210873404942
 10
1.515710736399164
 20
4.230210873404942
 10
1.240126966144771
 20
4.230210873404942
 10
0.9645431958903749
 20
4.184280245029206
 10
0.9668397273091642
 20
4.184280245029206
  0
LWPOLYLINE
  5
3C
100
AcDbEntity
  8
USP-GEO
100
AcDbPolyline
 90
        2
 70
   128
 43
0.0
 10
0.9186125675146428
 20
4.138349616653478
 10
0.920909098933432
 20
4.138349616653478
  0
LWPOLYLINE
  5
3D
100
AcDbEntity
  8
USP-GEO
100
AcDbPolyline
 90
        3
 70
   129
 43
0.0
 10
1.745363878277824
 20
3.676746801477364
 10
1.515710736399164
 20
3.630816173101635
 10
1.65350262152636
 20
3.630816173101635
  0
LWPOLYLINE
  5
3E
100
AcDbEntity
  8
USP-GEO
100
AcDbPolyline
 90
        2
 70
   128
 43
0.0
 10
2.112808905283682
 20
4.138349616653478
 10
2.115105436702467
 20
4.138349616653478
  0
LWPOLYLINE
  5
3F
100
AcDbEntity
  8
USP-GEO
100
AcDbPolyline
 90
        8
 70
   128
 43
0.0
 10
3.031421472798324
 20
1.977313551575271
 10
2.985490844422596
 20
2.023244179951007
 10
2.985490844422596
 20
2.069174808326735
 10
2.893629587671131
 20
2.115105436702471
 10
2.618045817416735
 20
2.252897321829664
 10
2.572115189041003
 20
2.298827950205399
 10
2.526184560665271
 20
2.298827950205399
 10
2.526184560665271
 20
2.344758578581135
  0
LWPOLYLINE
  5
40
100
AcDbEntity
  8
USP-GEO
100
AcDbPolyline
 90
        4
 70
   128
 43
0.0
 10
2.618045817416735
 20
2.023244179951007
 10
2.709907074168203
 20
2.069174808326735
 10
2.893629587671131
 20
2.069174808326735
 10
2.893629587671131
 20
2.115105436702471
  0
LWPOLYLINE
  5
41
100
AcDbEntity
  8
USP-GEO
100
AcDbPolyline
 90
        5
 70
   128
 43
0.0
 10
2.434323303913807
 20
1.885452294823807
 10
2.526184560665271
 20
1.885452294823807
 10
2.526184560665271
 20
1.977313551575271
 10
2.618045817416735
 20
2.023244179951007
 10
2.618045817416735
 20
2.252897321829664
  0
LWPOLYLINE
  5
42
100
AcDbEntity
  8
USP-GEO
100
AcDbPolyline
 90
        3
 70
   128
 43
0.0
 10
3.031421472798324
 20
0.0
 10
3.031421472798324
 20
0.0459306283757357
 10
3.031421472798324
 20
1.469780108023435
  0
LWPOLYLINE
  5
43
100
AcDbEntity
  8
USP-GEO
100
AcDbPolyline
 90
        6
 70
   128
 43
0.0
 10
2.895926119089917
 20
2.069174808326735
 10
2.893629587671131
 20
2.069174808326735
 10
2.985490844422596
 20
2.023244179951007
 10
2.939560216046864
 20
2.023244179951007
 10
2.939560216046864
 20
1.977313551575271
 10
2.801768330919667
 20
2.069174808326735
  0
LWPOLYLINE
  5
44
100
AcDbEntity
  8
USP-GEO
100
AcDbPolyline
 90
        4
 70
   128
 43
0.0
 10
2.939560216046864
 20
1.977313551575271
 10
2.985490844422596
 20
1.977313551575271
 10
3.031421472798324
 20
1.931382923199542
 10
3.031421472798324
 20
1.885452294823807
  0
LWPOLYLINE
  5
45
100
AcDbEntity
  8
USP-GEO
100
AcDbPolyline
 90
        2
 70
   128
 43
0.0
 10
2.985490844422596
 20
2.023244179951007
 10
2.987787375841381
 20
2.023244179951007
  0
LWPOLYLINE
  5
46
100
AcDbEntity
  8
USP-GEO
100
AcDbPolyline
 90
        2
 70
   129
 43
0.0
 10
3.031421472798324
 20
1.977313551575271
 10
2.985490844422596
 20
2.023244179951007
  0
LWPOLYLINE
  5
47
100
AcDbEntity
  8
USP-GEO
100
AcDbPolyline
 90
        2
 70
   128
 43
0.0
 10
2.709907074168203
 20
4.643586528786528
 10
2.847698959295399
 20
4.781378413913728
  0
LWPOLYLINE
  5
48
100
AcDbEntity
  8
USP-GEO
100
AcDbPolyline
 90
        2
 70
   128
 43
0.0
 10
2.663976445792471
 20
4.919170299040921
 10
3.031421472798324
 20
4.919170299040921
  0
LWPOLYLINE
  5
49
100
AcDbEntity
  8
USP-GEO
100
AcDbPolyline
 90
        5
 70
   128
 43
0.0
 10
2.434323303913807
 20
4.551725272035064
 10
2.434323303913807
 20
4.597655900410799
 10
2.480253932289539
 20
4.643586528786528
 10
2.526184560665271
 20
4.643586528786528
 10
2.709907074168203
 20
4.735447785537992
  0
LWPOLYLINE
  5
4A
100
AcDbEntity
  8
USP-GEO
100
AcDbPolyline
 90
        2
 70
   129
 43
0.0
 10
2.434323303913807
 20
4.184280245029206
 10
2.434323303913807
 20
4.551725272035064
  0
LWPOLYLINE
  5
4B
100
AcDbEntity
  8
USP-GEO
100
AcDbPolyline
 90
        2
 70
   128
 43
0.0
 10
2.526184560665271
 20
4.551725272035064
 10
2.526184560665271
 20
4.643586528786528
  0
TEXT
  5
4C
100
AcDbEntity
  8
USP-TXT
100
AcDbText
 10
-0.9105426994129688
 20
-2.792162147774732
 30
4.196879291630274
 40
0.296875
  1
STAD10 - TOP VIEW
 72
     1
 11
1.53867605058703
 21
-2.792162147774732
 31
4.196879291630274
100
AcDbText
  0
ENDBLK
  5
53
100
AcDbEntity
  8
0
100
AcDbBlockEnd
  0
BLOCK
  5
F3
100
AcDbEntity
  8
0
100
AcDbBlockBegin
  2
STAD10_F
 70
     0
 10
0.0
 20
0.0
 30
0.0
  3
STAD10_F
  1

  0
LWPOLYLINE
  5
56
100
AcDbEntity
  8
USP-GEO
100
AcDbPolyline
 90
       22
 70
   128
 43
0.0
 10
2.709907074168203
 20
9.195311800821599
 10
2.893629587671131
 20
9.379034314324528
 10
2.985490844422596
 20
9.562756827827456
 10
3.031421472798324
 20
9.65461808457892
 10
3.031421472798324
 20
9.746479341330385
 10
3.031421472798324
 20
9.700548712954649
 10
3.031421472798324
 20
9.746479341330385
 10
3.031421472798324
 20
9.838340598081849
 10
3.031421472798324
 20
32.1812947714568
 10
2.663976445792471
 20
32.54873979846265
 10
0.4133756553815893
 20
32.54873979846265
 10
0.0
 20
32.1812947714568
 10
0.0
 20
9.838340598081849
 10
0.0
 20
9.746479341330385
 10
0.0
 20
9.700548712954649
 10
0.0459306283757322
 20
9.608687456203185
 10
0.0918612567514643
 20
9.470895571075992
 10
0.1377918851271964
 20
9.379034314324528
 10
0.4593062837573214
 20
9.01158928731867
 10
0.5052369121330536
 20
8.919728030567206
 10
0.5052369121330536
 20
8.87379740219147
 10
0.5052369121330536
 20
8.781936145440006
  0
LWPOLYLINE
  5
57
100
AcDbEntity
  8
USP-GEO
100
AcDbPolyline
 90
        8
 70
   128
 43
0.0
 10
3.031421472798324
 20
9.838340598081849
 10
3.031421472798324
 20
32.1812947714568
 10
2.663976445792471
 20
32.54873979846265
 10
0.4133756553815893
 20
32.54873979846265
 10
0.0
 20
32.1812947714568
 10
0.0
 20
9.838340598081849
 10
3.031421472798324
 20
9.838340598081849
 10
3.031421472798324
 20
9.746479341330385
  0
LWPOLYLINE
  5
58
100
AcDbEntity
  8
USP-GEO
100
AcDbPolyline
 90
        2
 70
   128
 43
0.0
 10
2.020947648532217
 20
0.4133756553815929
 10
3.031421472798324
 20
0.4133756553815929
  0
LWPOLYLINE
  5
59
100
AcDbEntity
  8
USP-GEO
100
AcDbPolyline
 90
        4
 70
   128
 43
0.0
 10
2.020947648532217
 20
0.2296531418786643
 10
3.031421472798324
 20
0.2296531418786643
 10
3.031421472798324
 20
0.78082068238745
 10
3.031421472798324
 20
0.8726819391389142
  0
LWPOLYLINE
  5
5A
100
AcDbEntity
  8
USP-GEO
100
AcDbPolyline
 90
        4
 70
   128
 43
0.0
 10
2.020947648532217
 20
0.5511675405087857
 10
2.020947648532217
 20
0.78082068238745
 10
3.031421472798324
 20
0.78082068238745
 10
3.031421472798324
 20
0.8726819391389142
  0
LWPOLYLINE
  5
5B
100
AcDbEntity
  8
USP-GEO
100
AcDbPolyline
 90
        3
 70
   128
 43
0.0
 10
3.031421472798324
 20
0.8726819391389142
 10
1.883155763405021
 20
0.8726819391389142
 10
1.883155763405021
 20
1.518007267817949
  0
LWPOLYLINE
  5
5C
100
AcDbEntity
  8
USP-GEO
100
AcDbPolyline
 90
       15
 70
   128
 43
0.0
 10
2.158739533659414
 20
17.05633884732817
 10
2.204670162035146
 20
17.1022694757039
 10
2.158739533659414
 20
17.14820010407963
 10
2.158739533659414
 20
17.19413073245536
 10
2.112808905283682
 20
17.19413073245536
 10
2.020947648532217
 20
17.19413073245536
 10
1.975017020156485
 20
17.19413073245536
 10
1.929086391780753
 20
17.14820010407963
 10
1.929086391780753
 20
17.1022694757039
 10
1.929086391780753
 20
17.05633884732817
 10
1.975017020156485
 20
17.05633884732817
 10
2.020947648532217
 20
17.01040821895244
 10
2.112808905283682
 20
17.01040821895244
 10
2.158739533659414
 20
17.05633884732817
 10
2.161036065078199
 20
17.05633884732817
  0
LWPOLYLINE
  5
5D
100
AcDbEntity
  8
USP-GEO
100
AcDbPolyline
 90
       14
 70
   129
 43
0.0
 10
1.929086391780753
 20
14.06855147148679
 10
1.929086391780753
 20
14.11448209986252
 10
1.929086391780753
 20
14.16041272823825
 10
1.975017020156485
 20
14.20634335661398
 10
2.020947648532217
 20
14.20634335661398
 10
2.112808905283682
 20
14.20634335661398
 10
2.158739533659414
 20
14.20634335661398
 10
2.158739533659414
 20
14.16041272823825
 10
2.204670162035146
 20
14.11448209986252
 10
2.158739533659414
 20
14.06855147148679
 10
2.158739533659414
 20
14.02262084311105
 10
2.112808905283682
 20
14.02262084311105
 10
2.020947648532217
 20
14.02262084311105
 10
1.975017020156485
 20
14.02262084311105
  0
LWPOLYLINE
  5
5E
100
AcDbEntity
  8
USP-GEO
100
AcDbPolyline
 90
       13
 70
   129
 43
0.0
 10
1.929086391780753
 20
20.13598747992101
 10
1.929086391780753
 20
20.09005685154528
 10
1.975017020156485
 20
20.04412622316955
 10
2.020947648532217
 20
20.04412622316955
 10
2.112808905283682
 20
20.04412622316955
 10
2.158739533659414
 20
20.04412622316955
 10
2.158739533659414
 20
20.09005685154528
 10
2.204670162035146
 20
20.13598747992101
 10
2.158739533659414
 20
20.13598747992101
 10
2.158739533659414
 20
20.18191810829674
 10
2.112808905283682
 20
20.18191810829674
 10
2.020947648532217
 20
20.18191810829674
 10
1.975017020156485
 20
20.18191810829674
  0
LWPOLYLINE
  5
5F
100
AcDbEntity
  8
USP-GEO
100
AcDbPolyline
 90
        2
 70
   129
 43
0.0
 10
0.5052369121330536
 20
2.620342348835528
 10
0.5052369121330536
 20
8.965658658942935
  0
LWPOLYLINE
  5
60
100
AcDbEntity
  8
USP-GEO
100
AcDbPolyline
 90
        9
 70
   128
 43
0.0
 10
0.4593062837573214
 20
9.057519915694399
 10
0.5052369121330536
 20
9.01158928731867
 10
0.5052369121330536
 20
8.965658658942935
 10
0.64302879726025
 20
8.965658658942935
 10
0.64302879726025
 20
2.620342348835528
 10
0.64302879726025
 20
2.482550463708328
 10
0.5970981688845179
 20
2.344758578581135
 10
0.5970981688845179
 20
2.252897321829671
 10
0.5052369121330536
 20
2.161036065078207
  0
LWPOLYLINE
  5
61
100
AcDbEntity
  8
USP-GEO
100
AcDbPolyline
 90
        7
 70
   128
 43
0.0
 10
0.64302879726025
 20
2.482550463708328
 10
0.64302879726025
 20
2.620342348835528
 10
0.64302879726025
 20
8.965658658942935
 10
0.5970981688845179
 20
9.01158928731867
 10
0.5052369121330536
 20
9.149381172445863
 10
0.4593062837573214
 20
9.195311800821599
 10
0.321514398630125
 20
9.195311800821599
  0
LWPOLYLINE
  5
62
100
AcDbEntity
  8
USP-GEO
100
AcDbPolyline
 90
        2
 70
   128
 43
0.0
 10
1.056404452641842
 20
0.4133756553815929
 10
0.0
 20
0.4133756553815929
  0
LWPOLYLINE
  5
63
100
AcDbEntity
  8
USP-GEO
100
AcDbPolyline
 90
        5
 70
   128
 43
0.0
 10
1.056404452641842
 20
0.5511675405087857
 10
1.056404452641842
 20
0.78082068238745
 10
0.0
 20
0.78082068238745
 10
0.0
 20
0.2296531418786643
 10
1.056404452641842
 20
0.2296531418786643
  0
LWPOLYLINE
  5
64
100
AcDbEntity
  8
USP-GEO
100
AcDbPolyline
 90
        2
 70
   128
 43
0.0
 10
1.148265709393307
 20
0.8726819391389142
 10
0.0
 20
0.8726819391389142
  0
LWPOLYLINE
  5
65
100
AcDbEntity
  8
USP-GEO
100
AcDbPolyline
 90
        8
 70
   128
 43
0.0
 10
0.321514398630125
 20
2.115105436702471
 10
0.4593062837573214
 20
2.115105436702471
 10
0.3674450270058571
 20
1.977313551575278
 10
0.2296531418786607
 20
1.977313551575278
 10
0.1377918851271964
 20
1.793591038072342
 10
0.0459306283757322
 20
1.701729781320878
 10
0.0459306283757322
 20
1.609868524569414
 10
0.0
 20
1.518007267817949
  0
LWPOLYLINE
  5
66
100
AcDbEntity
  8
USP-GEO
100
AcDbPolyline
 90
        8
 70
   128
 43
0.0
 10
0.5052369121330536
 20
2.206966693453935
 10
0.5970981688845179
 20
2.436619835332599
 10
0.64302879726025
 20
2.620342348835528
 10
0.5052369121330536
 20
2.620342348835528
 10
0.5052369121330536
 20
2.436619835332599
 10
0.4593062837573214
 20
2.298827950205399
 10
0.321514398630125
 20
2.115105436702471
 10
0.1377918851271964
 20
1.839521666448078
  0
LWPOLYLINE
  5
67
100
AcDbEntity
  8
USP-GEO
100
AcDbPolyline
 90
        2
 70
   129
 43
0.0
 10
0.0
 20
0.78082068238745
 10
0.0
 20
0.8726819391389142
  0
LWPOLYLINE
  5
68
100
AcDbEntity
  8
USP-GEO
100
AcDbPolyline
 90
        2
 70
   128
 43
0.0
 10
0.0
 20
0.78082068238745
 10
0.0
 20
0.2296531418786643
  0
LWPOLYLINE
  5
69
100
AcDbEntity
  8
USP-GEO
100
AcDbPolyline
 90
        2
 70
   129
 43
0.0
 10
0.0482271597945179
 20
1.655799152945149
 10
0.0459306283757322
 20
1.655799152945149
  0
LWPOLYLINE
  5
6A
100
AcDbEntity
  8
USP-GEO
100
AcDbPolyline
 90
        2
 70
   128
 43
0.0
 10
0.0459306283757322
 20
1.655799152945149
 10
0.0482271597945179
 20
1.655799152945149
  0
LWPOLYLINE
  5
6B
100
AcDbEntity
  8
USP-GEO
100
AcDbPolyline
 90
        2
 70
   129
 43
0.0
 10
0.0
 20
0.8726819391389142
 10
0.0
 20
1.518007267817949
  0
LWPOLYLINE
  5
6C
100
AcDbEntity
  8
USP-GEO
100
AcDbPolyline
 90
        2
 70
   129
 43
0.0
 10
0.0918612567514643
 20
1.793591038072342
 10
0.1377918851271964
 20
1.839521666448078
  0
LWPOLYLINE
  5
6D
100
AcDbEntity
  8
USP-GEO
100
AcDbPolyline
 90
        4
 70
   128
 43
0.0
 10
0.4593062837573214
 20
2.115105436702471
 10
0.5052369121330536
 20
2.206966693453935
 10
0.5052369121330536
 20
2.161036065078207
 10
0.3674450270058571
 20
1.977313551575278
  0
LWPOLYLINE
  5
6E
100
AcDbEntity
  8
USP-GEO
100
AcDbPolyline
 90
        7
 70
   128
 43
0.0
 10
1.148265709393307
 20
1.426146011066485
 10
1.194196337769039
 20
1.609868524569414
 10
1.331988222896235
 20
1.747660409696614
 10
1.515710736399164
 20
1.793591038072342
 10
1.699433249902092
 20
1.747660409696614
 10
1.837225135029289
 20
1.609868524569414
 10
1.883155763405021
 20
1.426146011066485
  0
LWPOLYLINE
  5
6F
100
AcDbEntity
  8
USP-GEO
100
AcDbPolyline
 90
        6
 70
   128
 43
0.0
 10
1.056404452641842
 20
0.78082068238745
 10
1.056404452641842
 20
0.5511675405087857
 10
2.020947648532217
 20
0.5511675405087857
 10
2.020947648532217
 20
0.0
 10
2.020947648532217
 20
0.5511675405087857
 10
2.020947648532217
 20
0.78082068238745
  0
LWPOLYLINE
  5
70
100
AcDbEntity
  8
USP-GEO
100
AcDbPolyline
 90
        2
 70
   128
 43
0.0
 10
1.056404452641842
 20
0.0
 10
2.020947648532217
 20
0.0
  0
LWPOLYLINE
  5
71
100
AcDbEntity
  8
USP-GEO
100
AcDbPolyline
 90
       10
 70
   128
 43
0.0
 10
1.148265709393307
 20
0.64302879726025
 10
1.883155763405021
 20
0.64302879726025
 10
1.883155763405021
 20
0.8726819391389142
 10
1.883155763405021
 20
1.518007267817949
 10
1.837225135029289
 20
1.701729781320878
 10
1.699433249902092
 20
1.839521666448078
 10
1.515710736399164
 20
1.885452294823807
 10
1.331988222896235
 20
1.839521666448078
 10
1.194196337769039
 20
1.701729781320878
 10
1.148265709393307
 20
1.518007267817949
  0
LWPOLYLINE
  5
72
100
AcDbEntity
  8
USP-GEO
100
AcDbPolyline
 90
        2
 70
   129
 43
0.0
 10
1.148265709393307
 20
0.8726819391389142
 10
1.148265709393307
 20
0.64302879726025
  0
LWPOLYLINE
  5
73
100
AcDbEntity
  8
USP-GEO
100
AcDbPolyline
 90
        2
 70
   129
 43
0.0
 10
1.056404452641842
 20
0.0
 10
1.056404452641842
 20
0.5511675405087857
  0
LWPOLYLINE
  5
74
100
AcDbEntity
  8
USP-GEO
100
AcDbPolyline
 90
        2
 70
   129
 43
0.0
 10
1.148265709393307
 20
1.518007267817949
 10
1.148265709393307
 20
0.8726819391389142
  0
LWPOLYLINE
  5
75
100
AcDbEntity
  8
USP-GEO
100
AcDbPolyline
 90
        2
 70
   129
 43
0.0
 10
1.515710736399164
 20
0.64302879726025
 10
1.515710736399164
 20
1.426146011066485
  0
LWPOLYLINE
  5
76
100
AcDbEntity
  8
USP-GEO
100
AcDbPolyline
 90
        2
 70
   128
 43
0.0
 10
1.515710736399164
 20
0.64302879726025
 10
1.515710736399164
 20
1.426146011066485
  0
LWPOLYLINE
  5
77
100
AcDbEntity
  8
USP-GEO
100
AcDbPolyline
 90
        2
 70
   128
 43
0.0
 10
1.883155763405021
 20
0.8726819391389142
 10
1.883155763405021
 20
0.64302879726025
  0
LWPOLYLINE
  5
78
100
AcDbEntity
  8
USP-GEO
100
AcDbPolyline
 90
       20
 70
   128
 43
0.0
 10
0.9186125675146428
 20
3.862765846399085
 10
0.9186125675146428
 20
3.908696474774814
 10
0.9186125675146428
 20
3.954627103150549
 10
0.9645431958903749
 20
4.000557731526278
 10
1.010473824266107
 20
4.046488359902014
 10
1.102335081017574
 20
4.092418988277742
 10
1.194196337769039
 20
4.138349616653478
 10
1.331988222896235
 20
4.184280245029206
 10
1.515710736399164
 20
4.184280245029206
 10
1.699433249902092
 20
4.184280245029206
 10
1.837225135029289
 20
4.138349616653478
 10
1.975017020156485
 20
4.092418988277742
 10
2.020947648532217
 20
4.046488359902014
 10
2.112808905283682
 20
4.000557731526278
 10
2.066878276907949
 20
4.000557731526278
 10
1.975017020156485
 20
4.092418988277742
 10
1.745363878277824
 20
4.138349616653478
 10
1.515710736399164
 20
4.184280245029206
 10
1.286057594520503
 20
4.138349616653478
 10
1.102335081017574
 20
4.092418988277742
  0
LWPOLYLINE
  5
79
100
AcDbEntity
  8
USP-GEO
100
AcDbPolyline
 90
        8
 70
   128
 43
0.0
 10
2.112808905283682
 20
3.862765846399085
 10
2.020947648532217
 20
3.954627103150549
 10
1.791294506653557
 20
4.000557731526278
 10
1.515710736399164
 20
4.000557731526278
 10
1.240126966144771
 20
4.000557731526278
 10
1.010473824266107
 20
3.954627103150549
 10
0.9186125675146428
 20
3.862765846399085
 10
0.9645431958903749
 20
3.633112704520421
  0
LWPOLYLINE
  5
7A
100
AcDbEntity
  8
USP-GEO
100
AcDbPolyline
 90
       28
 70
   128
 43
0.0
 10
2.112808905283682
 20
5.745921609804106
 10
2.020947648532217
 20
5.791852238179835
 10
1.791294506653557
 20
5.883713494931299
 10
1.515710736399164
 20
5.883713494931299
 10
1.240126966144771
 20
5.883713494931299
 10
1.010473824266107
 20
5.791852238179835
 10
0.9186125675146428
 20
5.745921609804106
 10
0.9186125675146428
 20
5.791852238179835
 10
0.9186125675146428
 20
5.837782866555571
 10
0.9645431958903749
 20
5.837782866555571
 10
0.9645431958903749
 20
5.883713494931299
 10
1.102335081017574
 20
5.975574751682763
 10
1.194196337769039
 20
6.023801911477285
 10
1.331988222896235
 20
6.069732539853021
 10
1.515710736399164
 20
6.069732539853021
 10
1.699433249902092
 20
6.069732539853021
 10
1.837225135029289
 20
6.023801911477285
 10
1.975017020156485
 20
5.975574751682763
 10
2.020947648532217
 20
5.929644123307035
 10
2.112808905283682
 20
5.837782866555571
 10
2.066878276907949
 20
5.883713494931299
 10
1.975017020156485
 20
5.975574751682763
 10
1.745363878277824
 20
6.023801911477285
 10
1.515710736399164
 20
6.023801911477285
 10
1.286057594520503
 20
6.023801911477285
 10
1.102335081017574
 20
5.975574751682763
 10
1.010473824266107
 20
5.929644123307035
 10
0.9645431958903749
 20
5.837782866555571
  0
LWPOLYLINE
  5
7B
100
AcDbEntity
  8
USP-GEO
100
AcDbPolyline
 90
       12
 70
   128
 43
0.0
 10
0.9186125675146428
 20
5.745921609804106
 10
0.9645431958903749
 20
5.516268467925442
 10
1.102335081017574
 20
5.608129724676906
 10
1.286057594520503
 20
5.654060353052642
 10
1.515710736399164
 20
5.654060353052642
 10
1.745363878277824
 20
5.654060353052642
 10
1.975017020156485
 20
5.608129724676906
 10
2.066878276907949
 20
5.516268467925442
 10
2.112808905283682
 20
5.745921609804106
 10
2.112808905283682
 20
5.791852238179835
 10
2.112808905283682
 20
5.837782866555571
 10
2.115105436702467
 20
5.837782866555571
  0
LWPOLYLINE
  5
7C
100
AcDbEntity
  8
USP-GEO
100
AcDbPolyline
 90
       11
 70
   129
 43
0.0
 10
0.9645431958903749
 20
3.633112704520421
 10
1.102335081017574
 20
3.724973961271885
 10
1.286057594520503
 20
3.770904589647621
 10
1.515710736399164
 20
3.770904589647621
 10
1.745363878277824
 20
3.770904589647621
 10
1.975017020156485
 20
3.724973961271885
 10
2.066878276907949
 20
3.633112704520421
 10
1.929086391780753
 20
3.401163031222971
 10
1.65350262152636
 20
3.263371146095778
 10
1.377918851271967
 20
3.263371146095778
 10
1.102335081017574
 20
3.401163031222971
  0
LWPOLYLINE
  5
7D
100
AcDbEntity
  8
USP-GEO
100
AcDbPolyline
 90
        6
 70
   128
 43
0.0
 10
2.066878276907949
 20
5.516268467925442
 10
1.929086391780753
 20
5.286615326046785
 10
1.65350262152636
 20
5.148823440919585
 10
1.377918851271967
 20
5.148823440919585
 10
1.102335081017574
 20
5.286615326046785
 10
0.9645431958903749
 20
5.516268467925442
  0
LWPOLYLINE
  5
7E
100
AcDbEntity
  8
USP-GEO
100
AcDbPolyline
 90
        5
 70
   128
 43
0.0
 10
2.066878276907949
 20
3.633112704520421
 10
2.112808905283682
 20
3.862765846399085
 10
2.112808905283682
 20
3.908696474774814
 10
2.112808905283682
 20
3.954627103150549
 10
2.112808905283682
 20
4.000557731526278
  0
LWPOLYLINE
  5
7F
100
AcDbEntity
  8
USP-GEO
100
AcDbPolyline
 90
        3
 70
   128
 43
0.0
 10
0.0
 20
9.838340598081849
 10
0.0
 20
9.746479341330385
 10
0.0
 20
9.700548712954649
  0
LWPOLYLINE
  5
80
100
AcDbEntity
  8
USP-GEO
100
AcDbPolyline
 90
        7
 70
   128
 43
0.0
 10
0.1400884165459821
 20
9.470895571075992
 10
0.1377918851271964
 20
9.470895571075992
 10
0.0459306283757322
 20
9.562756827827456
 10
0.1377918851271964
 20
9.379034314324528
 10
0.321514398630125
 20
9.195311800821599
 10
0.4593062837573214
 20
9.057519915694399
 10
0.4593062837573214
 20
9.01158928731867
  0
LWPOLYLINE
  5
81
100
AcDbEntity
  8
USP-GEO
100
AcDbPolyline
 90
        4
 70
   128
 43
0.0
 10
0.1377918851271964
 20
9.470895571075992
 10
0.2296531418786607
 20
9.333103685948792
 10
0.3674450270058571
 20
9.333103685948792
 10
0.4593062837573214
 20
9.195311800821599
  0
LWPOLYLINE
  5
82
100
AcDbEntity
  8
USP-GEO
100
AcDbPolyline
 90
        5
 70
   128
 43
0.0
 10
0.2296531418786607
 20
9.333103685948792
 10
0.1377918851271964
 20
9.470895571075992
 10
0.0459306283757322
 20
9.562756827827456
 10
0.0459306283757322
 20
9.65461808457892
 10
0.0
 20
9.746479341330385
  0
LWPOLYLINE
  5
83
100
AcDbEntity
  8
USP-GEO
100
AcDbPolyline
 90
        2
 70
   129
 43
0.0
 10
0.0
 20
9.700548712954649
 10
0.0459306283757322
 20
9.562756827827456
  0
LWPOLYLINE
  5
84
100
AcDbEntity
  8
USP-GEO
100
AcDbPolyline
 90
        2
 70
   128
 43
0.0
 10
0.1377918851271964
 20
9.379034314324528
 10
0.1400884165459821
 20
9.379034314324528
  0
LWPOLYLINE
  5
85
100
AcDbEntity
  8
USP-GEO
100
AcDbPolyline
 90
       10
 70
   129
 43
0.0
 10
0.5052369121330536
 20
10.75695316559649
 10
0.5511675405087857
 20
10.75695316559649
 10
0.5970981688845179
 20
10.71102253722076
 10
0.5970981688845179
 20
10.66509190884502
 10
0.5970981688845179
 20
10.6191612804693
 10
0.5511675405087857
 20
10.57323065209356
 10
0.5052369121330536
 20
10.57323065209356
 10
0.4593062837573214
 20
10.6191612804693
 10
0.4593062837573214
 20
10.66509190884502
 10
0.4593062837573214
 20
10.71102253722076
  0
LWPOLYLINE
  5
86
100
AcDbEntity
  8
USP-GEO
100
AcDbPolyline
 90
        2
 70
   128
 43
0.0
 10
0.4593062837573214
 20
10.71102253722076
 10
0.4616028151761072
 20
10.71102253722076
  0
LWPOLYLINE
  5
87
100
AcDbEntity
  8
USP-GEO
100
AcDbPolyline
 90
       26
 70
   128
 43
0.0
 10
2.112808905283682
 20
7.585443276252178
 10
2.020947648532217
 20
7.677304533003649
 10
1.791294506653557
 20
7.769165789755113
 10
1.515710736399164
 20
7.769165789755113
 10
1.240126966144771
 20
7.769165789755113
 10
1.010473824266107
 20
7.677304533003649
 10
0.9186125675146428
 20
7.585443276252178
 10
0.9186125675146428
 20
7.631373904627913
 10
0.9186125675146428
 20
7.677304533003649
 10
0.9645431958903749
 20
7.723235161379378
 10
1.010473824266107
 20
7.769165789755113
 10
1.102335081017574
 20
7.861027046506578
 10
1.194196337769039
 20
7.906957674882306
 10
1.331988222896235
 20
7.952888303258042
 10
1.515710736399164
 20
7.952888303258042
 10
1.699433249902092
 20
7.952888303258042
 10
1.837225135029289
 20
7.906957674882306
 10
1.975017020156485
 20
7.861027046506578
 10
2.020947648532217
 20
7.769165789755113
 10
2.112808905283682
 20
7.723235161379378
 10
2.066878276907949
 20
7.769165789755113
 10
1.975017020156485
 20
7.861027046506578
 10
1.745363878277824
 20
7.906957674882306
 10
1.515710736399164
 20
7.906957674882306
 10
1.286057594520503
 20
7.906957674882306
 10
1.102335081017574
 20
7.861027046506578
  0
LWPOLYLINE
  5
88
100
AcDbEntity
  8
USP-GEO
100
AcDbPolyline
 90
       12
 70
   128
 43
0.0
 10
2.112808905283682
 20
7.723235161379378
 10
2.112808905283682
 20
7.677304533003649
 10
2.112808905283682
 20
7.631373904627913
 10
2.112808905283682
 20
7.585443276252178
 10
2.066878276907949
 20
7.401720762749249
 10
1.975017020156485
 20
7.493582019500713
 10
1.745363878277824
 20
7.539512647876449
 10
1.515710736399164
 20
7.539512647876449
 10
1.286057594520503
 20
7.539512647876449
 10
1.102335081017574
 20
7.493582019500713
 10
0.9645431958903749
 20
7.401720762749249
 10
0.9186125675146428
 20
7.585443276252178
  0
LWPOLYLINE
  5
89
100
AcDbEntity
  8
USP-GEO
100
AcDbPolyline
 90
        6
 70
   128
 43
0.0
 10
2.066878276907949
 20
7.401720762749249
 10
1.929086391780753
 20
7.172067620870592
 10
1.65350262152636
 20
7.034275735743392
 10
1.377918851271967
 20
7.034275735743392
 10
1.102335081017574
 20
7.172067620870592
 10
0.9645431958903749
 20
7.401720762749249
  0
LWPOLYLINE
  5
8A
100
AcDbEntity
  8
USP-GEO
100
AcDbPolyline
 90
       14
 70
   129
 43
0.0
 10
1.010473824266107
 20
12.5046135752931
 10
0.9645431958903749
 20
12.5046135752931
 10
0.9186125675146428
 20
12.55054420366883
 10
0.8726819391389106
 20
12.55054420366883
 10
0.8726819391389106
 20
12.59647483204457
 10
0.8726819391389106
 20
12.6424054604203
 10
0.9186125675146428
 20
12.68833608879603
 10
0.9645431958903749
 20
12.68833608879603
 10
1.010473824266107
 20
12.68833608879603
 10
1.056404452641842
 20
12.68833608879603
 10
1.102335081017574
 20
12.6424054604203
 10
1.102335081017574
 20
12.59647483204457
 10
1.102335081017574
 20
12.55054420366883
 10
1.056404452641842
 20
12.55054420366883
  0
LWPOLYLINE
  5
8B
100
AcDbEntity
  8
USP-GEO
100
AcDbPolyline
 90
        2
 70
   128
 43
0.0
 10
1.010473824266107
 20
12.5046135752931
 10
0.9645431958903749
 20
12.5046135752931
  0
LWPOLYLINE
  5
8C
100
AcDbEntity
  8
USP-GEO
100
AcDbPolyline
 90
        2
 70
   128
 43
0.0
 10
0.9645431958903749
 20
12.68833608879603
 10
1.010473824266107
 20
12.68833608879603
  0
LWPOLYLINE
  5
8D
100
AcDbEntity
  8
USP-GEO
100
AcDbPolyline
 90
       13
 70
   129
 43
0.0
 10
0.4593062837573214
 20
17.05633884732817
 10
0.4133756553815893
 20
17.1022694757039
 10
0.4593062837573214
 20
17.14820010407963
 10
0.4593062837573214
 20
17.19413073245536
 10
0.5052369121330536
 20
17.19413073245536
 10
0.5970981688845179
 20
17.19413073245536
 10
0.64302879726025
 20
17.19413073245536
 10
0.6889594256359822
 20
17.14820010407963
 10
0.6889594256359822
 20
17.1022694757039
 10
0.6889594256359822
 20
17.05633884732817
 10
0.64302879726025
 20
17.05633884732817
 10
0.5970981688845179
 20
17.01040821895244
 10
0.5052369121330536
 20
17.01040821895244
  0
LWPOLYLINE
  5
8E
100
AcDbEntity
  8
USP-GEO
100
AcDbPolyline
 90
       14
 70
   129
 43
0.0
 10
0.4593062837573214
 20
14.06855147148679
 10
0.4133756553815893
 20
14.11448209986252
 10
0.4593062837573214
 20
14.16041272823825
 10
0.4593062837573214
 20
14.20634335661398
 10
0.5052369121330536
 20
14.20634335661398
 10
0.5970981688845179
 20
14.20634335661398
 10
0.64302879726025
 20
14.20634335661398
 10
0.6889594256359822
 20
14.16041272823825
 10
0.6889594256359822
 20
14.11448209986252
 10
0.6889594256359822
 20
14.06855147148679
 10
0.64302879726025
 20
14.02262084311105
 10
0.5970981688845179
 20
14.02262084311105
 10
0.5052369121330536
 20
14.02262084311105
 10
0.4593062837573214
 20
14.02262084311105
  0
LWPOLYLINE
  5
8F
100
AcDbEntity
  8
USP-GEO
100
AcDbPolyline
 90
        2
 70
   128
 43
0.0
 10
0.5052369121330536
 20
14.20634335661398
 10
0.5970981688845179
 20
14.20634335661398
  0
LWPOLYLINE
  5
90
100
AcDbEntity
  8
USP-GEO
100
AcDbPolyline
 90
        2
 70
   128
 43
0.0
 10
0.5970981688845179
 20
14.02262084311105
 10
0.5052369121330536
 20
14.02262084311105
  0
LWPOLYLINE
  5
91
100
AcDbEntity
  8
USP-GEO
100
AcDbPolyline
 90
        2
 70
   128
 43
0.0
 10
0.5970981688845179
 20
17.01040821895244
 10
0.5052369121330536
 20
17.01040821895244
  0
LWPOLYLINE
  5
92
100
AcDbEntity
  8
USP-GEO
100
AcDbPolyline
 90
        2
 70
   128
 43
0.0
 10
0.5052369121330536
 20
17.19413073245536
 10
0.5970981688845179
 20
17.19413073245536
  0
LWPOLYLINE
  5
93
100
AcDbEntity
  8
USP-GEO
100
AcDbPolyline
 90
        2
 70
   128
 43
0.0
 10
0.4593062837573214
 20
17.05633884732817
 10
0.4616028151761072
 20
17.05633884732817
  0
LWPOLYLINE
  5
94
100
AcDbEntity
  8
USP-GEO
100
AcDbPolyline
 90
       13
 70
   129
 43
0.0
 10
0.4593062837573214
 20
20.09005685154528
 10
0.4133756553815893
 20
20.13598747992101
 10
0.4593062837573214
 20
20.13598747992101
 10
0.4593062837573214
 20
20.18191810829674
 10
0.5052369121330536
 20
20.18191810829674
 10
0.5970981688845179
 20
20.18191810829674
 10
0.64302879726025
 20
20.18191810829674
 10
0.6889594256359822
 20
20.13598747992101
 10
0.6889594256359822
 20
20.09005685154528
 10
0.64302879726025
 20
20.04412622316955
 10
0.5970981688845179
 20
20.04412622316955
 10
0.5052369121330536
 20
20.04412622316955
 10
0.4593062837573214
 20
20.04412622316955
  0
LWPOLYLINE
  5
95
100
AcDbEntity
  8
USP-GEO
100
AcDbPolyline
 90
        2
 70
   128
 43
0.0
 10
0.5052369121330536
 20
20.18191810829674
 10
0.5970981688845179
 20
20.18191810829674
  0
LWPOLYLINE
  5
96
100
AcDbEntity
  8
USP-GEO
100
AcDbPolyline
 90
        2
 70
   128
 43
0.0
 10
0.5970981688845179
 20
20.04412622316955
 10
0.5052369121330536
 20
20.04412622316955
  0
LWPOLYLINE
  5
97
100
AcDbEntity
  8
USP-GEO
100
AcDbPolyline
 90
        2
 70
   128
 43
0.0
 10
0.6889594256359822
 20
20.13598747992101
 10
0.6912559570547714
 20
20.13598747992101
  0
LWPOLYLINE
  5
98
100
AcDbEntity
  8
USP-GEO
100
AcDbPolyline
 90
       12
 70
   129
 43
0.0
 10
0.9186125675146428
 20
15.53833157951022
 10
0.8726819391389106
 20
15.58426220788595
 10
0.8726819391389106
 20
15.63019283626168
 10
0.9186125675146428
 20
15.67612346463741
 10
0.9645431958903749
 20
15.67612346463741
 10
1.010473824266107
 20
15.67612346463741
 10
1.056404452641842
 20
15.67612346463741
 10
1.102335081017574
 20
15.63019283626168
 10
1.102335081017574
 20
15.58426220788595
 10
1.056404452641842
 20
15.53833157951022
 10
1.010473824266107
 20
15.53833157951022
 10
0.9645431958903749
 20
15.53833157951022
  0
LWPOLYLINE
  5
99
100
AcDbEntity
  8
USP-GEO
100
AcDbPolyline
 90
        2
 70
   128
 43
0.0
 10
0.9645431958903749
 20
15.67612346463741
 10
1.010473824266107
 20
15.67612346463741
  0
LWPOLYLINE
  5
9A
100
AcDbEntity
  8
USP-GEO
100
AcDbPolyline
 90
        2
 70
   128
 43
0.0
 10
1.010473824266107
 20
15.53833157951022
 10
0.9645431958903749
 20
15.53833157951022
  0
LWPOLYLINE
  5
9B
100
AcDbEntity
  8
USP-GEO
100
AcDbPolyline
 90
        2
 70
   128
 43
0.0
 10
1.102335081017574
 20
15.63019283626168
 10
1.10463161243636
 20
15.63019283626168
  0
LWPOLYLINE
  5
9C
100
AcDbEntity
  8
USP-GEO
100
AcDbPolyline
 90
        2
 70
   128
 43
0.0
 10
2.020947648532217
 20
14.20634335661398
 10
2.112808905283682
 20
14.20634335661398
  0
LWPOLYLINE
  5
9D
100
AcDbEntity
  8
USP-GEO
100
AcDbPolyline
 90
        2
 70
   128
 43
0.0
 10
2.112808905283682
 20
14.02262084311105
 10
2.020947648532217
 20
14.02262084311105
  0
LWPOLYLINE
  5
9E
100
AcDbEntity
  8
USP-GEO
100
AcDbPolyline
 90
        2
 70
   128
 43
0.0
 10
2.112808905283682
 20
17.01040821895244
 10
2.020947648532217
 20
17.01040821895244
  0
LWPOLYLINE
  5
9F
100
AcDbEntity
  8
USP-GEO
100
AcDbPolyline
 90
       14
 70
   129
 43
0.0
 10
0.9186125675146428
 20
18.52841548677038
 10
0.8726819391389106
 20
18.57434611514612
 10
0.8726819391389106
 20
18.62027674352185
 10
0.8726819391389106
 20
18.66620737189758
 10
0.9186125675146428
 20
18.66620737189758
 10
0.9645431958903749
 20
18.71213800027331
 10
1.010473824266107
 20
18.71213800027331
 10
1.056404452641842
 20
18.66620737189758
 10
1.102335081017574
 20
18.66620737189758
 10
1.102335081017574
 20
18.62027674352185
 10
1.102335081017574
 20
18.57434611514612
 10
1.056404452641842
 20
18.52841548677038
 10
1.010473824266107
 20
18.52841548677038
 10
0.9645431958903749
 20
18.52841548677038
  0
LWPOLYLINE
  5
A0
100
AcDbEntity
  8
USP-GEO
100
AcDbPolyline
 90
        2
 70
   128
 43
0.0
 10
0.9645431958903749
 20
18.71213800027331
 10
1.010473824266107
 20
18.71213800027331
  0
LWPOLYLINE
  5
A1
100
AcDbEntity
  8
USP-GEO
100
AcDbPolyline
 90
        2
 70
   128
 43
0.0
 10
1.010473824266107
 20
18.52841548677038
 10
0.9645431958903749
 20
18.52841548677038
  0
LWPOLYLINE
  5
A2
100
AcDbEntity
  8
USP-GEO
100
AcDbPolyline
 90
        2
 70
   128
 43
0.0
 10
2.020947648532217
 20
17.19413073245536
 10
2.112808905283682
 20
17.19413073245536
  0
LWPOLYLINE
  5
A3
100
AcDbEntity
  8
USP-GEO
100
AcDbPolyline
 90
        2
 70
   128
 43
0.0
 10
1.929086391780753
 20
20.13598747992101
 10
1.931382923199539
 20
20.13598747992101
  0
LWPOLYLINE
  5
A4
100
AcDbEntity
  8
USP-GEO
100
AcDbPolyline
 90
        2
 70
   128
 43
0.0
 10
2.020947648532217
 20
20.18191810829674
 10
2.112808905283682
 20
20.18191810829674
  0
LWPOLYLINE
  5
A5
100
AcDbEntity
  8
USP-GEO
100
AcDbPolyline
 90
        2
 70
   128
 43
0.0
 10
2.112808905283682
 20
20.04412622316955
 10
2.020947648532217
 20
20.04412622316955
  0
LWPOLYLINE
  5
A6
100
AcDbEntity
  8
USP-GEO
100
AcDbPolyline
 90
        2
 70
   129
 43
0.0
 10
2.526184560665271
 20
8.965658658942935
 10
2.526184560665271
 20
2.620342348835528
  0
LWPOLYLINE
  5
A7
100
AcDbEntity
  8
USP-GEO
100
AcDbPolyline
 90
       15
 70
   128
 43
0.0
 10
2.709907074168203
 20
1.977313551575278
 10
2.572115189041003
 20
2.115105436702471
 10
2.709907074168203
 20
2.115105436702471
 10
2.618045817416735
 20
2.298827950205399
 10
2.526184560665271
 20
2.436619835332599
 10
2.526184560665271
 20
2.620342348835528
 10
2.434323303913807
 20
2.620342348835528
 10
2.434323303913807
 20
8.965658658942935
 10
2.526184560665271
 20
8.965658658942935
 10
2.526184560665271
 20
9.01158928731867
 10
2.618045817416735
 20
9.057519915694399
 10
2.618045817416735
 20
9.01158928731867
 10
2.572115189041003
 20
8.919728030567206
 10
2.526184560665271
 20
8.87379740219147
 10
2.526184560665271
 20
8.781936145440006
  0
LWPOLYLINE
  5
A8
100
AcDbEntity
  8
USP-GEO
100
AcDbPolyline
 90
       15
 70
   128
 43
0.0
 10
2.572115189041003
 20
9.195311800821599
 10
2.526184560665271
 20
9.149381172445863
 10
2.434323303913807
 20
9.01158928731867
 10
2.434323303913807
 20
8.965658658942935
 10
2.434323303913807
 20
2.620342348835528
 10
2.434323303913807
 20
2.482550463708328
 10
2.434323303913807
 20
2.344758578581135
 10
2.480253932289539
 20
2.252897321829671
 10
2.526184560665271
 20
2.161036065078207
 10
2.709907074168203
 20
1.977313551575278
 10
2.801768330919667
 20
1.977313551575278
 10
2.939560216046864
 20
1.793591038072342
 10
2.985490844422596
 20
1.701729781320878
 10
3.031421472798324
 20
1.609868524569414
 10
3.031421472798324
 20
1.518007267817949
  0
LWPOLYLINE
  5
A9
100
AcDbEntity
  8
USP-GEO
100
AcDbPolyline
 90
        3
 70
   128
 43
0.0
 10
2.939560216046864
 20
1.747660409696614
 10
2.893629587671131
 20
1.839521666448078
 10
2.709907074168203
 20
2.115105436702471
  0
LWPOLYLINE
  5
AA
100
AcDbEntity
  8
USP-GEO
100
AcDbPolyline
 90
        5
 70
   128
 43
0.0
 10
2.572115189041003
 20
2.115105436702471
 10
2.526184560665271
 20
2.206966693453935
 10
2.434323303913807
 20
2.436619835332599
 10
2.434323303913807
 20
2.620342348835528
 10
2.434323303913807
 20
2.482550463708328
  0
LWPOLYLINE
  5
AB
100
AcDbEntity
  8
USP-GEO
100
AcDbPolyline
 90
        2
 70
   128
 43
0.0
 10
2.526184560665271
 20
2.161036065078207
 10
2.526184560665271
 20
2.206966693453935
  0
LWPOLYLINE
  5
AC
100
AcDbEntity
  8
USP-GEO
100
AcDbPolyline
 90
        2
 70
   128
 43
0.0
 10
3.031421472798324
 20
0.2296531418786643
 10
3.031421472798324
 20
0.78082068238745
  0
LWPOLYLINE
  5
AD
100
AcDbEntity
  8
USP-GEO
100
AcDbPolyline
 90
        2
 70
   129
 43
0.0
 10
3.031421472798324
 20
1.518007267817949
 10
3.031421472798324
 20
0.8726819391389142
  0
LWPOLYLINE
  5
AE
100
AcDbEntity
  8
USP-GEO
100
AcDbPolyline
 90
        2
 70
   128
 43
0.0
 10
2.985490844422596
 20
1.655799152945149
 10
2.985490844422596
 20
1.701729781320878
  0
LWPOLYLINE
  5
AF
100
AcDbEntity
  8
USP-GEO
100
AcDbPolyline
 90
        2
 70
   129
 43
0.0
 10
2.987787375841381
 20
1.655799152945149
 10
2.985490844422596
 20
1.655799152945149
  0
LWPOLYLINE
  5
B0
100
AcDbEntity
  8
USP-GEO
100
AcDbPolyline
 90
        3
 70
   128
 43
0.0
 10
2.618045817416735
 20
9.01158928731867
 10
2.893629587671131
 20
9.379034314324528
 10
2.895926119089917
 20
9.379034314324528
  0
LWPOLYLINE
  5
B1
100
AcDbEntity
  8
USP-GEO
100
AcDbPolyline
 90
        7
 70
   128
 43
0.0
 10
2.618045817416735
 20
9.057519915694399
 10
2.709907074168203
 20
9.195311800821599
 10
2.572115189041003
 20
9.195311800821599
 10
2.709907074168203
 20
9.333103685948792
 10
2.801768330919667
 20
9.333103685948792
 10
2.939560216046864
 20
9.470895571075992
 10
2.941856747465649
 20
9.470895571075992
  0
LWPOLYLINE
  5
B2
100
AcDbEntity
  8
USP-GEO
100
AcDbPolyline
 90
        8
 70
   128
 43
0.0
 10
2.939560216046864
 20
9.470895571075992
 10
2.985490844422596
 20
9.562756827827456
 10
3.031421472798324
 20
9.65461808457892
 10
3.031421472798324
 20
9.700548712954649
 10
2.985490844422596
 20
9.608687456203185
 10
2.985490844422596
 20
9.562756827827456
 10
2.985490844422596
 20
9.470895571075992
 10
2.893629587671131
 20
9.379034314324528
  0
LWPOLYLINE
  5
B3
100
AcDbEntity
  8
USP-GEO
100
AcDbPolyline
 90
        4
 70
   128
 43
0.0
 10
2.987787375841381
 20
9.562756827827456
 10
2.985490844422596
 20
9.562756827827456
 10
2.939560216046864
 20
9.470895571075992
 10
2.801768330919667
 20
9.333103685948792
  0
LWPOLYLINE
  5
B4
100
AcDbEntity
  8
USP-GEO
100
AcDbPolyline
 90
       12
 70
   129
 43
0.0
 10
2.434323303913807
 20
10.71102253722076
 10
2.480253932289539
 20
10.71102253722076
 10
2.480253932289539
 20
10.75695316559649
 10
2.526184560665271
 20
10.75695316559649
 10
2.572115189041003
 20
10.71102253722076
 10
2.618045817416735
 20
10.71102253722076
 10
2.618045817416735
 20
10.66509190884502
 10
2.572115189041003
 20
10.6191612804693
 10
2.526184560665271
 20
10.57323065209356
 10
2.480253932289539
 20
10.57323065209356
 10
2.480253932289539
 20
10.6191612804693
 10
2.434323303913807
 20
10.66509190884502
  0
LWPOLYLINE
  5
B5
100
AcDbEntity
  8
USP-GEO
100
AcDbPolyline
 90
        2
 70
   128
 43
0.0
 10
2.434323303913807
 20
12.68833608879603
 10
2.526184560665271
 20
12.68833608879603
  0
LWPOLYLINE
  5
B6
100
AcDbEntity
  8
USP-GEO
100
AcDbPolyline
 90
       15
 70
   128
 43
0.0
 10
2.434323303913807
 20
12.5046135752931
 10
2.388392675538074
 20
12.55054420366883
 10
2.342462047162342
 20
12.59647483204457
 10
2.388392675538074
 20
12.6424054604203
 10
2.388392675538074
 20
12.68833608879603
 10
2.434323303913807
 20
12.68833608879603
 10
2.526184560665271
 20
12.68833608879603
 10
2.572115189041003
 20
12.68833608879603
 10
2.618045817416735
 20
12.6424054604203
 10
2.618045817416735
 20
12.59647483204457
 10
2.618045817416735
 20
12.55054420366883
 10
2.572115189041003
 20
12.55054420366883
 10
2.526184560665271
 20
12.5046135752931
 10
2.434323303913807
 20
12.5046135752931
 10
2.526184560665271
 20
12.5046135752931
  0
LWPOLYLINE
  5
B7
100
AcDbEntity
  8
USP-GEO
100
AcDbPolyline
 90
       13
 70
   129
 43
0.0
 10
2.388392675538074
 20
15.53833157951022
 10
2.388392675538074
 20
15.58426220788595
 10
2.342462047162342
 20
15.63019283626168
 10
2.388392675538074
 20
15.63019283626168
 10
2.388392675538074
 20
15.67612346463741
 10
2.434323303913807
 20
15.67612346463741
 10
2.526184560665271
 20
15.67612346463741
 10
2.572115189041003
 20
15.67612346463741
 10
2.618045817416735
 20
15.63019283626168
 10
2.618045817416735
 20
15.58426220788595
 10
2.572115189041003
 20
15.53833157951022
 10
2.526184560665271
 20
15.53833157951022
 10
2.434323303913807
 20
15.53833157951022
  0
LWPOLYLINE
  5
B8
100
AcDbEntity
  8
USP-GEO
100
AcDbPolyline
 90
        2
 70
   128
 43
0.0
 10
2.434323303913807
 20
15.67612346463741
 10
2.526184560665271
 20
15.67612346463741
  0
LWPOLYLINE
  5
B9
100
AcDbEntity
  8
USP-GEO
100
AcDbPolyline
 90
        2
 70
   128
 43
0.0
 10
2.526184560665271
 20
15.53833157951022
 10
2.434323303913807
 20
15.53833157951022
  0
LWPOLYLINE
  5
BA
100
AcDbEntity
  8
USP-GEO
100
AcDbPolyline
 90
        2
 70
   128
 43
0.0
 10
2.618045817416735
 20
15.63019283626168
 10
2.620342348835524
 20
15.63019283626168
  0
LWPOLYLINE
  5
BB
100
AcDbEntity
  8
USP-GEO
100
AcDbPolyline
 90
       13
 70
   129
 43
0.0
 10
2.388392675538074
 20
18.52841548677038
 10
2.388392675538074
 20
18.57434611514612
 10
2.342462047162342
 20
18.62027674352185
 10
2.388392675538074
 20
18.66620737189758
 10
2.434323303913807
 20
18.71213800027331
 10
2.526184560665271
 20
18.71213800027331
 10
2.572115189041003
 20
18.66620737189758
 10
2.618045817416735
 20
18.66620737189758
 10
2.618045817416735
 20
18.62027674352185
 10
2.618045817416735
 20
18.57434611514612
 10
2.572115189041003
 20
18.52841548677038
 10
2.526184560665271
 20
18.52841548677038
 10
2.434323303913807
 20
18.52841548677038
  0
LWPOLYLINE
  5
BC
100
AcDbEntity
  8
USP-GEO
100
AcDbPolyline
 90
        2
 70
   128
 43
0.0
 10
2.434323303913807
 20
18.71213800027331
 10
2.526184560665271
 20
18.71213800027331
  0
LWPOLYLINE
  5
BD
100
AcDbEntity
  8
USP-GEO
100
AcDbPolyline
 90
        2
 70
   128
 43
0.0
 10
2.526184560665271
 20
18.52841548677038
 10
2.434323303913807
 20
18.52841548677038
  0
LWPOLYLINE
  5
BE
100
AcDbEntity
  8
USP-GEO
100
AcDbPolyline
 90
        2
 70
   128
 43
0.0
 10
2.388392675538074
 20
18.66620737189758
 10
2.390689206956864
 20
18.66620737189758
  0
TEXT
  5
BF
100
AcDbEntity
  8
USP-TXT
100
AcDbText
 10
-1.207417699412968
 20
-2.392628958153249
 30
4.196879291630274
 40
0.296875
  1
STAD10 - FRONT VIEW
 72
     1
 11
1.53867605058703
 21
-2.392628958153249
 31
4.196879291630274
100
AcDbText
  0
LWPOLYLINE
  5
C0
100
AcDbEntity
  8
USP-GEO
100
AcDbPolyline
 90
       15
 70
   128
 43
0.0
 10
2.158739533659414
 20
26.06792813464683
 10
2.204670162035146
 20
26.11385876302256
 10
2.158739533659414
 20
26.1597893913983
 10
2.158739533659414
 20
26.20572001977403
 10
2.112808905283682
 20
26.20572001977403
 10
2.020947648532217
 20
26.20572001977403
 10
1.975017020156485
 20
26.20572001977403
 10
1.929086391780753
 20
26.1597893913983
 10
1.929086391780753
 20
26.11385876302256
 10
1.929086391780753
 20
26.06792813464683
 10
1.975017020156485
 20
26.06792813464683
 10
2.020947648532217
 20
26.0219975062711
 10
2.112808905283682
 20
26.0219975062711
 10
2.158739533659414
 20
26.06792813464683
 10
2.161036065078199
 20
26.06792813464683
  0
LWPOLYLINE
  5
C1
100
AcDbEntity
  8
USP-GEO
100
AcDbPolyline
 90
       15
 70
   128
 43
0.0
 10
2.158739533659414
 20
23.17200201555691
 10
2.204670162035146
 20
23.12607138718118
 10
2.158739533659414
 20
23.08014075880545
 10
2.158739533659414
 20
23.03191359901093
 10
2.112808905283682
 20
23.03191359901093
 10
2.020947648532217
 20
23.03191359901093
 10
1.975017020156485
 20
23.03191359901093
 10
1.929086391780753
 20
23.08014075880545
 10
1.929086391780753
 20
23.12607138718118
 10
1.929086391780753
 20
23.17200201555691
 10
1.975017020156485
 20
23.17200201555691
 10
2.020947648532217
 20
23.21793264393265
 10
2.112808905283682
 20
23.21793264393265
 10
2.158739533659414
 20
23.17200201555691
 10
2.161036065078199
 20
23.17200201555691
  0
LWPOLYLINE
  5
C2
100
AcDbEntity
  8
USP-GEO
100
AcDbPolyline
 90
       13
 70
   129
 43
0.0
 10
1.929086391780753
 20
29.10164613886395
 10
1.929086391780753
 20
29.14757676723968
 10
1.975017020156485
 20
29.19350739561541
 10
2.020947648532217
 20
29.19350739561541
 10
2.112808905283682
 20
29.19350739561541
 10
2.158739533659414
 20
29.19350739561541
 10
2.158739533659414
 20
29.14757676723968
 10
2.204670162035146
 20
29.10164613886395
 10
2.158739533659414
 20
29.10164613886395
 10
2.158739533659414
 20
29.05571551048822
 10
2.112808905283682
 20
29.05571551048822
 10
2.020947648532217
 20
29.05571551048822
 10
1.975017020156485
 20
29.05571551048822
  0
LWPOLYLINE
  5
C3
100
AcDbEntity
  8
USP-GEO
100
AcDbPolyline
 90
       15
 70
   128
 43
0.0
 10
2.158739533659414
 20
32.1812947714568
 10
2.204670162035146
 20
32.13536414308106
 10
2.158739533659414
 20
32.08943351470533
 10
2.158739533659414
 20
32.0435028863296
 10
2.112808905283682
 20
32.0435028863296
 10
2.020947648532217
 20
32.0435028863296
 10
1.975017020156485
 20
32.0435028863296
 10
1.929086391780753
 20
32.08943351470533
 10
1.929086391780753
 20
32.13536414308106
 10
1.929086391780753
 20
32.1812947714568
 10
1.975017020156485
 20
32.1812947714568
 10
2.020947648532217
 20
32.22722539983252
 10
2.112808905283682
 20
32.22722539983252
 10
2.158739533659414
 20
32.1812947714568
 10
2.161036065078199
 20
32.1812947714568
  0
LWPOLYLINE
  5
C4
100
AcDbEntity
  8
USP-GEO
100
AcDbPolyline
 90
       15
 70
   128
 43
0.0
 10
0.4593062837573214
 20
23.17200201555691
 10
0.5052369121330536
 20
23.21793264393265
 10
0.5970981688845179
 20
23.21793264393265
 10
0.64302879726025
 20
23.17200201555691
 10
0.6889594256359822
 20
23.17200201555691
 10
0.6889594256359822
 20
23.12607138718118
 10
0.6889594256359822
 20
23.08014075880545
 10
0.64302879726025
 20
23.03191359901093
 10
0.5970981688845179
 20
23.03191359901093
 10
0.5052369121330536
 20
23.03191359901093
 10
0.4593062837573214
 20
23.03191359901093
 10
0.4593062837573214
 20
23.08014075880545
 10
0.4133756553815893
 20
23.12607138718118
 10
0.4593062837573214
 20
23.17200201555691
 10
0.4616028151761072
 20
23.17200201555691
  0
LWPOLYLINE
  5
C5
100
AcDbEntity
  8
USP-GEO
100
AcDbPolyline
 90
        2
 70
   128
 43
0.0
 10
0.5052369121330536
 20
23.21793264393265
 10
0.5970981688845179
 20
23.21793264393265
  0
LWPOLYLINE
  5
C6
100
AcDbEntity
  8
USP-GEO
100
AcDbPolyline
 90
        2
 70
   128
 43
0.0
 10
0.5970981688845179
 20
23.03191359901093
 10
0.5052369121330536
 20
23.03191359901093
  0
LWPOLYLINE
  5
C7
100
AcDbEntity
  8
USP-GEO
100
AcDbPolyline
 90
       13
 70
   129
 43
0.0
 10
0.4593062837573214
 20
26.06792813464683
 10
0.4133756553815893
 20
26.11385876302256
 10
0.4593062837573214
 20
26.1597893913983
 10
0.4593062837573214
 20
26.20572001977403
 10
0.5052369121330536
 20
26.20572001977403
 10
0.5970981688845179
 20
26.20572001977403
 10
0.64302879726025
 20
26.20572001977403
 10
0.6889594256359822
 20
26.1597893913983
 10
0.6889594256359822
 20
26.11385876302256
 10
0.6889594256359822
 20
26.06792813464683
 10
0.64302879726025
 20
26.06792813464683
 10
0.5970981688845179
 20
26.0219975062711
 10
0.5052369121330536
 20
26.0219975062711
  0
LWPOLYLINE
  5
C8
100
AcDbEntity
  8
USP-GEO
100
AcDbPolyline
 90
        2
 70
   128
 43
0.0
 10
0.5052369121330536
 20
26.20572001977403
 10
0.5970981688845179
 20
26.20572001977403
  0
LWPOLYLINE
  5
C9
100
AcDbEntity
  8
USP-GEO
100
AcDbPolyline
 90
        2
 70
   128
 43
0.0
 10
0.5970981688845179
 20
26.0219975062711
 10
0.5052369121330536
 20
26.0219975062711
  0
LWPOLYLINE
  5
CA
100
AcDbEntity
  8
USP-GEO
100
AcDbPolyline
 90
        2
 70
   128
 43
0.0
 10
0.4593062837573214
 20
26.06792813464683
 10
0.4616028151761072
 20
26.06792813464683
  0
LWPOLYLINE
  5
CB
100
AcDbEntity
  8
USP-GEO
100
AcDbPolyline
 90
       14
 70
   129
 43
0.0
 10
0.9186125675146428
 20
21.5621334909875
 10
0.8726819391389106
 20
21.5621334909875
 10
0.8726819391389106
 20
21.60806411936323
 10
0.8726819391389106
 20
21.65399474773896
 10
0.9186125675146428
 20
21.6999253761147
 10
0.9645431958903749
 20
21.6999253761147
 10
1.010473824266107
 20
21.6999253761147
 10
1.056404452641842
 20
21.6999253761147
 10
1.102335081017574
 20
21.65399474773896
 10
1.102335081017574
 20
21.60806411936323
 10
1.102335081017574
 20
21.5621334909875
 10
1.056404452641842
 20
21.5621334909875
 10
1.010473824266107
 20
21.51620286261177
 10
0.9645431958903749
 20
21.51620286261177
  0
LWPOLYLINE
  5
CC
100
AcDbEntity
  8
USP-GEO
100
AcDbPolyline
 90
        2
 70
   128
 43
0.0
 10
1.010473824266107
 20
21.51620286261177
 10
0.9645431958903749
 20
21.51620286261177
  0
LWPOLYLINE
  5
CD
100
AcDbEntity
  8
USP-GEO
100
AcDbPolyline
 90
        2
 70
   128
 43
0.0
 10
0.9645431958903749
 20
21.6999253761147
 10
1.010473824266107
 20
21.6999253761147
  0
LWPOLYLINE
  5
CE
100
AcDbEntity
  8
USP-GEO
100
AcDbPolyline
 90
        2
 70
   128
 43
0.0
 10
2.020947648532217
 20
23.21793264393265
 10
2.112808905283682
 20
23.21793264393265
  0
LWPOLYLINE
  5
CF
100
AcDbEntity
  8
USP-GEO
100
AcDbPolyline
 90
        2
 70
   128
 43
0.0
 10
2.112808905283682
 20
23.03191359901093
 10
2.020947648532217
 20
23.03191359901093
  0
LWPOLYLINE
  5
D0
100
AcDbEntity
  8
USP-GEO
100
AcDbPolyline
 90
       12
 70
   129
 43
0.0
 10
0.9186125675146428
 20
24.54992086682888
 10
0.8726819391389106
 20
24.59585149520461
 10
0.8726819391389106
 20
24.64178212358035
 10
0.9186125675146428
 20
24.68771275195608
 10
0.9645431958903749
 20
24.68771275195608
 10
1.010473824266107
 20
24.68771275195608
 10
1.056404452641842
 20
24.68771275195608
 10
1.102335081017574
 20
24.64178212358035
 10
1.102335081017574
 20
24.59585149520461
 10
1.056404452641842
 20
24.54992086682888
 10
1.010473824266107
 20
24.54992086682888
 10
0.9645431958903749
 20
24.54992086682888
  0
LWPOLYLINE
  5
D1
100
AcDbEntity
  8
USP-GEO
100
AcDbPolyline
 90
        2
 70
   128
 43
0.0
 10
0.9645431958903749
 20
24.68771275195608
 10
1.010473824266107
 20
24.68771275195608
  0
LWPOLYLINE
  5
D2
100
AcDbEntity
  8
USP-GEO
100
AcDbPolyline
 90
        2
 70
   128
 43
0.0
 10
1.010473824266107
 20
24.54992086682888
 10
0.9645431958903749
 20
24.54992086682888
  0
LWPOLYLINE
  5
D3
100
AcDbEntity
  8
USP-GEO
100
AcDbPolyline
 90
       14
 70
   129
 43
0.0
 10
0.9186125675146428
 20
27.53770824267026
 10
0.8726819391389106
 20
27.583638871046
 10
0.8726819391389106
 20
27.62956949942173
 10
0.8726819391389106
 20
27.67550012779746
 10
0.9186125675146428
 20
27.67550012779746
 10
0.9645431958903749
 20
27.72143075617319
 10
1.010473824266107
 20
27.72143075617319
 10
1.056404452641842
 20
27.67550012779746
 10
1.102335081017574
 20
27.67550012779746
 10
1.102335081017574
 20
27.62956949942173
 10
1.102335081017574
 20
27.583638871046
 10
1.056404452641842
 20
27.53770824267026
 10
1.010473824266107
 20
27.53770824267026
 10
0.9645431958903749
 20
27.53770824267026
  0
LWPOLYLINE
  5
D4
100
AcDbEntity
  8
USP-GEO
100
AcDbPolyline
 90
        2
 70
   128
 43
0.0
 10
0.9645431958903749
 20
27.72143075617319
 10
1.010473824266107
 20
27.72143075617319
  0
LWPOLYLINE
  5
D5
100
AcDbEntity
  8
USP-GEO
100
AcDbPolyline
 90
        2
 70
   128
 43
0.0
 10
1.010473824266107
 20
27.53770824267026
 10
0.9645431958903749
 20
27.53770824267026
  0
LWPOLYLINE
  5
D6
100
AcDbEntity
  8
USP-GEO
100
AcDbPolyline
 90
        2
 70
   128
 43
0.0
 10
2.020947648532217
 20
26.20572001977403
 10
2.112808905283682
 20
26.20572001977403
  0
LWPOLYLINE
  5
D7
100
AcDbEntity
  8
USP-GEO
100
AcDbPolyline
 90
        2
 70
   128
 43
0.0
 10
2.112808905283682
 20
26.0219975062711
 10
2.020947648532217
 20
26.0219975062711
  0
LWPOLYLINE
  5
D8
100
AcDbEntity
  8
USP-GEO
100
AcDbPolyline
 90
       13
 70
   129
 43
0.0
 10
0.4593062837573214
 20
29.10164613886395
 10
0.4133756553815893
 20
29.10164613886395
 10
0.4593062837573214
 20
29.14757676723968
 10
0.4593062837573214
 20
29.19350739561541
 10
0.5052369121330536
 20
29.19350739561541
 10
0.5970981688845179
 20
29.19350739561541
 10
0.64302879726025
 20
29.19350739561541
 10
0.6889594256359822
 20
29.14757676723968
 10
0.6889594256359822
 20
29.10164613886395
 10
0.64302879726025
 20
29.05571551048822
 10
0.5970981688845179
 20
29.05571551048822
 10
0.5052369121330536
 20
29.05571551048822
 10
0.4593062837573214
 20
29.05571551048822
  0
LWPOLYLINE
  5
D9
100
AcDbEntity
  8
USP-GEO
100
AcDbPolyline
 90
        2
 70
   128
 43
0.0
 10
0.5052369121330536
 20
29.19350739561541
 10
0.5970981688845179
 20
29.19350739561541
  0
LWPOLYLINE
  5
DA
100
AcDbEntity
  8
USP-GEO
100
AcDbPolyline
 90
        2
 70
   128
 43
0.0
 10
0.5970981688845179
 20
29.05571551048822
 10
0.5052369121330536
 20
29.05571551048822
  0
LWPOLYLINE
  5
DB
100
AcDbEntity
  8
USP-GEO
100
AcDbPolyline
 90
       13
 70
   129
 43
0.0
 10
0.5970981688845179
 20
32.22722539983252
 10
0.64302879726025
 20
32.1812947714568
 10
0.6889594256359822
 20
32.1812947714568
 10
0.6889594256359822
 20
32.13536414308106
 10
0.6889594256359822
 20
32.08943351470533
 10
0.64302879726025
 20
32.0435028863296
 10
0.5970981688845179
 20
32.0435028863296
 10
0.5052369121330536
 20
32.0435028863296
 10
0.4593062837573214
 20
32.0435028863296
 10
0.4593062837573214
 20
32.08943351470533
 10
0.4133756553815893
 20
32.13536414308106
 10
0.4593062837573214
 20
32.1812947714568
 10
0.5052369121330536
 20
32.22722539983252
  0
LWPOLYLINE
  5
DC
100
AcDbEntity
  8
USP-GEO
100
AcDbPolyline
 90
        2
 70
   128
 43
0.0
 10
0.5052369121330536
 20
32.22722539983252
 10
0.5970981688845179
 20
32.22722539983252
  0
LWPOLYLINE
  5
DD
100
AcDbEntity
  8
USP-GEO
100
AcDbPolyline
 90
        2
 70
   128
 43
0.0
 10
0.5970981688845179
 20
32.0435028863296
 10
0.5052369121330536
 20
32.0435028863296
  0
LWPOLYLINE
  5
DE
100
AcDbEntity
  8
USP-GEO
100
AcDbPolyline
 90
        2
 70
   128
 43
0.0
 10
0.4593062837573214
 20
32.1812947714568
 10
0.4616028151761072
 20
32.1812947714568
  0
LWPOLYLINE
  5
DF
100
AcDbEntity
  8
USP-GEO
100
AcDbPolyline
 90
       14
 70
   129
 43
0.0
 10
1.010473824266107
 20
30.71151466343336
 10
0.9645431958903749
 20
30.71151466343336
 10
0.9186125675146428
 20
30.71151466343336
 10
0.8726819391389106
 20
30.66558403505763
 10
0.8726819391389106
 20
30.61965340668189
 10
0.8726819391389106
 20
30.57372277830617
 10
0.9186125675146428
 20
30.57372277830617
 10
0.9645431958903749
 20
30.52779214993043
 10
1.010473824266107
 20
30.52779214993043
 10
1.056404452641842
 20
30.57372277830617
 10
1.102335081017574
 20
30.57372277830617
 10
1.102335081017574
 20
30.61965340668189
 10
1.102335081017574
 20
30.66558403505763
 10
1.056404452641842
 20
30.71151466343336
  0
LWPOLYLINE
  5
E0
100
AcDbEntity
  8
USP-GEO
100
AcDbPolyline
 90
        2
 70
   128
 43
0.0
 10
0.9645431958903749
 20
30.71151466343336
 10
1.010473824266107
 20
30.71151466343336
  0
LWPOLYLINE
  5
E1
100
AcDbEntity
  8
USP-GEO
100
AcDbPolyline
 90
        2
 70
   128
 43
0.0
 10
1.010473824266107
 20
30.52779214993043
 10
0.9645431958903749
 20
30.52779214993043
  0
LWPOLYLINE
  5
E2
100
AcDbEntity
  8
USP-GEO
100
AcDbPolyline
 90
        2
 70
   128
 43
0.0
 10
2.020947648532217
 20
29.19350739561541
 10
2.112808905283682
 20
29.19350739561541
  0
LWPOLYLINE
  5
E3
100
AcDbEntity
  8
USP-GEO
100
AcDbPolyline
 90
        2
 70
   128
 43
0.0
 10
2.112808905283682
 20
29.05571551048822
 10
2.020947648532217
 20
29.05571551048822
  0
LWPOLYLINE
  5
E4
100
AcDbEntity
  8
USP-GEO
100
AcDbPolyline
 90
        2
 70
   128
 43
0.0
 10
2.020947648532217
 20
32.22722539983252
 10
2.112808905283682
 20
32.22722539983252
  0
LWPOLYLINE
  5
E5
100
AcDbEntity
  8
USP-GEO
100
AcDbPolyline
 90
        2
 70
   128
 43
0.0
 10
2.112808905283682
 20
32.0435028863296
 10
2.020947648532217
 20
32.0435028863296
  0
LWPOLYLINE
  5
E6
100
AcDbEntity
  8
USP-GEO
100
AcDbPolyline
 90
       13
 70
   129
 43
0.0
 10
2.388392675538074
 20
21.5621334909875
 10
2.342462047162342
 20
21.60806411936323
 10
2.388392675538074
 20
21.65399474773896
 10
2.388392675538074
 20
21.6999253761147
 10
2.434323303913807
 20
21.6999253761147
 10
2.526184560665271
 20
21.6999253761147
 10
2.572115189041003
 20
21.6999253761147
 10
2.618045817416735
 20
21.65399474773896
 10
2.618045817416735
 20
21.60806411936323
 10
2.618045817416735
 20
21.5621334909875
 10
2.572115189041003
 20
21.5621334909875
 10
2.526184560665271
 20
21.51620286261177
 10
2.434323303913807
 20
21.51620286261177
  0
LWPOLYLINE
  5
E7
100
AcDbEntity
  8
USP-GEO
100
AcDbPolyline
 90
        2
 70
   128
 43
0.0
 10
2.434323303913807
 20
21.6999253761147
 10
2.526184560665271
 20
21.6999253761147
  0
LWPOLYLINE
  5
E8
100
AcDbEntity
  8
USP-GEO
100
AcDbPolyline
 90
        2
 70
   128
 43
0.0
 10
2.526184560665271
 20
21.51620286261177
 10
2.434323303913807
 20
21.51620286261177
  0
LWPOLYLINE
  5
E9
100
AcDbEntity
  8
USP-GEO
100
AcDbPolyline
 90
       15
 70
   128
 43
0.0
 10
2.618045817416735
 20
24.59585149520461
 10
2.618045817416735
 20
24.64178212358035
 10
2.572115189041003
 20
24.68771275195608
 10
2.526184560665271
 20
24.68771275195608
 10
2.434323303913807
 20
24.68771275195608
 10
2.388392675538074
 20
24.68771275195608
 10
2.388392675538074
 20
24.64178212358035
 10
2.342462047162342
 20
24.59585149520461
 10
2.388392675538074
 20
24.59585149520461
 10
2.388392675538074
 20
24.54992086682888
 10
2.434323303913807
 20
24.54992086682888
 10
2.526184560665271
 20
24.54992086682888
 10
2.572115189041003
 20
24.54992086682888
 10
2.618045817416735
 20
24.59585149520461
 10
2.620342348835524
 20
24.59585149520461
  0
LWPOLYLINE
  5
EA
100
AcDbEntity
  8
USP-GEO
100
AcDbPolyline
 90
        2
 70
   128
 43
0.0
 10
2.434323303913807
 20
24.68771275195608
 10
2.526184560665271
 20
24.68771275195608
  0
LWPOLYLINE
  5
EB
100
AcDbEntity
  8
USP-GEO
100
AcDbPolyline
 90
        2
 70
   128
 43
0.0
 10
2.526184560665271
 20
24.54992086682888
 10
2.434323303913807
 20
24.54992086682888
  0
LWPOLYLINE
  5
EC
100
AcDbEntity
  8
USP-GEO
100
AcDbPolyline
 90
       13
 70
   129
 43
0.0
 10
2.388392675538074
 20
27.53770824267026
 10
2.388392675538074
 20
27.583638871046
 10
2.342462047162342
 20
27.62956949942173
 10
2.388392675538074
 20
27.67550012779746
 10
2.434323303913807
 20
27.72143075617319
 10
2.526184560665271
 20
27.72143075617319
 10
2.572115189041003
 20
27.67550012779746
 10
2.618045817416735
 20
27.67550012779746
 10
2.618045817416735
 20
27.62956949942173
 10
2.618045817416735
 20
27.583638871046
 10
2.572115189041003
 20
27.53770824267026
 10
2.526184560665271
 20
27.53770824267026
 10
2.434323303913807
 20
27.53770824267026
  0
LWPOLYLINE
  5
ED
100
AcDbEntity
  8
USP-GEO
100
AcDbPolyline
 90
        2
 70
   128
 43
0.0
 10
2.434323303913807
 20
27.72143075617319
 10
2.526184560665271
 20
27.72143075617319
  0
LWPOLYLINE
  5
EE
100
AcDbEntity
  8
USP-GEO
100
AcDbPolyline
 90
        2
 70
   128
 43
0.0
 10
2.526184560665271
 20
27.53770824267026
 10
2.434323303913807
 20
27.53770824267026
  0
LWPOLYLINE
  5
EF
100
AcDbEntity
  8
USP-GEO
100
AcDbPolyline
 90
        2
 70
   128
 43
0.0
 10
2.388392675538074
 20
27.67550012779746
 10
2.390689206956864
 20
27.67550012779746
  0
LWPOLYLINE
  5
F0
100
AcDbEntity
  8
USP-GEO
100
AcDbPolyline
 90
       13
 70
   129
 43
0.0
 10
2.342462047162342
 20
30.61965340668189
 10
2.388392675538074
 20
30.57372277830617
 10
2.434323303913807
 20
30.52779214993043
 10
2.526184560665271
 20
30.52779214993043
 10
2.572115189041003
 20
30.57372277830617
 10
2.618045817416735
 20
30.57372277830617
 10
2.618045817416735
 20
30.61965340668189
 10
2.618045817416735
 20
30.66558403505763
 10
2.572115189041003
 20
30.71151466343336
 10
2.526184560665271
 20
30.71151466343336
 10
2.434323303913807
 20
30.71151466343336
 10
2.388392675538074
 20
30.71151466343336
 10
2.388392675538074
 20
30.66558403505763
  0
LWPOLYLINE
  5
F1
100
AcDbEntity
  8
USP-GEO
100
AcDbPolyline
 90
        2
 70
   128
 43
0.0
 10
2.434323303913807
 20
30.71151466343336
 10
2.526184560665271
 20
30.71151466343336
  0
LWPOLYLINE
  5
F2
100
AcDbEntity
  8
USP-GEO
100
AcDbPolyline
 90
        2
 70
   128
 43
0.0
 10
2.526184560665271
 20
30.52779214993043
 10
2.434323303913807
 20
30.52779214993043
  0
ENDBLK
  5
F4
100
AcDbEntity
  8
0
100
AcDbBlockEnd
  0
BLOCK
  5
12A
100
AcDbEntity
  8
0
100
AcDbBlockBegin
  2
STAD10_S
 70
     0
 10
0.0
 20
0.0
 30
0.0
  3
STAD10_S
  1

  0
LWPOLYLINE
  5
F7
100
AcDbEntity
  8
USP-GEO
100
AcDbPolyline
 90
        6
 70
   128
 43
0.0
 10
5.102892812543849
 20
32.1812947714568
 10
5.011031555792385
 20
32.1812947714568
 10
5.011031555792385
 20
9.838340598081849
 10
5.011031555792385
 20
32.1812947714568
 10
5.011031555792385
 20
32.54873979846265
 10
5.011031555792385
 20
32.1812947714568
  0
LWPOLYLINE
  5
F8
100
AcDbEntity
  8
USP-GEO
100
AcDbPolyline
 90
        6
 70
   129
 43
0.0
 10
5.102892812543849
 20
32.54873979846265
 10
5.102892812543849
 20
32.1812947714568
 10
5.102892812543849
 20
9.792409969706113
 10
5.102892812543849
 20
32.1812947714568
 10
5.102892812543849
 20
32.54873979846265
 10
5.011031555792385
 20
32.54873979846265
  0
LWPOLYLINE
  5
F9
100
AcDbEntity
  8
USP-GEO
100
AcDbPolyline
 90
        4
 70
   128
 43
0.0
 10
1.931382923199542
 20
2.620342348835528
 10
2.436619835332592
 20
2.436619835332599
 10
4.735447785537992
 20
8.781936145440006
 10
4.273844970361885
 20
8.965658658942935
  0
LWPOLYLINE
  5
FA
100
AcDbEntity
  8
USP-GEO
100
AcDbPolyline
 90
        5
 70
   129
 43
0.0
 10
1.977313551575271
 20
1.518007267817949
 10
2.023244179951007
 20
1.701729781320878
 10
2.069174808326735
 20
1.793591038072342
 10
2.069174808326735
 20
1.701729781320878
 10
2.023244179951007
 20
1.609868524569414
  0
LWPOLYLINE
  5
FB
100
AcDbEntity
  8
USP-GEO
100
AcDbPolyline
 90
        6
 70
   128
 43
0.0
 10
1.563937896193678
 20
0.0918612567514643
 10
1.609868524569414
 20
0.2296531418786643
 10
1.518007267817949
 20
0.0
 10
1.609868524569414
 20
0.2296531418786643
 10
1.839521666448078
 20
0.1377918851272
 10
2.298827950205399
 20
1.426146011066485
  0
LWPOLYLINE
  5
FC
100
AcDbEntity
  8
USP-GEO
100
AcDbPolyline
 90
       16
 70
   128
 43
0.0
 10
2.115105436702471
 20
1.701729781320878
 10
2.115105436702471
 20
1.655799152945149
 10
2.069174808326735
 20
1.472076639442221
 10
1.977313551575271
 20
1.518007267817949
 10
1.563937896193678
 20
0.3674450270058571
 10
0.1377918851271929
 20
0.8726819391389142
 10
0.0918612567514643
 20
0.78082068238745
 10
1.609868524569414
 20
0.2296531418786643
 10
2.069174808326735
 20
1.472076639442221
 10
1.609868524569414
 20
0.2296531418786643
 10
1.839521666448078
 20
0.1377918851272
 10
2.298827950205399
 20
1.426146011066485
 10
2.390689206956864
 20
1.655799152945149
 10
2.436619835332592
 20
1.793591038072342
 10
2.436619835332592
 20
1.839521666448078
 10
2.252897321829664
 20
1.931382923199542
  0
LWPOLYLINE
  5
FD
100
AcDbEntity
  8
USP-GEO
100
AcDbPolyline
 90
        7
 70
   128
 43
0.0
 10
2.115105436702471
 20
1.931382923199542
 10
2.069174808326735
 20
1.793591038072342
 10
2.069174808326735
 20
1.701729781320878
 10
2.023244179951007
 20
1.609868524569414
 10
1.977313551575271
 20
1.518007267817949
 10
2.023244179951007
 20
1.701729781320878
 10
2.069174808326735
 20
1.793591038072342
  0
LWPOLYLINE
  5
FE
100
AcDbEntity
  8
USP-GEO
100
AcDbPolyline
 90
        2
 70
   129
 43
0.0
 10
1.931382923199542
 20
2.620342348835528
 10
4.273844970361885
 20
8.965658658942935
  0
LWPOLYLINE
  5
FF
100
AcDbEntity
  8
USP-GEO
100
AcDbPolyline
 90
        6
 70
   128
 43
0.0
 10
2.069174808326735
 20
2.436619835332599
 10
1.931382923199542
 20
2.620342348835528
 10
2.069174808326735
 20
2.436619835332599
 10
2.115105436702471
 20
2.298827950205399
 10
2.344758578581128
 20
2.206966693453935
 10
2.206966693453935
 20
1.839521666448078
  0
LWPOLYLINE
  5
100
100
AcDbEntity
  8
USP-GEO
100
AcDbPolyline
 90
        4
 70
   128
 43
0.0
 10
1.563937896193678
 20
0.0918612567514643
 10
1.609868524569414
 20
0.2296531418786643
 10
0.0918612567514643
 20
0.78082068238745
 10
0.0
 20
0.5511675405087857
  0
LWPOLYLINE
  5
101
100
AcDbEntity
  8
USP-GEO
100
AcDbPolyline
 90
        5
 70
   128
 43
0.0
 10
1.977313551575271
 20
1.518007267817949
 10
1.563937896193678
 20
0.3674450270058571
 10
0.1377918851271929
 20
0.8726819391389142
 10
0.0918612567514643
 20
0.78082068238745
 10
0.0
 20
0.5511675405087857
  0
LWPOLYLINE
  5
102
100
AcDbEntity
  8
USP-GEO
100
AcDbPolyline
 90
        2
 70
   129
 43
0.0
 10
1.518007267817949
 20
0.0
 10
0.0
 20
0.5511675405087857
  0
LWPOLYLINE
  5
103
100
AcDbEntity
  8
USP-GEO
100
AcDbPolyline
 90
        2
 70
   129
 43
0.0
 10
1.566234427612471
 20
0.0918612567514643
 10
1.563937896193678
 20
0.0918612567514643
  0
LWPOLYLINE
  5
104
100
AcDbEntity
  8
USP-GEO
100
AcDbPolyline
 90
       13
 70
   128
 43
0.0
 10
4.735447785537992
 20
8.781936145440006
 10
2.436619835332592
 20
2.436619835332599
 10
2.390689206956864
 20
2.344758578581135
 10
2.344758578581128
 20
2.252897321829671
 10
2.344758578581128
 20
2.206966693453935
 10
2.206966693453935
 20
1.839521666448078
 10
2.161036065078199
 20
1.701729781320878
 10
2.115105436702471
 20
1.609868524569414
 10
2.069174808326735
 20
1.472076639442221
 10
2.298827950205399
 20
1.426146011066485
 10
2.390689206956864
 20
1.655799152945149
 10
2.436619835332592
 20
1.793591038072342
 10
2.436619835332592
 20
1.839521666448078
  0
LWPOLYLINE
  5
105
100
AcDbEntity
  8
USP-GEO
100
AcDbPolyline
 90
        4
 70
   128
 43
0.0
 10
2.344758578581128
 20
2.206966693453935
 10
2.344758578581128
 20
2.252897321829671
 10
2.390689206956864
 20
2.344758578581135
 10
2.436619835332592
 20
2.436619835332599
  0
LWPOLYLINE
  5
106
100
AcDbEntity
  8
USP-GEO
100
AcDbPolyline
 90
       12
 70
   128
 43
0.0
 10
2.117401968121257
 20
1.655799152945149
 10
2.115105436702471
 20
1.655799152945149
 10
2.069174808326735
 20
1.472076639442221
 10
2.115105436702471
 20
1.609868524569414
 10
2.161036065078199
 20
1.701729781320878
 10
2.206966693453935
 20
1.839521666448078
 10
2.115105436702471
 20
1.839521666448078
 10
2.115105436702471
 20
1.655799152945149
 10
2.115105436702471
 20
1.793591038072342
 10
2.115105436702471
 20
1.839521666448078
 10
2.115105436702471
 20
2.115105436702471
 10
2.115105436702471
 20
2.298827950205399
  0
LWPOLYLINE
  5
107
100
AcDbEntity
  8
USP-GEO
100
AcDbPolyline
 90
        3
 70
   129
 43
0.0
 10
2.069174808326735
 20
1.793591038072342
 10
2.115105436702471
 20
1.793591038072342
 10
2.115105436702471
 20
1.931382923199542
  0
LWPOLYLINE
  5
108
100
AcDbEntity
  8
USP-GEO
100
AcDbPolyline
 90
        2
 70
   128
 43
0.0
 10
2.069174808326735
 20
2.344758578581135
 10
2.115105436702471
 20
2.252897321829671
  0
LWPOLYLINE
  5
109
100
AcDbEntity
  8
USP-GEO
100
AcDbPolyline
 90
        6
 70
   128
 43
0.0
 10
2.482550463708328
 20
4.184280245029206
 10
2.390689206956864
 20
4.138349616653478
 10
2.344758578581128
 20
4.046488359902014
 10
2.344758578581128
 20
4.000557731526278
 10
2.344758578581128
 20
3.770904589647621
 10
2.390689206956864
 20
3.770904589647621
  0
LWPOLYLINE
  5
10A
100
AcDbEntity
  8
USP-GEO
100
AcDbPolyline
 90
        3
 70
   128
 43
0.0
 10
2.436619835332592
 20
4.000557731526278
 10
2.390689206956864
 20
4.000557731526278
 10
2.344758578581128
 20
4.000557731526278
  0
LWPOLYLINE
  5
10B
100
AcDbEntity
  8
USP-GEO
100
AcDbPolyline
 90
        2
 70
   128
 43
0.0
 10
2.344758578581128
 20
3.770904589647621
 10
2.344758578581128
 20
3.633112704520421
  0
LWPOLYLINE
  5
10C
100
AcDbEntity
  8
USP-GEO
100
AcDbPolyline
 90
        3
 70
   128
 43
0.0
 10
2.528481092084057
 20
4.138349616653478
 10
2.482550463708328
 20
4.184280245029206
 10
2.528481092084057
 20
4.184280245029206
  0
LWPOLYLINE
  5
10D
100
AcDbEntity
  8
USP-GEO
100
AcDbPolyline
 90
        6
 70
   128
 43
0.0
 10
2.758134233962721
 20
3.355232402847242
 10
2.804064862338449
 20
3.447093659598706
 10
2.849995490714185
 20
3.633112704520421
 10
2.941856747465649
 20
3.908696474774814
 10
2.849995490714185
 20
3.633112704520421
 10
2.852292022132971
 20
3.633112704520421
  0
LWPOLYLINE
  5
10E
100
AcDbEntity
  8
USP-GEO
100
AcDbPolyline
 90
        4
 70
   128
 43
0.0
 10
2.760430765381507
 20
3.355232402847242
 10
2.758134233962721
 20
3.355232402847242
 10
2.804064862338449
 20
3.447093659598706
 10
2.849995490714185
 20
3.633112704520421
  0
LWPOLYLINE
  5
10F
100
AcDbEntity
  8
USP-GEO
100
AcDbPolyline
 90
        2
 70
   129
 43
0.0
 10
2.944153278884435
 20
3.908696474774814
 10
2.941856747465649
 20
3.908696474774814
  0
LWPOLYLINE
  5
110
100
AcDbEntity
  8
USP-GEO
100
AcDbPolyline
 90
        2
 70
   129
 43
0.0
 10
2.990083907260171
 20
4.046488359902014
 10
2.987787375841378
 20
4.046488359902014
  0
LWPOLYLINE
  5
111
100
AcDbEntity
  8
USP-GEO
100
AcDbPolyline
 90
        3
 70
   128
 43
0.0
 10
3.171509889344306
 20
6.023801911477285
 10
3.125579260968578
 20
6.023801911477285
 10
3.217440517720042
 20
6.069732539853021
  0
LWPOLYLINE
  5
112
100
AcDbEntity
  8
USP-GEO
100
AcDbPolyline
 90
        6
 70
   128
 43
0.0
 10
3.125579260968578
 20
6.023801911477285
 10
3.079648632592842
 20
6.023801911477285
 10
3.033718004217114
 20
5.929644123307035
 10
3.033718004217114
 20
5.883713494931299
 10
2.987787375841378
 20
5.654060353052642
 10
3.033718004217114
 20
5.654060353052642
  0
LWPOLYLINE
  5
113
100
AcDbEntity
  8
USP-GEO
100
AcDbPolyline
 90
        3
 70
   128
 43
0.0
 10
3.125579260968578
 20
5.837782866555571
 10
3.079648632592842
 20
5.883713494931299
 10
3.033718004217114
 20
5.883713494931299
  0
LWPOLYLINE
  5
114
100
AcDbEntity
  8
USP-GEO
100
AcDbPolyline
 90
        2
 70
   128
 43
0.0
 10
2.987787375841378
 20
5.654060353052642
 10
3.033718004217114
 20
5.516268467925442
  0
LWPOLYLINE
  5
115
100
AcDbEntity
  8
USP-GEO
100
AcDbPolyline
 90
        2
 70
   129
 43
0.0
 10
3.449390191017492
 20
5.240684697671049
 10
3.447093659598706
 20
5.240684697671049
  0
LWPOLYLINE
  5
116
100
AcDbEntity
  8
USP-GEO
100
AcDbPolyline
 90
        2
 70
   128
 43
0.0
 10
3.447093659598706
 20
5.240684697671049
 10
3.449390191017492
 20
5.240684697671049
  0
LWPOLYLINE
  5
117
100
AcDbEntity
  8
USP-GEO
100
AcDbPolyline
 90
        2
 70
   129
 43
0.0
 10
3.633112704520421
 20
5.791852238179835
 10
3.630816173101635
 20
5.791852238179835
  0
LWPOLYLINE
  5
118
100
AcDbEntity
  8
USP-GEO
100
AcDbPolyline
 90
        2
 70
   128
 43
0.0
 10
4.643586528786528
 20
9.103450544070135
 10
4.503498112240542
 20
9.01158928731867
  0
LWPOLYLINE
  5
119
100
AcDbEntity
  8
USP-GEO
100
AcDbPolyline
 90
       21
 70
   128
 43
0.0
 10
4.457567483864814
 20
9.01158928731867
 10
4.273844970361885
 20
8.965658658942935
 10
4.411636855489078
 20
9.01158928731867
 10
4.597655900410799
 20
9.057519915694399
 10
4.827309042289456
 20
9.01158928731867
 10
4.781378413913728
 20
8.919728030567206
 10
4.781378413913728
 20
8.87379740219147
 10
4.735447785537992
 20
8.781936145440006
 10
4.781378413913728
 20
8.87379740219147
 10
4.781378413913728
 20
8.919728030567206
 10
4.827309042289456
 20
9.01158928731867
 10
4.965100927416656
 20
9.379034314324528
 10
5.011031555792385
 20
9.470895571075992
 10
5.011031555792385
 20
9.608687456203185
 10
5.056962184168121
 20
9.700548712954649
 10
5.102892812543849
 20
9.792409969706113
 10
5.056962184168121
 20
9.700548712954649
 10
4.965100927416656
 20
9.562756827827456
 10
4.873239670665192
 20
9.379034314324528
 10
4.919170299040921
 20
9.470895571075992
 10
4.873239670665192
 20
9.470895571075992
  0
LWPOLYLINE
  5
11A
100
AcDbEntity
  8
USP-GEO
100
AcDbPolyline
 90
        6
 70
   128
 43
0.0
 10
3.814538686604564
 20
7.906957674882306
 10
3.768608058228828
 20
7.906957674882306
 10
3.722677429853099
 20
7.815096418130842
 10
3.722677429853099
 20
7.769165789755113
 10
3.676746801477364
 20
7.539512647876449
 10
3.722677429853099
 20
7.539512647876449
  0
LWPOLYLINE
  5
11B
100
AcDbEntity
  8
USP-GEO
100
AcDbPolyline
 90
        3
 70
   128
 43
0.0
 10
3.814538686604564
 20
7.723235161379378
 10
3.768608058228828
 20
7.769165789755113
 10
3.722677429853099
 20
7.769165789755113
  0
LWPOLYLINE
  5
11C
100
AcDbEntity
  8
USP-GEO
100
AcDbPolyline
 90
        2
 70
   128
 43
0.0
 10
3.676746801477364
 20
7.539512647876449
 10
3.676746801477364
 20
7.401720762749249
  0
LWPOLYLINE
  5
11D
100
AcDbEntity
  8
USP-GEO
100
AcDbPolyline
 90
        3
 70
   128
 43
0.0
 10
3.860469314980292
 20
7.906957674882306
 10
3.814538686604564
 20
7.906957674882306
 10
3.906399943356028
 20
7.952888303258042
  0
LWPOLYLINE
  5
11E
100
AcDbEntity
  8
USP-GEO
100
AcDbPolyline
 90
        2
 70
   129
 43
0.0
 10
4.368002758532135
 20
7.815096418130842
 10
4.365706227113349
 20
7.815096418130842
  0
LWPOLYLINE
  5
11F
100
AcDbEntity
  8
USP-GEO
100
AcDbPolyline
 90
        2
 70
   129
 43
0.0
 10
4.322072130156399
 20
7.677304533003649
 10
4.319775598737614
 20
7.677304533003649
  0
LWPOLYLINE
  5
120
100
AcDbEntity
  8
USP-GEO
100
AcDbPolyline
 90
        2
 70
   128
 43
0.0
 10
4.365706227113349
 20
7.815096418130842
 10
4.368002758532135
 20
7.815096418130842
  0
LWPOLYLINE
  5
121
100
AcDbEntity
  8
USP-GEO
100
AcDbPolyline
 90
        2
 70
   129
 43
0.0
 10
4.368002758532135
 20
7.815096418130842
 10
4.365706227113349
 20
7.815096418130842
  0
LWPOLYLINE
  5
122
100
AcDbEntity
  8
USP-GEO
100
AcDbPolyline
 90
        2
 70
   129
 43
0.0
 10
4.365706227113349
 20
7.769165789755113
 10
4.319775598737614
 20
7.677304533003649
  0
LWPOLYLINE
  5
123
100
AcDbEntity
  8
USP-GEO
100
AcDbPolyline
 90
        2
 70
   128
 43
0.0
 10
4.411636855489078
 20
9.01158928731867
 10
4.273844970361885
 20
8.965658658942935
  0
LWPOLYLINE
  5
124
100
AcDbEntity
  8
USP-GEO
100
AcDbPolyline
 90
       14
 70
   128
 43
0.0
 10
4.965100927416656
 20
9.51682619945172
 10
5.011031555792385
 20
9.562756827827456
 10
5.056962184168121
 20
9.700548712954649
 10
4.965100927416656
 20
9.746479341330385
 10
4.919170299040921
 20
9.65461808457892
 10
4.919170299040921
 20
9.562756827827456
 10
4.873239670665192
 20
9.470895571075992
 10
4.827309042289456
 20
9.333103685948792
 10
4.873239670665192
 20
9.470895571075992
 10
4.919170299040921
 20
9.562756827827456
 10
4.919170299040921
 20
9.65461808457892
 10
4.965100927416656
 20
9.746479341330385
 10
5.011031555792385
 20
9.838340598081849
 10
4.965100927416656
 20
9.746479341330385
  0
LWPOLYLINE
  5
125
100
AcDbEntity
  8
USP-GEO
100
AcDbPolyline
 90
        5
 70
   128
 43
0.0
 10
4.827309042289456
 20
9.01158928731867
 10
4.965100927416656
 20
9.379034314324528
 10
4.873239670665192
 20
9.379034314324528
 10
4.689517157162264
 20
9.195311800821599
 10
4.597655900410799
 20
9.057519915694399
  0
LWPOLYLINE
  5
126
100
AcDbEntity
  8
USP-GEO
100
AcDbPolyline
 90
        2
 70
   128
 43
0.0
 10
4.873239670665192
 20
9.424964942700256
 10
4.873239670665192
 20
9.379034314324528
  0
LWPOLYLINE
  5
127
100
AcDbEntity
  8
USP-GEO
100
AcDbPolyline
 90
        4
 70
   128
 43
0.0
 10
4.965100927416656
 20
9.379034314324528
 10
5.011031555792385
 20
9.470895571075992
 10
5.011031555792385
 20
9.608687456203185
 10
5.056962184168121
 20
9.700548712954649
  0
LWPOLYLINE
  5
128
100
AcDbEntity
  8
USP-GEO
100
AcDbPolyline
 90
        3
 70
   128
 43
0.0
 10
5.011031555792385
 20
9.562756827827456
 10
4.965100927416656
 20
9.562756827827456
 10
4.919170299040921
 20
9.470895571075992
  0
TEXT
  5
129
100
AcDbEntity
  8
USP-TXT
100
AcDbText
 10
-0.9211097897534878
 20
-2.392628958153249
 30
4.196879291630274
 40
0.296875
  1
STAD10 - SIDE VIEW
 72
     1
 11
1.627067293579845
 21
-2.392628958153249
 31
4.196879291630274
100
AcDbText
  0
ENDBLK
  5
12B
100
AcDbEntity
  8
0
100
AcDbBlockEnd
  0
ENDSEC
  0
SECTION
  2
ENTITIES
  0
INSERT
  5
3
100
AcDbEntity
  8
USP
100
AcDbBlockReference
  2
STAD10_T
 10
0.9251926353881287
 20
41.01250564828453
 30
0.0
  0
INSERT
  5
54
100
AcDbEntity
  8
USP
100
AcDbBlockReference
  2
STAD10_F
 10
0.9251926353881287
 20
2.394033309968861
 30
0.0
  0
INSERT
  5
F5
100
AcDbEntity
  8
USP
100
AcDbBlockReference
  2
STAD10_S
 10
11.31010771114118
 20
2.394033309968861
 30
0.0
  0
ENDSEC
  0
SECTION
  2
OBJECTS
  0
DICTIONARY
  5
144
102
{ACAD_XDICTIONARY
360
145
102
}
100
AcDbDictionary
  3
ACAD_GROUP
350
142
  3
ACAD_MLINESTYLE
350
143
  0
DICTIONARY
  5
9
100
AcDbDictionary
280
     1
  3
ACAD_XREC_ROUNDTRIP
360
A
  0
DICTIONARY
  5
4E
100
AcDbDictionary
280
     1
  3
ACAD_XREC_ROUNDTRIP
360
4F
  0
DICTIONARY
  5
12C
100
AcDbDictionary
280
     1
  3
ACAD_LAYOUTSELFREF
360
12D
  0
DICTIONARY
  5
131
100
AcDbDictionary
280
     1
  3
ACAD_LAYOUTSELFREF
360
132
  0
DICTIONARY
  5
145
100
AcDbDictionary
280
     1
  3
ACAD_XREC_ROUNDTRIP
360
146
  0
DICTIONARY
  5
142
102
{ACAD_REACTORS
330
144
102
}
100
AcDbDictionary
  0
DICTIONARY
  5
143
102
{ACAD_REACTORS
330
144
102
}
100
AcDbDictionary
  3
STANDARD
350
147
  0
XRECORD
  5
A
102
{ACAD_REACTORS
330
9
102
}
100
AcDbXrecord
102
EXTNAMES
  1
USP-GEO
  2
USP-Geo
  0
XRECORD
  5
4F
102
{ACAD_REACTORS
330
4E
102
}
100
AcDbXrecord
102
EXTNAMES
  1
USP-TXT
  2
USP-Txt
  0
XRECORD
  5
12D
102
{ACAD_REACTORS
330
12C
102
}
100
AcDbXrecord
340
18
  0
XRECORD
  5
132
102
{ACAD_REACTORS
330
131
102
}
100
AcDbXrecord
340
15
  0
XRECORD
  5
146
102
{ACAD_REACTORS
330
145
102
}
100
AcDbXrecord
102
EXTNAMES
  1
ACDBVARIABLEDICTIONARY
  2
AcDbVariableDictionary
  0
MLINESTYLE
  5
147
102
{ACAD_REACTORS
330
143
102
}
100
AcDbMlineStyle
  2
STANDARD
 70
     0
  3

 62
     0
 51
90.0
 52
90.0
 71
     2
 49
0.5
 62
   256
  6
BYLAYER
 49
-0.5
 62
   256
  6
BYLAYER
  0
ENDSEC
  0
EOF
