  0
SECTION
  2
HEADER
  9
$ACADVER
  1
AC1014
  9
$ACADMAINTVER
 70
     9
  9
$DWGCODEPAGE
  3
ANSI_1252
  9
$INSBASE
 10
0.0
 20
0.0
 30
0.0
  9
$EXTMIN
 10
0.0006320364689572
 20
0.0007549695763274
 30
-0.000000000000002
  9
$EXTMAX
 10
20.71253892512695
 20
24.73899146748332
 30
-0.0000000000000007
  9
$LIMMIN
 10
0.0
 20
0.0
  9
$LIMMAX
 10
12.0
 20
9.0
  9
$ORTHOMODE
 70
     0
  9
$REGENMODE
 70
     1
  9
$FILLMODE
 70
     1
  9
$QTEXTMODE
 70
     0
  9
$MIRRTEXT
 70
     1
  9
$DRAGMODE
 70
     2
  9
$LTSCALE
 40
1.0
  9
$OSMODE
 70
    37
  9
$ATTMODE
 70
     1
  9
$TEXTSIZE
 40
0.5
  9
$TRACEWID
 40
0.05
  9
$TEXTSTYLE
  7
STANDARD
  9
$CLAYER
  8
0
  9
$CELTYPE
  6
BYLAYER
  9
$CECOLOR
 62
   256
  9
$CELTSCALE
 40
1.0
  9
$DELOBJ
 70
     1
  9
$DISPSILH
 70
     0
  9
$DIMSCALE
 40
1.0
  9
$DIMASZ
 40
0.18
  9
$DIMEXO
 40
0.0625
  9
$DIMDLI
 40
0.38
  9
$DIMRND
 40
0.0
  9
$DIMDLE
 40
0.0
  9
$DIMEXE
 40
0.18
  9
$DIMTP
 40
0.0
  9
$DIMTM
 40
0.0
  9
$DIMTXT
 40
0.18
  9
$DIMCEN
 40
0.09
  9
$DIMTSZ
 40
0.0
  9
$DIMTOL
 70
     0
  9
$DIMLIM
 70
     0
  9
$DIMTIH
 70
     1
  9
$DIMTOH
 70
     1
  9
$DIMSE1
 70
     0
  9
$DIMSE2
 70
     0
  9
$DIMTAD
 70
     0
  9
$DIMZIN
 70
     0
  9
$DIMBLK
  1

  9
$DIMASO
 70
     1
  9
$DIMSHO
 70
     1
  9
$DIMPOST
  1

  9
$DIMAPOST
  1

  9
$DIMALT
 70
     0
  9
$DIMALTD
 70
     2
  9
$DIMALTF
 40
25.4
  9
$DIMLFAC
 40
1.0
  9
$DIMTOFL
 70
     0
  9
$DIMTVP
 40
0.0
  9
$DIMTIX
 70
     0
  9
$DIMSOXD
 70
     0
  9
$DIMSAH
 70
     0
  9
$DIMBLK1
  1

  9
$DIMBLK2
  1

  9
$DIMSTYLE
  2
STANDARD
  9
$DIMCLRD
 70
     0
  9
$DIMCLRE
 70
     0
  9
$DIMCLRT
 70
     0
  9
$DIMTFAC
 40
1.0
  9
$DIMGAP
 40
0.09
  9
$DIMJUST
 70
     0
  9
$DIMSD1
 70
     0
  9
$DIMSD2
 70
     0
  9
$DIMTOLJ
 70
     1
  9
$DIMTZIN
 70
     0
  9
$DIMALTZ
 70
     0
  9
$DIMALTTZ
 70
     0
  9
$DIMFIT
 70
     3
  9
$DIMUPT
 70
     0
  9
$DIMUNIT
 70
     2
  9
$DIMDEC
 70
     4
  9
$DIMTDEC
 70
     4
  9
$DIMALTU
 70
     2
  9
$DIMALTTD
 70
     2
  9
$DIMTXSTY
  7
STANDARD
  9
$DIMAUNIT
 70
     0
  9
$LUNITS
 70
     2
  9
$LUPREC
 70
     4
  9
$SKETCHINC
 40
0.1
  9
$FILLETRAD
 40
0.5
  9
$AUNITS
 70
     0
  9
$AUPREC
 70
     0
  9
$MENU
  1
.
  9
$ELEVATION
 40
0.0
  9
$PELEVATION
 40
0.0
  9
$THICKNESS
 40
0.0
  9
$LIMCHECK
 70
     0
  9
$BLIPMODE
 70
     0
  9
$CHAMFERA
 40
0.5
  9
$CHAMFERB
 40
0.5
  9
$CHAMFERC
 40
1.0
  9
$CHAMFERD
 40
0.0
  9
$SKPOLY
 70
     0
  9
$TDCREATE
 40
2451667.537949421
  9
$TDUPDATE
 40
2452759.746489791
  9
$TDINDWG
 40
0.0153959954
  9
$TDUSRTIMER
 40
0.0153959954
  9
$USRTIMER
 70
     1
  9
$ANGBASE
 50
0.0
  9
$ANGDIR
 70
     0
  9
$PDMODE
 70
     0
  9
$PDSIZE
 40
0.0
  9
$PLINEWID
 40
0.0
  9
$COORDS
 70
     1
  9
$SPLFRAME
 70
     0
  9
$SPLINETYPE
 70
     6
  9
$SPLINESEGS
 70
     8
  9
$ATTDIA
 70
     0
  9
$ATTREQ
 70
     1
  9
$HANDLING
 70
     1
  9
$HANDSEED
  5
91
  9
$SURFTAB1
 70
     6
  9
$SURFTAB2
 70
     6
  9
$SURFTYPE
 70
     6
  9
$SURFU
 70
     6
  9
$SURFV
 70
     6
  9
$UCSNAME
  2

  9
$UCSORG
 10
0.0
 20
0.0
 30
0.0
  9
$UCSXDIR
 10
1.0
 20
0.0
 30
0.0
  9
$UCSYDIR
 10
0.0
 20
1.0
 30
0.0
  9
$PUCSNAME
  2

  9
$PUCSORG
 10
0.0
 20
0.0
 30
0.0
  9
$PUCSXDIR
 10
1.0
 20
0.0
 30
0.0
  9
$PUCSYDIR
 10
0.0
 20
1.0
 30
0.0
  9
$USERI1
 70
     0
  9
$USERI2
 70
     0
  9
$USERI3
 70
     0
  9
$USERI4
 70
     0
  9
$USERI5
 70
     0
  9
$USERR1
 40
0.0
  9
$USERR2
 40
0.0
  9
$USERR3
 40
0.0
  9
$USERR4
 40
0.0
  9
$USERR5
 40
0.0
  9
$WORLDVIEW
 70
     1
  9
$SHADEDGE
 70
     3
  9
$SHADEDIF
 70
    70
  9
$TILEMODE
 70
     1
  9
$MAXACTVP
 70
    48
  9
$PINSBASE
 10
0.0
 20
0.0
 30
0.0
  9
$PLIMCHECK
 70
     0
  9
$PEXTMIN
 10
1.000000000000000E+20
 20
1.000000000000000E+20
 30
1.000000000000000E+20
  9
$PEXTMAX
 10
-1.000000000000000E+20
 20
-1.000000000000000E+20
 30
-1.000000000000000E+20
  9
$PLIMMIN
 10
0.0
 20
0.0
  9
$PLIMMAX
 10
12.0
 20
9.0
  9
$UNITMODE
 70
     0
  9
$VISRETAIN
 70
     1
  9
$PLINEGEN
 70
     0
  9
$PSLTSCALE
 70
     1
  9
$TREEDEPTH
 70
  3020
  9
$PICKSTYLE
 70
     1
  9
$CMLSTYLE
  2
STANDARD
  9
$CMLJUST
 70
     0
  9
$CMLSCALE
 40
1.0
  9
$PROXYGRAPHICS
 70
     1
  9
$MEASUREMENT
 70
     0
  0
ENDSEC
  0
SECTION
  2
CLASSES
  0
CLASS
  1
ACDBDICTIONARYWDFLT
  2
AcDbDictionaryWithDefault
  3
AutoCAD 2000
 90
        0
280
     1
281
     0
  0
CLASS
  1
ACDBPLACEHOLDER
  2
AcDbPlaceHolder
  3
AutoCAD 2000
 90
        0
280
     1
281
     0
  0
CLASS
  1
LAYOUT
  2
AcDbLayout
  3
AutoCAD 2000
 90
        0
280
     1
281
     0
  0
CLASS
  1
LONG_TRANSACTION
  2
AcDbLongTransaction
  3
AutoCAD 2000
 90
        0
280
     1
281
     0
  0
CLASS
  1
LWPOLYLINE
  2
AcDbPolyline
  3
"AutoCAD"
 90
        0
280
     1
281
     1
  0
CLASS
  1
HATCH
  2
AcDbHatch
  3
"ACAD_SEDONA"
 90
        0
280
     1
281
     1
  0
CLASS
  1
XRECORD
  2
AcDbXrecord
  3
"<Built In>"
 90
        0
280
     0
281
     0
  0
CLASS
  1
LONG_TRANSACTION
  2
AcDbLongTransaction
  3
AutoCAD 2000
 90
        0
280
     1
281
     0
  0
CLASS
  1
LWPOLYLINE
  2
AcDbPolyline
  3
"AutoCAD"
 90
        0
280
     1
281
     1
  0
CLASS
  1
HATCH
  2
AcDbHatch
  3
"ACAD_SEDONA"
 90
        0
280
     1
281
     1
  0
CLASS
  1
XRECORD
  2
AcDbXrecord
  3
"<Built In>"
 90
        0
280
     0
281
     0
  0
CLASS
  1
LONG_TRANSACTION
  2
AcDbLongTransaction
  3
AutoCAD 2000
 90
        0
280
     1
281
     0
  0
CLASS
  1
LWPOLYLINE
  2
AcDbPolyline
  3
"AutoCAD"
 90
        0
280
     1
281
     1
  0
CLASS
  1
HATCH
  2
AcDbHatch
  3
"ACAD_SEDONA"
 90
        0
280
     1
281
     1
  0
CLASS
  1
XRECORD
  2
AcDbXrecord
  3
"<Built In>"
 90
        0
280
     0
281
     0
  0
CLASS
  1
LONG_TRANSACTION
  2
AcDbLongTransaction
  3
AutoCAD 2000
 90
        0
280
     1
281
     0
  0
CLASS
  1
LWPOLYLINE
  2
AcDbPolyline
  3
"AutoCAD"
 90
        0
280
     1
281
     1
  0
CLASS
  1
HATCH
  2
AcDbHatch
  3
"ACAD_SEDONA"
 90
        0
280
     1
281
     1
  0
CLASS
  1
XRECORD
  2
AcDbXrecord
  3
"<Built In>"
 90
        0
280
     0
281
     0
  0
CLASS
  1
LONG_TRANSACTION
  2
AcDbLongTransaction
  3
AutoCAD 2000
 90
        0
280
     1
281
     0
  0
CLASS
  1
LWPOLYLINE
  2
AcDbPolyline
  3
"AutoCAD"
 90
        0
280
     1
281
     1
  0
CLASS
  1
HATCH
  2
AcDbHatch
  3
"ACAD_SEDONA"
 90
        0
280
     1
281
     1
  0
CLASS
  1
XRECORD
  2
AcDbXrecord
  3
"<Built In>"
 90
        0
280
     0
281
     0
  0
CLASS
  1
DICTIONARYVAR
  2
AcDbDictionaryVar
  3
"AutoCAD"
 90
        0
280
     0
281
     0
  0
CLASS
  1
LONG_TRANSACTION
  2
AcDbLongTransaction
  3
AutoCAD 2000
 90
        0
280
     0
281
     0
  0
CLASS
  1
LWPOLYLINE
  2
AcDbPolyline
  3
"AutoCAD"
 90
        0
280
     0
281
     1
  0
CLASS
  1
HATCH
  2
AcDbHatch
  3
"ACAD_SEDONA"
 90
        0
280
     0
281
     1
  0
CLASS
  1
XRECORD
  2
AcDbXrecord
  3
"<Built In>"
 90
        0
280
     0
281
     0
  0
CLASS
  1
LONG_TRANSACTION
  2
AcDbLongTransaction
  3
AutoCAD 2000
 90
        0
280
     0
281
     0
  0
CLASS
  1
LWPOLYLINE
  2
AcDbPolyline
  3
"AutoCAD"
 90
        0
280
     0
281
     1
  0
CLASS
  1
HATCH
  2
AcDbHatch
  3
"ACAD_SEDONA"
 90
        0
280
     0
281
     1
  0
CLASS
  1
XRECORD
  2
AcDbXrecord
  3
"<Built In>"
 90
        0
280
     0
281
     0
  0
ENDSEC
  0
SECTION
  2
TABLES
  0
TABLE
  2
VPORT
  5
71
100
AcDbSymbolTable
 70
     1
  0
VPORT
  5
8D
100
AcDbSymbolTableRecord
100
AcDbViewportTableRecord
  2
*ACTIVE
 70
     0
 10
0.0
 20
0.0
 11
1.0
 21
1.0
 12
10.35705972789876
 22
12.6751227724267
 13
0.0
 23
0.0
 14
0.5
 24
0.5
 15
0.5
 25
0.5
 16
0.0
 26
0.0
 36
1.0
 17
0.0
 27
0.0
 37
0.0
 40
25.53095810360904
 41
1.457627118644067
 42
50.0
 43
0.0
 44
0.0
 50
0.0
 51
0.0
 71
     0
 72
   100
 73
     1
 74
     3
 75
     0
 76
     0
 77
     0
 78
     0
  0
ENDTAB
  0
TABLE
  2
LTYPE
  5
6A
100
AcDbSymbolTable
 70
     2
  0
LTYPE
  5
6B
102
{ACAD_XDICTIONARY
360
6C
102
}
100
AcDbSymbolTableRecord
100
AcDbLinetypeTableRecord
  2
BYBLOCK
 70
     0
  3

 72
    65
 73
     0
 40
0.0
  0
LTYPE
  5
6D
102
{ACAD_XDICTIONARY
360
6E
102
}
100
AcDbSymbolTableRecord
100
AcDbLinetypeTableRecord
  2
BYLAYER
 70
     0
  3

 72
    65
 73
     0
 40
0.0
  0
LTYPE
  5
5
102
{ACAD_XDICTIONARY
360
6
102
}
100
AcDbSymbolTableRecord
100
AcDbLinetypeTableRecord
  2
CONTINUOUS
 70
     0
  3
Solid line
 72
    65
 73
     0
 40
0.0
  0
LTYPE
  5
11
100
AcDbSymbolTableRecord
100
AcDbLinetypeTableRecord
  2
HIDDEN
 70
     0
  3
Hidden __ __ __ __ __ __ __ __ __ __ __ __ __ _
 72
    65
 73
     2
 40
0.375
 49
0.25
 74
     0
 49
-0.125
 74
     0
  0
ENDTAB
  0
TABLE
  2
LAYER
  5
68
100
AcDbSymbolTable
 70
     5
  0
LAYER
  5
26
100
AcDbSymbolTableRecord
100
AcDbLayerTableRecord
  2
0
 70
     0
 62
     7
  6
CONTINUOUS
  0
LAYER
  5
4
100
AcDbSymbolTableRecord
100
AcDbLayerTableRecord
  2
USP
 70
     0
 62
     7
  6
CONTINUOUS
  0
LAYER
  5
10
100
AcDbSymbolTableRecord
100
AcDbLayerTableRecord
  2
USP-HID
 70
     0
 62
     7
  6
HIDDEN
  0
LAYER
  5
D
100
AcDbSymbolTableRecord
100
AcDbLayerTableRecord
  2
USP-GEO
 70
     0
 62
     7
  6
CONTINUOUS
  0
LAYER
  5
9
100
AcDbSymbolTableRecord
100
AcDbLayerTableRecord
  2
USP-TXT
 70
     0
 62
     7
  6
CONTINUOUS
  0
ENDTAB
  0
TABLE
  2
STYLE
  5
69
100
AcDbSymbolTable
 70
     1
  0
STYLE
  5
A
102
{ACAD_XDICTIONARY
360
B
102
}
100
AcDbSymbolTableRecord
100
AcDbTextStyleTableRecord
  2
STANDARD
 70
     0
 40
0.0
 41
1.0
 50
0.0
 71
     0
 42
0.5
  3
txt
  4

  0
ENDTAB
  0
TABLE
  2
VIEW
  5
6F
100
AcDbSymbolTable
 70
     0
  0
ENDTAB
  0
TABLE
  2
UCS
  5
70
100
AcDbSymbolTable
 70
     0
  0
ENDTAB
  0
TABLE
  2
APPID
  5
73
100
AcDbSymbolTable
 70
     1
  0
APPID
  5
74
100
AcDbSymbolTableRecord
100
AcDbRegAppTableRecord
  2
ACAD
 70
     0
  0
ENDTAB
  0
TABLE
  2
DIMSTYLE
  5
75
100
AcDbSymbolTable
 70
     1
  0
DIMSTYLE
105
7E
102
{ACAD_XDICTIONARY
360
7F
102
}
100
AcDbSymbolTableRecord
100
AcDbDimStyleTableRecord
  2
STANDARD
 70
     0
  3

  4

  5

  6

  7

 40
1.0
 41
0.18
 42
0.0625
 43
0.38
 44
0.18
 45
0.0
 46
0.0
 47
0.0
 48
0.0
140
0.18
141
0.09
142
0.0
143
25.4
144
1.0
145
0.0
146
1.0
147
0.09
 71
     0
 72
     0
 73
     1
 74
     1
 75
     0
 76
     0
 77
     0
 78
     0
170
     0
171
     2
172
     0
173
     0
174
     0
175
     0
176
     0
177
     0
178
     0
270
     2
271
     4
272
     4
273
     2
274
     2
340
A
275
     0
280
     0
281
     0
282
     0
283
     1
284
     0
285
     0
286
     0
287
     3
288
     0
  0
ENDTAB
  0
TABLE
  2
BLOCK_RECORD
  5
1
100
AcDbSymbolTable
 70
     3
  0
BLOCK_RECORD
  5
2
102
{ACAD_XDICTIONARY
360
5F
102
}
100
AcDbSymbolTableRecord
100
AcDbBlockTableRecord
  2
*MODEL_SPACE
  0
BLOCK_RECORD
  5
63
102
{ACAD_XDICTIONARY
360
64
102
}
100
AcDbSymbolTableRecord
100
AcDbBlockTableRecord
  2
*PAPER_SPACE
  0
BLOCK_RECORD
  5
7
100
AcDbSymbolTableRecord
100
AcDbBlockTableRecord
  2
PHXU1714_T
  0
BLOCK_RECORD
  5
29
100
AcDbSymbolTableRecord
100
AcDbBlockTableRecord
  2
PHXU1714_F
  0
BLOCK_RECORD
  5
4A
100
AcDbSymbolTableRecord
100
AcDbBlockTableRecord
  2
PHXU1714_S
  0
ENDTAB
  0
ENDSEC
  0
SECTION
  2
BLOCKS
  0
BLOCK
  5
61
100
AcDbEntity
  8
0
100
AcDbBlockBegin
  2
*MODEL_SPACE
 70
     0
 10
0.0
 20
0.0
 30
0.0
  3
*MODEL_SPACE
  1

  0
ENDBLK
  5
62
100
AcDbEntity
  8
0
100
AcDbBlockEnd
  0
BLOCK
  5
66
100
AcDbEntity
 67
     1
  8
0
100
AcDbBlockBegin
  2
*PAPER_SPACE
 70
     0
 10
0.0
 20
0.0
 30
0.0
  3
*PAPER_SPACE
  1

  0
ENDBLK
  5
67
100
AcDbEntity
 67
     1
  8
0
100
AcDbBlockEnd
  0
BLOCK
  5
25
100
AcDbEntity
  8
0
100
AcDbBlockBegin
  2
PHXU1714_T
 70
     0
 10
0.0
 20
0.0
 30
0.0
  3
PHXU1714_T
  1

  0
TEXT
  5
8
100
AcDbEntity
  8
USP-TXT
100
AcDbText
 10
0.4479166666666741
 20
-1.185908426682374
 30
0.0
 40
0.5
  1
PHXU1714 - TOP VIEW
 72
     1
 11
5.031250000000007
 21
-1.185908426682374
 31
0.0
100
AcDbText
  0
LINE
  5
C
100
AcDbEntity
  8
USP-GEO
100
AcDbLine
 10
0.0
 20
3.25
 30
0.0
 11
5.0
 21
3.25
 31
0.0
  0
LINE
  5
E
100
AcDbEntity
  8
USP-GEO
100
AcDbLine
 10
0.0
 20
5.92929999999999
 30
0.0
 11
4.999999999999996
 21
5.92929999999999
 31
0.0
  0
LINE
  5
F
100
AcDbEntity
  8
USP-HID
100
AcDbLine
 10
0.0
 20
3.429000000000002
 30
0.0
 11
5.0
 21
3.429000000000002
 31
0.0
  0
LINE
  5
12
100
AcDbEntity
  8
USP-GEO
100
AcDbLine
 10
0.0
 20
3.25
 30
0.0
 11
0.0
 21
5.92929999999999
 31
0.0
  0
CIRCLE
  5
13
100
AcDbEntity
  8
USP-GEO
100
AcDbCircle
 10
0.3749999999999964
 20
5.554299999999983
 30
0.0
 40
0.0975000000000001
  0
LINE
  5
14
100
AcDbEntity
  8
USP-GEO
100
AcDbLine
 10
5.062500000000003
 20
5.92929999999999
 30
0.0
 11
10.0625
 21
5.929300000000004
 31
0.0
  0
LINE
  5
15
100
AcDbEntity
  8
USP-GEO
100
AcDbLine
 10
10.0625
 20
3.249999999999992
 30
0.0
 11
5.062500000000007
 21
3.25
 31
0.0
  0
LINE
  5
16
100
AcDbEntity
  8
USP-HID
100
AcDbLine
 10
10.0625
 20
3.428999999999994
 30
0.0
 11
5.062500000000007
 21
3.429000000000002
 31
0.0
  0
LINE
  5
17
100
AcDbEntity
  8
USP-GEO
100
AcDbLine
 10
5.062500000000007
 20
3.25
 30
0.0
 11
5.062500000000003
 21
5.929299999999983
 31
0.0
  0
LINE
  5
18
100
AcDbEntity
  8
USP-GEO
100
AcDbLine
 10
4.999999999999996
 20
5.929299999999983
 30
0.0
 11
4.999999999999996
 21
3.25
 31
0.0
  0
LINE
  5
19
100
AcDbEntity
  8
USP-GEO
100
AcDbLine
 10
5.937500000000014
 20
0.0
 30
0.0
 11
4.125
 21
0.0
 31
0.0
  0
LINE
  5
1A
100
AcDbEntity
  8
USP-GEO
100
AcDbLine
 10
4.125
 20
3.25
 30
0.0
 11
4.125000000000003
 21
0.0
 31
0.0
  0
LINE
  5
1B
100
AcDbEntity
  8
USP-GEO
100
AcDbLine
 10
3.945699999999998
 20
3.25
 30
0.0
 11
3.945699999999998
 21
0.0
 31
0.0
  0
LINE
  5
1C
100
AcDbEntity
  8
USP-GEO
100
AcDbLine
 10
4.125
 20
0.0
 30
0.0
 11
3.945699999999995
 21
0.0
 31
0.0
  0
LINE
  5
1D
100
AcDbEntity
  8
USP-GEO
100
AcDbLine
 10
5.062500000000007
 20
3.429999999999999
 30
0.0
 11
5.0
 21
3.429999999999999
 31
0.0
  0
LINE
  5
1E
100
AcDbEntity
  8
USP-GEO
100
AcDbLine
 10
5.937500000000007
 20
3.25
 30
0.0
 11
5.937500000000007
 21
0.0
 31
0.0
  0
LINE
  5
1F
100
AcDbEntity
  8
USP-GEO
100
AcDbLine
 10
6.116800000000008
 20
0.0
 30
0.0
 11
6.116800000000004
 21
3.25
 31
0.0
  0
LINE
  5
20
100
AcDbEntity
  8
USP-GEO
100
AcDbLine
 10
5.93750000000001
 20
0.0
 30
0.0
 11
6.116800000000008
 21
0.0
 31
0.0
  0
CIRCLE
  5
21
100
AcDbEntity
  8
USP-GEO
100
AcDbCircle
 10
4.1875
 20
5.179299999999983
 30
0.0
 40
0.0975000000000001
  0
CIRCLE
  5
22
100
AcDbEntity
  8
USP-GEO
100
AcDbCircle
 10
5.687500000000007
 20
5.179300000000004
 30
0.0
 40
0.0975000000000001
  0
LINE
  5
23
100
AcDbEntity
  8
USP-GEO
100
AcDbLine
 10
10.0625
 20
5.929300000000004
 30
0.0
 11
10.0625
 21
3.249999999999992
 31
0.0
  0
CIRCLE
  5
24
100
AcDbEntity
  8
USP-GEO
100
AcDbCircle
 10
9.68750000000001
 20
5.554300000000004
 30
0.0
 40
0.0975000000000001
  0
ENDBLK
  5
27
100
AcDbEntity
  8
0
100
AcDbBlockEnd
  0
BLOCK
  5
47
100
AcDbEntity
  8
0
100
AcDbBlockBegin
  2
PHXU1714_F
 70
     0
 10
0.0
 20
0.0
 30
0.0
  3
PHXU1714_F
  1

  0
TEXT
  5
2A
100
AcDbEntity
  8
USP-TXT
100
AcDbText
 10
-0.0520833333333268
 20
-1.185908426682374
 30
0.0000000000000001
 40
0.5
  1
PHXU1714 - FRONT VIEW
 72
     1
 11
5.031250000000003
 21
-1.185908426682374
 31
0.0000000000000001
100
AcDbText
  0
LINE
  5
2B
100
AcDbEntity
  8
USP-GEO
100
AcDbLine
 10
0.0
 20
14.35859999999999
 30
-0.0000000000000005
 11
5.0
 21
14.35859999999999
 31
0.0000000000000001
210
0.0
220
1.0
230
0.0
  0
LINE
  5
2C
100
AcDbEntity
  8
USP-GEO
100
AcDbLine
 10
3.945699999999998
 20
11.1793
 30
0.0
 11
0.0
 21
11.17929999999998
 31
-0.0000000000000005
210
0.0
220
1.0
230
0.0
  0
LINE
  5
2D
100
AcDbEntity
  8
USP-HID
100
AcDbLine
 10
0.0
 20
14.1796
 30
-0.0000000000000005
 11
5.0
 21
14.1796
 31
0.0000000000000001
210
0.0
220
1.0
230
0.0
  0
LINE
  5
2E
100
AcDbEntity
  8
USP-GEO
100
AcDbLine
 10
0.0
 20
11.17929999999998
 30
-0.0000000000000005
 11
0.0
 21
14.35859999999999
 31
-0.0000000000000005
210
0.0
220
1.0
230
0.0
  0
CIRCLE
  5
2F
100
AcDbEntity
  8
USP-GEO
100
AcDbCircle
 10
0.6875
 20
11.55429999999997
 30
-0.0000000000000004
 40
0.0975000000000001
  0
CIRCLE
  5
30
100
AcDbEntity
  8
USP-GEO
100
AcDbCircle
 10
0.9375
 20
12.61679999999997
 30
-0.0000000000000004
 40
0.0975000000000001
  0
LINE
  5
31
100
AcDbEntity
  8
USP-GEO
100
AcDbLine
 10
5.93750000000001
 20
13.11680000000001
 30
0.0000000000000002
 11
5.937500000000017
 21
0.1792999999999978
 31
0.0000000000000002
210
0.0
220
1.0
230
0.0
  0
LINE
  5
32
100
AcDbEntity
  8
USP-GEO
100
AcDbLine
 10
6.116800000000015
 20
0.0
 30
0.0000000000000003
 11
6.116800000000008
 21
13.11680000000001
 31
0.0000000000000003
210
0.0
220
1.0
230
0.0
  0
LINE
  5
33
100
AcDbEntity
  8
USP-GEO
100
AcDbLine
 10
4.125000000000003
 20
0.1793000000000013
 30
0.0
 11
4.124999999999996
 21
13.11680000000001
 31
0.0
210
0.0
220
1.0
230
0.0
  0
LINE
  5
34
100
AcDbEntity
  8
USP-GEO
100
AcDbLine
 10
3.945699999999998
 20
13.11680000000001
 30
0.0
 11
3.945699999999998
 21
0.0
 31
0.0
210
0.0
220
1.0
230
0.0
  0
LINE
  5
35
100
AcDbEntity
  8
USP-GEO
100
AcDbLine
 10
3.945699999999998
 20
0.0
 30
0.0
 11
6.116800000000008
 21
0.0
 31
0.0000000000000003
210
0.0
220
1.0
230
0.0
  0
LINE
  5
36
100
AcDbEntity
  8
USP-GEO
100
AcDbLine
 10
5.937500000000014
 20
0.1792999999999978
 30
0.0000000000000002
 11
4.125
 21
0.1792999999999978
 31
0.0
210
0.0
220
1.0
230
0.0
  0
CIRCLE
  5
37
100
AcDbEntity
  8
USP-GEO
100
AcDbCircle
 10
9.12500000000001
 20
12.61680000000001
 30
0.0000000000000006
 40
0.0975000000000001
  0
LINE
  5
38
100
AcDbEntity
  8
USP-GEO
100
AcDbLine
 10
10.0625
 20
14.35859999999998
 30
0.0000000000000007
 11
5.062500000000007
 21
14.35859999999998
 31
0.0000000000000001
210
0.0
220
1.0
230
0.0
  0
LINE
  5
39
100
AcDbEntity
  8
USP-GEO
100
AcDbLine
 10
10.06250000000001
 20
11.1793
 30
0.0000000000000007
 11
6.116800000000008
 21
11.1793
 31
0.0000000000000003
210
0.0
220
1.0
230
0.0
  0
LINE
  5
3A
100
AcDbEntity
  8
USP-HID
100
AcDbLine
 10
10.0625
 20
14.17959999999998
 30
0.0000000000000007
 11
5.062500000000007
 21
14.17959999999998
 31
0.0000000000000001
210
0.0
220
1.0
230
0.0
  0
LINE
  5
3B
100
AcDbEntity
  8
USP-GEO
100
AcDbLine
 10
6.187500000000007
 20
13.14805
 30
0.0000000000000003
 11
5.062500000000007
 21
13.14805
 31
0.0000000000000001
210
0.0
220
1.0
230
0.0
  0
LINE
  5
3C
100
AcDbEntity
  8
USP-GEO
100
AcDbLine
 10
5.062500000000007
 20
13.14805
 30
0.0000000000000001
 11
5.062500000000007
 21
14.35859999999998
 31
0.0000000000000001
210
0.0
220
1.0
230
0.0
  0
LINE
  5
3D
100
AcDbEntity
  8
USP-GEO
100
AcDbLine
 10
5.0
 20
14.35859999999999
 30
0.0000000000000001
 11
5.0
 21
13.14804999999998
 31
0.0000000000000001
210
0.0
220
1.0
230
0.0
  0
LINE
  5
3E
100
AcDbEntity
  8
USP-GEO
100
AcDbLine
 10
5.0
 20
13.14804999999998
 30
0.0000000000000001
 11
3.875
 21
13.14804999999998
 31
0.0
210
0.0
220
1.0
230
0.0
  0
LINE
  5
3F
100
AcDbEntity
  8
USP-GEO
100
AcDbLine
 10
4.125
 20
13.11680000000001
 30
0.0
 11
3.945699999999995
 21
13.11680000000001
 31
0.0
210
0.0
220
1.0
230
0.0
  0
LINE
  5
40
100
AcDbEntity
  8
USP-GEO
100
AcDbLine
 10
3.875
 20
13.14804999999998
 30
0.0
 11
3.875
 21
13.11679999999998
 31
0.0
210
0.0
220
1.0
230
0.0
  0
LINE
  5
41
100
AcDbEntity
  8
USP-GEO
100
AcDbLine
 10
3.875000000000003
 20
13.11679999999998
 30
0.0
 11
3.945699999999998
 21
13.11679999999998
 31
0.0
210
0.0
220
1.0
230
0.0
  0
LINE
  5
42
100
AcDbEntity
  8
USP-GEO
100
AcDbLine
 10
6.116800000000008
 20
13.1168
 30
0.0000000000000003
 11
6.187500000000007
 21
13.1168
 31
0.0000000000000003
210
0.0
220
1.0
230
0.0
  0
LINE
  5
43
100
AcDbEntity
  8
USP-GEO
100
AcDbLine
 10
6.187500000000007
 20
13.1168
 30
0.0000000000000003
 11
6.187500000000007
 21
13.14805
 31
0.0000000000000003
210
0.0
220
1.0
230
0.0
  0
LINE
  5
44
100
AcDbEntity
  8
USP-GEO
100
AcDbLine
 10
5.93750000000001
 20
13.11680000000001
 30
0.0000000000000002
 11
6.116800000000008
 21
13.11680000000001
 31
0.0000000000000003
210
0.0
220
1.0
230
0.0
  0
LINE
  5
45
100
AcDbEntity
  8
USP-GEO
100
AcDbLine
 10
10.06250000000001
 20
14.35859999999998
 30
0.0000000000000007
 11
10.06250000000001
 21
11.1793
 31
0.0000000000000007
210
0.0
220
1.0
230
0.0
  0
CIRCLE
  5
46
100
AcDbEntity
  8
USP-GEO
100
AcDbCircle
 10
9.37500000000001
 20
11.5543
 30
0.0000000000000007
 40
0.0975000000000001
  0
ENDBLK
  5
48
100
AcDbEntity
  8
0
100
AcDbBlockEnd
  0
BLOCK
  5
5D
100
AcDbEntity
  8
0
100
AcDbBlockBegin
  2
PHXU1714_S
 70
     0
 10
0.0
 20
0.0
 30
0.0
  3
PHXU1714_S
  1

  0
LINE
  5
4B
100
AcDbEntity
  8
USP-GEO
100
AcDbLine
 10
5.929299999999983
 20
13.11680000000001
 30
0.0000000000000006
 11
5.92929999999999
 21
0.0000000000000036
 31
0.0000000000000006
210
0.0
220
1.0
230
0.0
  0
LINE
  5
4C
100
AcDbEntity
  8
USP-GEO
100
AcDbLine
 10
2.67929999999999
 20
0.0
 30
0.0
 11
2.67929999999999
 21
11.17930000000001
 31
0.0
210
0.0
220
1.0
230
0.0
  0
TEXT
  5
4D
100
AcDbEntity
  8
USP-TXT
100
AcDbText
 10
-1.785349999999988
 20
-1.185908426682374
 30
0.0000000000000001
 40
0.5
  1
PHXU1714 - SIDE VIEW
 72
     1
 11
2.964650000000009
 21
-1.185908426682374
 31
0.0000000000000001
100
AcDbText
  0
LINE
  5
4E
100
AcDbEntity
  8
USP-GEO
100
AcDbLine
 10
5.92929999999999
 20
0.0000000000000036
 30
0.0000000000000006
 11
2.679299999999983
 21
0.0
 31
0.0
210
0.0
220
1.0
230
0.0
  0
LINE
  5
4F
100
AcDbEntity
  8
USP-HID
100
AcDbLine
 10
5.92929999999999
 20
0.1790000000000038
 30
0.0000000000000006
 11
2.679299999999983
 21
0.1790000000000003
 31
0.0
210
0.0
220
1.0
230
0.0
  0
LINE
  5
50
100
AcDbEntity
  8
USP-GEO
100
AcDbLine
 10
2.49929999999999
 20
0.1793000000000013
 30
0.0
 11
2.49929999999999
 21
0.0
 31
0.0
210
0.0
220
1.0
230
0.0
  0
LINE
  5
51
100
AcDbEntity
  8
USP-GEO
100
AcDbLine
 10
2.499299999999998
 20
0.0
 30
0.0
 11
2.67929999999999
 21
0.0
 31
0.0
210
0.0
220
1.0
230
0.0
  0
LINE
  5
52
100
AcDbEntity
  8
USP-GEO
100
AcDbLine
 10
2.49929999999999
 20
0.1793000000000013
 30
0.0
 11
2.67929999999999
 21
0.1793000000000013
 31
0.0
210
0.0
220
1.0
230
0.0
  0
CIRCLE
  5
53
100
AcDbEntity
  8
USP-GEO
100
AcDbCircle
 10
5.55429999999999
 20
1.92929999999999
 30
0.0000000000000005
 40
0.0975000000000001
  0
CIRCLE
  5
54
100
AcDbEntity
  8
USP-GEO
100
AcDbCircle
 10
5.55429999999999
 20
4.42929999999999
 30
0.0000000000000005
 40
0.0975000000000001
  0
LINE
  5
55
100
AcDbEntity
  8
USP-GEO
100
AcDbLine
 10
2.67929999999999
 20
13.11679999999999
 30
0.0
 11
5.92929999999999
 21
13.11680000000002
 31
0.0000000000000006
210
0.0
220
1.0
230
0.0
  0
LINE
  5
56
100
AcDbEntity
  8
USP-GEO
100
AcDbLine
 10
2.499999999999992
 20
14.17929999999999
 30
0.0
 11
2.499999999999992
 21
11.17929999999997
 31
0.0
210
0.0
220
1.0
230
0.0
  0
LINE
  5
57
100
AcDbEntity
  8
USP-GEO
100
AcDbLine
 10
2.67929999999999
 20
11.17929999999998
 30
0.0
 11
2.67929999999999
 21
14.3586
 31
0.0
210
0.0
220
1.0
230
0.0
  0
LINE
  5
58
100
AcDbEntity
  8
USP-GEO
100
AcDbLine
 10
2.499999999999992
 20
11.17929999999997
 30
0.0
 11
2.67929999999999
 21
11.17929999999997
 31
0.0
210
0.0
220
1.0
230
0.0
  0
LINE
  5
59
100
AcDbEntity
  8
USP-GEO
100
AcDbLine
 10
2.67929999999999
 20
14.3586
 30
0.0
 11
0.0
 21
14.3586
 31
-0.0000000000000005
210
0.0
220
1.0
230
0.0
  0
LINE
  5
5A
100
AcDbEntity
  8
USP-GEO
100
AcDbLine
 10
2.499999999999992
 20
14.17929999999999
 30
0.0
 11
0.0
 21
14.17929999999999
 31
-0.0000000000000005
210
0.0
220
1.0
230
0.0
  0
LINE
  5
5B
100
AcDbEntity
  8
USP-GEO
100
AcDbLine
 10
0.0
 20
14.17929999999999
 30
-0.0000000000000005
 11
0.0
 21
14.35859999999999
 31
-0.0000000000000005
210
0.0
220
1.0
230
0.0
  0
CIRCLE
  5
5C
100
AcDbEntity
  8
USP-GEO
100
AcDbCircle
 10
5.55429999999999
 20
6.92929999999999
 30
0.0000000000000005
 40
0.0975000000000001
  0
ENDBLK
  5
5E
100
AcDbEntity
  8
0
100
AcDbBlockEnd
  0
ENDSEC
  0
SECTION
  2
ENTITIES
  0
INSERT
  5
3
100
AcDbEntity
  8
USP
100
AcDbBlockReference
  2
PHXU1714_T
 10
10.59795559179361
 20
18.80969146748332
 30
-0.0000000000000014
  0
INSERT
  5
28
100
AcDbEntity
  8
USP
100
AcDbBlockReference
  2
PHXU1714_F
 10
10.59795559179361
 20
1.186663396258705
 30
-0.0000000000000015
  0
INSERT
  5
49
100
AcDbEntity
  8
USP
100
AcDbBlockReference
  2
PHXU1714_S
 10
1.785982036468945
 20
1.186663396258701
 30
-0.0000000000000013
  0
ENDSEC
  0
SECTION
  2
OBJECTS
  0
DICTIONARY
  5
7A
102
{ACAD_XDICTIONARY
360
7B
102
}
100
AcDbDictionary
  3
ACAD_GROUP
350
77
  3
ACAD_MLINESTYLE
350
78
  0
DICTIONARY
  5
6C
100
AcDbDictionary
280
     1
  0
DICTIONARY
  5
6E
100
AcDbDictionary
280
     1
  0
DICTIONARY
  5
6
100
AcDbDictionary
280
     1
  0
DICTIONARY
  5
B
100
AcDbDictionary
280
     1
  0
DICTIONARY
  5
7F
100
AcDbDictionary
280
     1
  0
DICTIONARY
  5
5F
100
AcDbDictionary
280
     1
  3
ACAD_LAYOUTSELFREF
360
60
  0
DICTIONARY
  5
64
100
AcDbDictionary
280
     1
  3
ACAD_LAYOUTSELFREF
360
65
  0
DICTIONARY
  5
7B
100
AcDbDictionary
280
     1
  3
ACAD_XREC_ROUNDTRIP
360
7C
  0
DICTIONARY
  5
77
102
{ACAD_REACTORS
330
7A
102
}
100
AcDbDictionary
  0
DICTIONARY
  5
78
102
{ACAD_XDICTIONARY
360
79
102
}
102
{ACAD_REACTORS
330
7A
102
}
100
AcDbDictionary
  3
STANDARD
350
7D
  0
XRECORD
  5
60
102
{ACAD_REACTORS
330
5F
102
}
100
AcDbXrecord
340
2
  0
XRECORD
  5
65
102
{ACAD_REACTORS
330
64
102
}
100
AcDbXrecord
340
65
  0
XRECORD
  5
7C
102
{ACAD_REACTORS
330
7B
102
}
100
AcDbXrecord
102
EXTNAMES
  1
ACDBVARIABLEDICTIONARY
  2
AcDbVariableDictionary
  0
DICTIONARY
  5
79
100
AcDbDictionary
280
     1
  0
MLINESTYLE
  5
7D
102
{ACAD_REACTORS
330
78
102
}
100
AcDbMlineStyle
  2
STANDARD
 70
     0
  3

 62
   256
 51
90.0
 52
90.0
 71
     2
 49
0.5
 62
   256
  6
BYLAYER
 49
-0.5
 62
   256
  6
BYLAYER
  0
ENDSEC
  0
EOF
