  0
SECTION
  2
HEADER
  9
$ACADVER
  1
AC1014
  9
$ACADMAINTVER
 70
     9
  9
$DWGCODEPAGE
  3
ANSI_1252
  9
$INSBASE
 10
0.0
 20
0.0
 30
0.0
  9
$EXTMIN
 10
0.0011851044054012
 20
0.0002676930789818
 30
0.0
  9
$EXTMAX
 10
18.73185260046867
 20
28.15820808893516
 30
0.0
  9
$LIMMIN
 10
0.0
 20
0.0
  9
$LIMMAX
 10
12.0
 20
9.0
  9
$ORTHOMODE
 70
     0
  9
$REGENMODE
 70
     1
  9
$FILLMODE
 70
     1
  9
$QTEXTMODE
 70
     0
  9
$MIRRTEXT
 70
     0
  9
$DRAGMODE
 70
     2
  9
$LTSCALE
 40
1.5
  9
$OSMODE
 70
    37
  9
$ATTMODE
 70
     1
  9
$TEXTSIZE
 40
0.25
  9
$TRACEWID
 40
0.05
  9
$TEXTSTYLE
  7
STANDARD
  9
$CLAYER
  8
0
  9
$CELTYPE
  6
BYLAYER
  9
$CECOLOR
 62
   256
  9
$CELTSCALE
 40
1.0
  9
$DELOBJ
 70
     1
  9
$DISPSILH
 70
     1
  9
$DIMSCALE
 40
6.0
  9
$DIMASZ
 40
0.125
  9
$DIMEXO
 40
0.0625
  9
$DIMDLI
 40
0.37890625
  9
$DIMRND
 40
0.0
  9
$DIMDLE
 40
0.0
  9
$DIMEXE
 40
0.09375
  9
$DIMTP
 40
0.0
  9
$DIMTM
 40
0.0
  9
$DIMTXT
 40
0.109375
  9
$DIMCEN
 40
0.0
  9
$DIMTSZ
 40
0.0
  9
$DIMTOL
 70
     0
  9
$DIMLIM
 70
     0
  9
$DIMTIH
 70
     1
  9
$DIMTOH
 70
     1
  9
$DIMSE1
 70
     0
  9
$DIMSE2
 70
     0
  9
$DIMTAD
 70
     0
  9
$DIMZIN
 70
     8
  9
$DIMBLK
  1

  9
$DIMASO
 70
     1
  9
$DIMSHO
 70
     1
  9
$DIMPOST
  1

  9
$DIMAPOST
  1

  9
$DIMALT
 70
     0
  9
$DIMALTD
 70
     2
  9
$DIMALTF
 40
25.4
  9
$DIMLFAC
 40
1.0
  9
$DIMTOFL
 70
     0
  9
$DIMTVP
 40
0.0
  9
$DIMTIX
 70
     0
  9
$DIMSOXD
 70
     0
  9
$DIMSAH
 70
     0
  9
$DIMBLK1
  1

  9
$DIMBLK2
  1

  9
$DIMSTYLE
  2
STANDARD
  9
$DIMCLRD
 70
     0
  9
$DIMCLRE
 70
     0
  9
$DIMCLRT
 70
   256
  9
$DIMTFAC
 40
1.0
  9
$DIMGAP
 40
0.08984375
  9
$DIMJUST
 70
     0
  9
$DIMSD1
 70
     0
  9
$DIMSD2
 70
     0
  9
$DIMTOLJ
 70
     1
  9
$DIMTZIN
 70
     0
  9
$DIMALTZ
 70
     0
  9
$DIMALTTZ
 70
     0
  9
$DIMFIT
 70
     3
  9
$DIMUPT
 70
     1
  9
$DIMUNIT
 70
     7
  9
$DIMDEC
 70
     4
  9
$DIMTDEC
 70
     4
  9
$DIMALTU
 70
     2
  9
$DIMALTTD
 70
     2
  9
$DIMTXSTY
  7
STANDARD
  9
$DIMAUNIT
 70
     0
  9
$LUNITS
 70
     5
  9
$LUPREC
 70
     6
  9
$SKETCHINC
 40
0.1
  9
$FILLETRAD
 40
0.0
  9
$AUNITS
 70
     0
  9
$AUPREC
 70
     1
  9
$MENU
  1
CUSTOM
  9
$ELEVATION
 40
0.0
  9
$PELEVATION
 40
0.0
  9
$THICKNESS
 40
0.0
  9
$LIMCHECK
 70
     0
  9
$BLIPMODE
 70
     0
  9
$CHAMFERA
 40
0.0
  9
$CHAMFERB
 40
0.0
  9
$CHAMFERC
 40
0.0
  9
$CHAMFERD
 40
0.0
  9
$SKPOLY
 70
     0
  9
$TDCREATE
 40
2451263.663231366
  9
$TDUPDATE
 40
2452759.746470440
  9
$TDINDWG
 40
0.1206865394
  9
$TDUSRTIMER
 40
0.1206865394
  9
$USRTIMER
 70
     1
  9
$ANGBASE
 50
0.0
  9
$ANGDIR
 70
     0
  9
$PDMODE
 70
     0
  9
$PDSIZE
 40
0.0
  9
$PLINEWID
 40
0.0
  9
$COORDS
 70
     1
  9
$SPLFRAME
 70
     0
  9
$SPLINETYPE
 70
     6
  9
$SPLINESEGS
 70
     8
  9
$ATTDIA
 70
     0
  9
$ATTREQ
 70
     1
  9
$HANDLING
 70
     1
  9
$HANDSEED
  5
13E
  9
$SURFTAB1
 70
     6
  9
$SURFTAB2
 70
     6
  9
$SURFTYPE
 70
     6
  9
$SURFU
 70
     6
  9
$SURFV
 70
     6
  9
$UCSNAME
  2

  9
$UCSORG
 10
0.0
 20
0.0
 30
0.0
  9
$UCSXDIR
 10
1.0
 20
0.0
 30
0.0
  9
$UCSYDIR
 10
0.0
 20
1.0
 30
0.0
  9
$PUCSNAME
  2

  9
$PUCSORG
 10
0.0
 20
0.0
 30
0.0
  9
$PUCSXDIR
 10
1.0
 20
0.0
 30
0.0
  9
$PUCSYDIR
 10
0.0
 20
1.0
 30
0.0
  9
$USERI1
 70
     0
  9
$USERI2
 70
     0
  9
$USERI3
 70
     0
  9
$USERI4
 70
     0
  9
$USERI5
 70
     0
  9
$USERR1
 40
0.0
  9
$USERR2
 40
0.0
  9
$USERR3
 40
0.0
  9
$USERR4
 40
0.0
  9
$USERR5
 40
0.0
  9
$WORLDVIEW
 70
     1
  9
$SHADEDGE
 70
     3
  9
$SHADEDIF
 70
    70
  9
$TILEMODE
 70
     1
  9
$MAXACTVP
 70
    16
  9
$PINSBASE
 10
0.0
 20
0.0
 30
0.0
  9
$PLIMCHECK
 70
     0
  9
$PEXTMIN
 10
1.000000000000000E+20
 20
1.000000000000000E+20
 30
1.000000000000000E+20
  9
$PEXTMAX
 10
-1.000000000000000E+20
 20
-1.000000000000000E+20
 30
-1.000000000000000E+20
  9
$PLIMMIN
 10
0.0
 20
0.0
  9
$PLIMMAX
 10
12.0
 20
9.0
  9
$UNITMODE
 70
     0
  9
$VISRETAIN
 70
     0
  9
$PLINEGEN
 70
     0
  9
$PSLTSCALE
 70
     0
  9
$TREEDEPTH
 70
  3020
  9
$PICKSTYLE
 70
     1
  9
$CMLSTYLE
  2
STANDARD
  9
$CMLJUST
 70
     0
  9
$CMLSCALE
 40
1.0
  9
$PROXYGRAPHICS
 70
     1
  9
$MEASUREMENT
 70
     0
  0
ENDSEC
  0
SECTION
  2
CLASSES
  0
CLASS
  1
ACDBDICTIONARYWDFLT
  2
AcDbDictionaryWithDefault
  3
AutoCAD 2000
 90
        0
280
     0
281
     0
  0
CLASS
  1
ACDBPLACEHOLDER
  2
AcDbPlaceHolder
  3
AutoCAD 2000
 90
        0
280
     0
281
     0
  0
CLASS
  1
LAYOUT
  2
AcDbLayout
  3
AutoCAD 2000
 90
        0
280
     0
281
     0
  0
CLASS
  1
DICTIONARYVAR
  2
AcDbDictionaryVar
  3
"AutoCAD"
 90
        0
280
     0
281
     0
  0
CLASS
  1
LONG_TRANSACTION
  2
AcDbLongTransaction
  3
AutoCAD 2000
 90
        0
280
     0
281
     0
  0
CLASS
  1
LWPOLYLINE
  2
AcDbPolyline
  3
"AutoCAD"
 90
        0
280
     0
281
     1
  0
CLASS
  1
HATCH
  2
AcDbHatch
  3
"ACAD_SEDONA"
 90
        0
280
     0
281
     1
  0
CLASS
  1
XRECORD
  2
AcDbXrecord
  3
"<Built In>"
 90
        0
280
     0
281
     0
  0
CLASS
  1
LONG_TRANSACTION
  2
AcDbLongTransaction
  3
AutoCAD 2000
 90
        0
280
     0
281
     0
  0
CLASS
  1
LWPOLYLINE
  2
AcDbPolyline
  3
"AutoCAD"
 90
        0
280
     0
281
     1
  0
CLASS
  1
HATCH
  2
AcDbHatch
  3
"ACAD_SEDONA"
 90
        0
280
     0
281
     1
  0
CLASS
  1
XRECORD
  2
AcDbXrecord
  3
"<Built In>"
 90
        0
280
     0
281
     0
  0
ENDSEC
  0
SECTION
  2
TABLES
  0
TABLE
  2
VPORT
  5
120
100
AcDbSymbolTable
 70
     1
  0
VPORT
  5
13A
100
AcDbSymbolTableRecord
100
AcDbViewportTableRecord
  2
*ACTIVE
 70
     0
 10
0.0
 20
0.0
 11
1.0
 21
1.0
 12
-13.72910394089523
 22
24.69602870571292
 13
0.0
 23
0.0
 14
1.0
 24
1.0
 15
0.0
 25
0.0
 16
0.0
 26
0.0
 36
1.0
 17
23.09603071721725
 27
-10.27010416511325
 37
-10.44050274849355
 40
29.06185084184659
 41
1.457627118644067
 42
50.0
 43
10.55307667737539
 44
10.55307667737539
 50
0.0
 51
0.0
 71
     0
 72
   100
 73
     1
 74
     1
 75
     0
 76
     0
 77
     0
 78
     0
  0
ENDTAB
  0
TABLE
  2
LTYPE
  5
11B
100
AcDbSymbolTable
 70
     2
  0
LTYPE
  5
11C
100
AcDbSymbolTableRecord
100
AcDbLinetypeTableRecord
  2
BYBLOCK
 70
     0
  3

 72
    65
 73
     0
 40
0.0
  0
LTYPE
  5
11D
100
AcDbSymbolTableRecord
100
AcDbLinetypeTableRecord
  2
BYLAYER
 70
     0
  3

 72
    65
 73
     0
 40
0.0
  0
LTYPE
  5
D
100
AcDbSymbolTableRecord
100
AcDbLinetypeTableRecord
  2
CONTINUOUS
 70
     0
  3
Solid line
 72
    65
 73
     0
 40
0.0
  0
LTYPE
  5
5
100
AcDbSymbolTableRecord
100
AcDbLinetypeTableRecord
  2
HIDDEN
 70
     0
  3
Hidden __ __ __ __ __ __ __ __ __ __ __ __ __ _
 72
    65
 73
     2
 40
0.375
 49
0.25
 74
     0
 49
-0.125
 74
     0
  0
ENDTAB
  0
TABLE
  2
LAYER
  5
119
100
AcDbSymbolTable
 70
     4
  0
LAYER
  5
112
100
AcDbSymbolTableRecord
100
AcDbLayerTableRecord
  2
0
 70
     0
 62
     7
  6
CONTINUOUS
  0
LAYER
  5
C
100
AcDbSymbolTableRecord
100
AcDbLayerTableRecord
  2
USP-GEO
 70
     0
 62
     7
  6
CONTINUOUS
  0
LAYER
  5
17
100
AcDbSymbolTableRecord
100
AcDbLayerTableRecord
  2
USP-TXT
 70
     0
 62
     7
  6
CONTINUOUS
  0
LAYER
  5
4
100
AcDbSymbolTableRecord
100
AcDbLayerTableRecord
  2
USP-HID
 70
     0
 62
     7
  6
HIDDEN
  0
ENDTAB
  0
TABLE
  2
STYLE
  5
11A
100
AcDbSymbolTable
 70
     1
  0
STYLE
  5
18
100
AcDbSymbolTableRecord
100
AcDbTextStyleTableRecord
  2
STANDARD
 70
     0
 40
0.0
 41
1.0
 50
0.0
 71
     0
 42
0.25
  3
txt
  4

  0
ENDTAB
  0
TABLE
  2
VIEW
  5
11E
100
AcDbSymbolTable
 70
     0
  0
ENDTAB
  0
TABLE
  2
UCS
  5
11F
100
AcDbSymbolTable
 70
     0
  0
ENDTAB
  0
TABLE
  2
APPID
  5
122
100
AcDbSymbolTable
 70
     1
  0
APPID
  5
123
100
AcDbSymbolTableRecord
100
AcDbRegAppTableRecord
  2
ACAD
 70
     0
  0
ENDTAB
  0
TABLE
  2
DIMSTYLE
  5
124
100
AcDbSymbolTable
 70
     1
  0
DIMSTYLE
105
12C
100
AcDbSymbolTableRecord
100
AcDbDimStyleTableRecord
  2
STANDARD
 70
     0
  3

  4

  5

  6

  7

 40
1.0
 41
0.18
 42
0.0625
 43
0.38
 44
0.18
 45
0.0
 46
0.0
 47
0.0
 48
0.0
140
0.18
141
0.09
142
0.0
143
25.4
144
1.0
145
0.0
146
1.0
147
0.09
 71
     0
 72
     0
 73
     1
 74
     1
 75
     0
 76
     0
 77
     0
 78
     0
170
     0
171
     2
172
     0
173
     0
174
     0
175
     0
176
     0
177
     0
178
     0
270
     2
271
     4
272
     4
273
     2
274
     2
340
18
275
     0
280
     0
281
     0
282
     0
283
     1
284
     0
285
     0
286
     0
287
     3
288
     0
  0
ENDTAB
  0
TABLE
  2
BLOCK_RECORD
  5
1
100
AcDbSymbolTable
 70
     0
  0
BLOCK_RECORD
  5
2
102
{ACAD_XDICTIONARY
360
10F
102
}
100
AcDbSymbolTableRecord
100
AcDbBlockTableRecord
  2
*MODEL_SPACE
  0
BLOCK_RECORD
  5
114
102
{ACAD_XDICTIONARY
360
115
102
}
100
AcDbSymbolTableRecord
100
AcDbBlockTableRecord
  2
*PAPER_SPACE
  0
ENDTAB
  0
ENDSEC
  0
SECTION
  2
BLOCKS
  0
BLOCK
  5
111
100
AcDbEntity
  8
0
100
AcDbBlockBegin
  2
*MODEL_SPACE
 70
     0
 10
0.0
 20
0.0
 30
0.0
  3
*MODEL_SPACE
  1

  0
ENDBLK
  5
113
100
AcDbEntity
  8
0
100
AcDbBlockEnd
  0
BLOCK
  5
117
100
AcDbEntity
 67
     1
  8
0
100
AcDbBlockBegin
  2
*PAPER_SPACE
 70
     0
 10
0.0
 20
0.0
 30
0.0
  3
*PAPER_SPACE
  1

  0
ENDBLK
  5
118
100
AcDbEntity
 67
     1
  8
0
100
AcDbBlockEnd
  0
ENDSEC
  0
SECTION
  2
ENTITIES
  0
LINE
  5
3
100
AcDbEntity
  8
USP-HID
100
AcDbLine
 10
2.808323365104629
 20
25.80765792634263
 30
0.0
 11
5.808323365104628
 21
25.80765792634263
 31
0.0
  0
LINE
  5
6
100
AcDbEntity
  8
USP-HID
100
AcDbLine
 10
2.808323365104632
 20
27.35768690171283
 30
0.0
 11
5.808323365104628
 21
27.35768690171283
 31
0.0
  0
LINE
  5
7
100
AcDbEntity
  8
USP-HID
100
AcDbLine
 10
2.808323365104628
 20
27.35767241402772
 30
0.0
 11
5.808323365104628
 21
27.35767241402773
 31
0.0
  0
LINE
  5
8
100
AcDbEntity
  8
USP-HID
100
AcDbLine
 10
2.808323365104632
 20
25.62016516997528
 30
0.0
 11
5.808323365104632
 21
25.62016516997529
 31
0.0
  0
LINE
  5
9
100
AcDbEntity
  8
USP-HID
100
AcDbLine
 10
2.808323365104625
 20
27.54517965808018
 30
0.0
 11
5.808323365104628
 21
27.54517965808018
 31
0.0
  0
LINE
  5
A
100
AcDbEntity
  8
USP-HID
100
AcDbLine
 10
2.808323365104628
 20
25.80767241402773
 30
0.0
 11
5.808323365104628
 21
25.80767241402773
 31
0.0
  0
LINE
  5
B
100
AcDbEntity
  8
USP-GEO
100
AcDbLine
 10
3.63332336510461
 20
27.87665808893485
 30
0.0
 11
4.983323365104611
 21
27.87665808893486
 31
0.0
  0
LINE
  5
E
100
AcDbEntity
  8
USP-GEO
100
AcDbLine
 10
3.633323365104621
 20
25.09410808893487
 30
0.0
 11
4.983323365104633
 21
25.09410808893488
 31
0.0
  0
LINE
  5
F
100
AcDbEntity
  8
USP-GEO
100
AcDbLine
 10
4.983323365104633
 20
25.19610808893487
 30
0.0
 11
3.633323365104624
 21
25.19610808893487
 31
0.0
  0
LINE
  5
10
100
AcDbEntity
  8
USP-GEO
100
AcDbLine
 10
5.633323365104667
 20
28.15820808893516
 30
0.0
 11
2.674264365104699
 21
28.15820808893515
 31
0.0
  0
LINE
  5
11
100
AcDbEntity
  8
USP-GEO
100
AcDbLine
 10
5.840382365104654
 20
27.95420808893517
 30
0.0
 11
3.033323365104655
 21
27.95420808893517
 31
0.0
  0
LINE
  5
12
100
AcDbEntity
  8
USP-GEO
100
AcDbLine
 10
2.808323365104632
 20
27.17018690171283
 30
0.0
 11
5.808323365104628
 21
27.17018690171284
 31
0.0
  0
LINE
  5
13
100
AcDbEntity
  8
USP-GEO
100
AcDbLine
 10
2.808323365104632
 20
25.99515792634264
 30
0.0
 11
5.808323365104632
 21
25.99515792634265
 31
0.0
  0
LINE
  5
14
100
AcDbEntity
  8
USP-GEO
100
AcDbLine
 10
2.808323365104629
 20
25.62015792634262
 30
0.0
 11
5.808323365104629
 21
25.62015792634263
 31
0.0
  0
LINE
  5
15
100
AcDbEntity
  8
USP-GEO
100
AcDbLine
 10
2.808323365104631
 20
27.54518690171283
 30
0.0
 11
5.808323365104627
 21
27.54518690171284
 31
0.0
  0
TEXT
  5
16
100
AcDbEntity
  8
USP-TXT
100
AcDbText
 10
0.5082946940801892
 20
22.21534128263955
 30
0.0
 40
0.5
  1
PHD8 - TOP VIEW
 72
     1
 11
4.25829469408019
 21
22.21534128263955
 31
0.0
100
AcDbText
  0
LINE
  5
19
100
AcDbEntity
  8
USP-GEO
100
AcDbLine
 10
2.667154775429911
 20
27.69610808893487
 30
0.0
 11
2.667154775429915
 21
25.19610808893487
 31
0.0
  0
LINE
  5
1A
100
AcDbEntity
  8
USP-GEO
100
AcDbLine
 10
2.674264365104691
 20
28.15820808893515
 30
0.0
 11
2.674264365104694
 21
27.0700337270415
 31
0.0
  0
LINE
  5
1B
100
AcDbEntity
  8
USP-GEO
100
AcDbLine
 10
2.776264365104696
 20
28.05620808893515
 30
0.0
 11
2.776264365104697
 21
27.0700337270415
 31
0.0
  0
LINE
  5
1C
100
AcDbEntity
  8
USP-GEO
100
AcDbLine
 10
2.808323365104631
 20
27.54518690171283
 30
0.0
 11
2.808323365104633
 21
27.17018690171283
 31
0.0
  0
LINE
  5
1D
100
AcDbEntity
  8
USP-GEO
100
AcDbLine
 10
3.456323365104632
 20
25.19610808893486
 30
0.0
 11
2.776264365104655
 21
25.19610808893487
 31
0.0
  0
LINE
  5
1E
100
AcDbEntity
  8
USP-GEO
100
AcDbLine
 10
2.808323365104632
 20
27.17018690171283
 30
0.0
 11
2.808323365104634
 21
25.99515792634264
 31
0.0
  0
LINE
  5
1F
100
AcDbEntity
  8
USP-GEO
100
AcDbLine
 10
2.674264365104674
 20
26.7844593091456
 30
0.0
 11
2.674264365104659
 21
25.23068250683055
 31
0.0
  0
LINE
  5
20
100
AcDbEntity
  8
USP-GEO
100
AcDbLine
 10
2.776264365104659
 20
25.23068250683055
 30
0.0
 11
2.776264365104674
 21
26.7844593091456
 31
0.0
  0
LINE
  5
21
100
AcDbEntity
  8
USP-GEO
100
AcDbLine
 10
2.776264365104662
 20
25.19510808893486
 30
0.0
 11
2.776264365104663
 21
25.23068250683055
 31
0.0
  0
LINE
  5
22
100
AcDbEntity
  8
USP-GEO
100
AcDbLine
 10
2.674264365104662
 20
25.23068250683055
 30
0.0
 11
2.674264365104662
 21
25.19510808893486
 31
0.0
  0
LINE
  5
23
100
AcDbEntity
  8
USP-GEO
100
AcDbLine
 10
2.667154775429915
 20
25.19610808893487
 30
0.0
 11
2.674264365104661
 21
25.19610808893487
 31
0.0
  0
LINE
  5
24
100
AcDbEntity
  8
USP-GEO
100
AcDbLine
 10
2.67426436510466
 20
25.23068250683055
 30
0.0
 11
2.776264365104664
 21
25.23068250683055
 31
0.0
  0
LINE
  5
25
100
AcDbEntity
  8
USP-GEO
100
AcDbLine
 10
2.674264365104656
 20
25.19510808893486
 30
0.0
 11
2.77626436510466
 21
25.19510808893486
 31
0.0
  0
LINE
  5
26
100
AcDbEntity
  8
USP-GEO
100
AcDbLine
 10
2.808323365104629
 20
25.99515792634264
 30
0.0
 11
2.808323365104629
 21
25.62015792634262
 31
0.0
  0
LINE
  5
27
100
AcDbEntity
  8
USP-GEO
100
AcDbLine
 10
2.77626436510469
 20
27.0700337270415
 30
0.0
 11
2.77626436510469
 21
26.8200337270415
 31
0.0
  0
LINE
  5
28
100
AcDbEntity
  8
USP-GEO
100
AcDbLine
 10
2.776264365104672
 20
26.7844593091456
 30
0.0
 11
2.776264365104673
 21
26.82003372704129
 31
0.0
  0
LINE
  5
29
100
AcDbEntity
  8
USP-GEO
100
AcDbLine
 10
2.674264365104702
 20
26.82003372704149
 30
0.0
 11
2.674264365104702
 21
27.0700337270415
 31
0.0
  0
LINE
  5
2A
100
AcDbEntity
  8
USP-GEO
100
AcDbLine
 10
2.674264365104675
 20
26.7844593091456
 30
0.0
 11
2.674264365104676
 21
26.82003372704128
 31
0.0
  0
LINE
  5
2B
100
AcDbEntity
  8
USP-GEO
100
AcDbLine
 10
2.674264365104674
 20
26.7844593091456
 30
0.0
 11
2.776264365104674
 21
26.7844593091456
 31
0.0
  0
LINE
  5
2C
100
AcDbEntity
  8
USP-GEO
100
AcDbLine
 10
2.776264365104692
 20
26.82003372704149
 30
0.0
 11
2.674264365104702
 21
26.82003372704149
 31
0.0
  0
LINE
  5
2D
100
AcDbEntity
  8
USP-GEO
100
AcDbLine
 10
2.674264365104706
 20
27.07003372704147
 30
0.0
 11
2.776264365104692
 21
27.07003372704147
 31
0.0
  0
LINE
  5
2E
100
AcDbEntity
  8
USP-GEO
100
AcDbLine
 10
3.456323365104632
 20
25.19610808893486
 30
0.0
 11
3.456323365104631
 21
25.62015792634262
 31
0.0
  0
LINE
  5
2F
100
AcDbEntity
  8
USP-GEO
100
AcDbLine
 10
3.558323365104635
 20
25.19610808893486
 30
0.0
 11
3.456323365104632
 21
25.19610808893486
 31
0.0
  0
LINE
  5
30
100
AcDbEntity
  8
USP-GEO
100
AcDbLine
 10
3.633323365104625
 20
25.09410808893486
 30
0.0
 11
3.558323365104632
 21
25.09410808893486
 31
0.0
  0
LINE
  5
31
100
AcDbEntity
  8
USP-GEO
100
AcDbLine
 10
3.558323365104632
 20
25.09410808893486
 30
0.0
 11
3.558323365104632
 21
25.19610808893486
 31
0.0
  0
LINE
  5
32
100
AcDbEntity
  8
USP-GEO
100
AcDbLine
 10
3.633323365104621
 20
25.09410808893486
 30
0.0
 11
3.633323365104621
 21
25.19610808893487
 31
0.0
  0
LINE
  5
33
100
AcDbEntity
  8
USP-GEO
100
AcDbLine
 10
3.633323365104629
 20
25.19610808893486
 30
0.0
 11
3.558323365104635
 21
25.19610808893486
 31
0.0
  0
LINE
  5
34
100
AcDbEntity
  8
USP-GEO
100
AcDbLine
 10
2.776264365104656
 20
27.69610808893487
 30
0.0
 11
3.456323365104625
 21
27.69610808893485
 31
0.0
  0
LINE
  5
35
100
AcDbEntity
  8
USP-GEO
100
AcDbLine
 10
2.776264365104696
 20
28.05620808893515
 30
0.0
 11
3.033323365104651
 21
28.05620808893515
 31
0.0
  0
LINE
  5
36
100
AcDbEntity
  8
USP-GEO
100
AcDbLine
 10
2.667154775429908
 20
27.69610808893487
 30
0.0
 11
2.674264365104655
 21
27.69610808893487
 31
0.0
  0
LINE
  5
37
100
AcDbEntity
  8
USP-GEO
100
AcDbLine
 10
3.033323365104655
 20
27.95420808893517
 30
0.0
 11
3.033323365104655
 21
28.05620808893516
 31
0.0
  0
ARC
  5
38
100
AcDbEntity
  8
USP-GEO
100
AcDbCircle
 10
3.558323365104618
 20
27.87310808893485
 30
0.0
 40
0.075
100
AcDbArc
 50
270.000000000008
 51
0.0000000000107884
  0
LINE
  5
39
100
AcDbEntity
  8
USP-GEO
100
AcDbLine
 10
3.456323365104621
 20
27.79810808893484
 30
0.0
 11
3.558323365104628
 21
27.79810808893484
 31
0.0
  0
LINE
  5
3A
100
AcDbEntity
  8
USP-GEO
100
AcDbLine
 10
3.456323365104627
 20
27.69610808893485
 30
0.0
 11
3.456323365104627
 21
27.79810808893485
 31
0.0
  0
LINE
  5
3B
100
AcDbEntity
  8
USP-GEO
100
AcDbLine
 10
3.456323365104627
 20
27.54518690171282
 30
0.0
 11
3.456323365104627
 21
27.69610808893485
 31
0.0
  0
LINE
  5
3C
100
AcDbEntity
  8
USP-GEO
100
AcDbLine
 10
3.633323365104613
 20
27.87310808893486
 30
0.0
 11
3.633323365104613
 21
27.87665808893485
 31
0.0
  0
LINE
  5
3D
100
AcDbEntity
  8
USP-GEO
100
AcDbLine
 10
3.633323365104617
 20
27.95420808893495
 30
0.0
 11
3.633323365104617
 21
27.87665808893485
 31
0.0
  0
LINE
  5
3E
100
AcDbEntity
  8
USP-GEO
100
AcDbLine
 10
5.840382365104654
 20
27.95420808893517
 30
0.0
 11
5.840382365104655
 21
27.07003372704142
 31
0.0
  0
LINE
  5
3F
100
AcDbEntity
  8
USP-GEO
100
AcDbLine
 10
5.80832336510463
 20
27.17018690171284
 30
0.0
 11
5.808323365104627
 21
27.54518690171283
 31
0.0
  0
LINE
  5
40
100
AcDbEntity
  8
USP-GEO
100
AcDbLine
 10
5.949491954779359
 20
25.19610808893487
 30
0.0
 11
5.949491954779355
 21
27.69610808893487
 31
0.0
  0
LINE
  5
41
100
AcDbEntity
  8
USP-GEO
100
AcDbLine
 10
5.94238236510465
 20
28.05620808893517
 30
0.0
 11
5.942382365104652
 21
27.07003372704138
 31
0.0
  0
LINE
  5
42
100
AcDbEntity
  8
USP-GEO
100
AcDbLine
 10
5.160323365104632
 20
25.19610808893486
 30
0.0
 11
5.058323365104625
 21
25.19610808893486
 31
0.0
  0
ARC
  5
43
100
AcDbEntity
  8
USP-HID
100
AcDbCircle
 10
4.308323365104618
 20
26.46060808893485
 30
0.0
 40
0.46875
100
AcDbArc
 50
179.9999999999981
 51
359.9999999999997
  0
ARC
  5
44
100
AcDbEntity
  8
USP-HID
100
AcDbCircle
 10
4.308323365104618
 20
26.77310808893485
 30
0.0
 40
0.46875
100
AcDbArc
 50
359.9999999999997
 51
179.9999999999989
  0
CIRCLE
  5
45
100
AcDbEntity
  8
USP-GEO
100
AcDbCircle
 10
4.308323365104632
 20
26.58267241402773
 30
0.0
 40
0.46875
  0
LINE
  5
46
100
AcDbEntity
  8
USP-HID
100
AcDbLine
 10
3.839573365104623
 20
26.46060808893485
 30
0.0
 11
3.839573365104622
 21
26.77310808893485
 31
0.0
  0
LINE
  5
47
100
AcDbEntity
  8
USP-GEO
100
AcDbLine
 10
4.983323365104633
 20
25.09410808893487
 30
0.0
 11
4.983323365104633
 21
25.19610808893487
 31
0.0
  0
LINE
  5
48
100
AcDbEntity
  8
USP-GEO
100
AcDbLine
 10
5.058323365104621
 20
25.09410808893486
 30
0.0
 11
4.983323365104618
 21
25.09410808893486
 31
0.0
  0
LINE
  5
49
100
AcDbEntity
  8
USP-GEO
100
AcDbLine
 10
5.058323365104621
 20
25.09410808893486
 30
0.0
 11
5.058323365104621
 21
25.19610808893487
 31
0.0
  0
LINE
  5
4A
100
AcDbEntity
  8
USP-GEO
100
AcDbLine
 10
5.058323365104625
 20
25.19610808893487
 30
0.0
 11
4.983323365104628
 21
25.19610808893487
 31
0.0
  0
LINE
  5
4B
100
AcDbEntity
  8
USP-HID
100
AcDbLine
 10
4.777073365104622
 20
26.77310808893485
 30
0.0
 11
4.777073365104623
 21
26.46060808893485
 31
0.0
  0
LINE
  5
4C
100
AcDbEntity
  8
USP-GEO
100
AcDbLine
 10
5.94238236510465
 20
26.82203372704153
 30
0.0
 11
5.84038236510465
 21
26.82203372704152
 31
0.0
  0
LINE
  5
4D
100
AcDbEntity
  8
USP-GEO
100
AcDbLine
 10
5.84038236510465
 20
27.07003372704138
 30
0.0
 11
5.942382365104647
 21
27.07003372704138
 31
0.0
  0
LINE
  5
4E
100
AcDbEntity
  8
USP-GEO
100
AcDbLine
 10
5.942382365104618
 20
26.78645930914564
 30
0.0
 11
5.840382365104618
 21
26.78645930914564
 31
0.0
  0
LINE
  5
4F
100
AcDbEntity
  8
USP-GEO
100
AcDbLine
 10
5.942382365104608
 20
25.19710808893489
 30
0.0
 11
5.840382365104611
 21
25.19710808893489
 31
0.0
  0
LINE
  5
50
100
AcDbEntity
  8
USP-GEO
100
AcDbLine
 10
5.942382365104611
 20
25.23268250683058
 30
0.0
 11
5.840382365104611
 21
25.23268250683058
 31
0.0
  0
LINE
  5
51
100
AcDbEntity
  8
USP-GEO
100
AcDbLine
 10
5.942382365104608
 20
25.19610808893487
 30
0.0
 11
5.840382365104622
 21
25.19610808893487
 31
0.0
  0
LINE
  5
52
100
AcDbEntity
  8
USP-GEO
100
AcDbLine
 10
5.80832336510463
 20
25.99515792634264
 30
0.0
 11
5.808323365104628
 21
27.17018690171284
 31
0.0
  0
LINE
  5
53
100
AcDbEntity
  8
USP-GEO
100
AcDbLine
 10
5.840382365104625
 20
26.78645930914564
 30
0.0
 11
5.840382365104611
 21
25.23268250683058
 31
0.0
  0
LINE
  5
54
100
AcDbEntity
  8
USP-GEO
100
AcDbLine
 10
5.160323365104632
 20
25.19610808893486
 30
0.0
 11
5.84038236510462
 21
25.19610808893487
 31
0.0
  0
LINE
  5
55
100
AcDbEntity
  8
USP-GEO
100
AcDbLine
 10
5.160323365104632
 20
25.19610808893486
 30
0.0
 11
5.160323365104631
 21
25.62015792634263
 31
0.0
  0
LINE
  5
56
100
AcDbEntity
  8
USP-GEO
100
AcDbLine
 10
5.84038236510461
 20
25.23268250683058
 30
0.0
 11
5.840382365104609
 21
25.19710808893489
 31
0.0
  0
LINE
  5
57
100
AcDbEntity
  8
USP-GEO
100
AcDbLine
 10
5.840382365104622
 20
25.19610808893488
 30
0.0
 11
5.840382365104622
 21
25.19710808893488
 31
0.0
  0
LINE
  5
58
100
AcDbEntity
  8
USP-GEO
100
AcDbLine
 10
5.808323365104629
 20
25.62015792634264
 30
0.0
 11
5.80832336510463
 21
25.99515792634264
 31
0.0
  0
LINE
  5
59
100
AcDbEntity
  8
USP-GEO
100
AcDbLine
 10
5.840382365104654
 20
26.82203372704152
 30
0.0
 11
5.840382365104654
 21
27.07003372704142
 31
0.0
  0
LINE
  5
5A
100
AcDbEntity
  8
USP-GEO
100
AcDbLine
 10
5.84038236510463
 20
26.82203372704132
 30
0.0
 11
5.84038236510463
 21
26.78645930914563
 31
0.0
  0
LINE
  5
5B
100
AcDbEntity
  8
USP-GEO
100
AcDbLine
 10
5.942382365104611
 20
25.23268250683058
 30
0.0
 11
5.942382365104625
 21
26.78645930914564
 31
0.0
  0
LINE
  5
5C
100
AcDbEntity
  8
USP-GEO
100
AcDbLine
 10
5.942382365104609
 20
25.19710808893489
 30
0.0
 11
5.94238236510461
 21
25.23268250683058
 31
0.0
  0
LINE
  5
5D
100
AcDbEntity
  8
USP-GEO
100
AcDbLine
 10
5.949491954779359
 20
25.19610808893487
 30
0.0
 11
5.942382365104613
 21
25.19610808893488
 31
0.0
  0
LINE
  5
5E
100
AcDbEntity
  8
USP-GEO
100
AcDbLine
 10
5.942382365104608
 20
25.19610808893487
 30
0.0
 11
5.942382365104608
 21
25.19710808893489
 31
0.0
  0
LINE
  5
5F
100
AcDbEntity
  8
USP-GEO
100
AcDbLine
 10
5.94238236510465
 20
27.07003372704137
 30
0.0
 11
5.94238236510465
 21
26.82203372704153
 31
0.0
  0
LINE
  5
60
100
AcDbEntity
  8
USP-GEO
100
AcDbLine
 10
5.942382365104627
 20
26.82203372704132
 30
0.0
 11
5.942382365104626
 21
26.78645930914564
 31
0.0
  0
LINE
  5
61
100
AcDbEntity
  8
USP-GEO
100
AcDbLine
 10
5.058323365104618
 20
27.79810808893486
 30
0.0
 11
5.160323365104618
 21
27.79810808893486
 31
0.0
  0
ARC
  5
62
100
AcDbEntity
  8
USP-GEO
100
AcDbCircle
 10
5.058323365104621
 20
27.87310808893486
 30
0.0
 40
0.075
100
AcDbArc
 50
179.9999999999989
 51
269.9999999999972
  0
LINE
  5
63
100
AcDbEntity
  8
USP-GEO
100
AcDbLine
 10
4.983323365104611
 20
27.87665808893485
 30
0.0
 11
4.983323365104611
 21
27.87310808893486
 31
0.0
  0
LINE
  5
64
100
AcDbEntity
  8
USP-GEO
100
AcDbLine
 10
4.983323365104615
 20
27.95420808893496
 30
0.0
 11
4.983323365104615
 21
27.87665808893486
 31
0.0
  0
LINE
  5
65
100
AcDbEntity
  8
USP-GEO
100
AcDbLine
 10
5.94238236510465
 20
28.05620808893517
 30
0.0
 11
5.633323365104667
 21
28.05620808893517
 31
0.0
  0
LINE
  5
66
100
AcDbEntity
  8
USP-GEO
100
AcDbLine
 10
5.160323365104614
 20
27.79810808893486
 30
0.0
 11
5.160323365104614
 21
27.69610808893487
 31
0.0
  0
LINE
  5
67
100
AcDbEntity
  8
USP-GEO
100
AcDbLine
 10
5.160323365104628
 20
27.54518690171284
 30
0.0
 11
5.160323365104628
 21
27.69610808893487
 31
0.0
  0
LINE
  5
68
100
AcDbEntity
  8
USP-GEO
100
AcDbLine
 10
5.633323365104667
 20
28.05620808893516
 30
0.0
 11
5.633323365104667
 21
28.15820808893516
 31
0.0
  0
LINE
  5
69
100
AcDbEntity
  8
USP-GEO
100
AcDbLine
 10
5.949491954779349
 20
27.69610808893487
 30
0.0
 11
5.942382365104604
 21
27.69610808893488
 31
0.0
  0
LINE
  5
6A
100
AcDbEntity
  8
USP-GEO
100
AcDbLine
 10
3.026213775429867
 20
19.40980458493382
 30
0.0
 11
3.026213775429823
 21
4.367304584933877
 31
0.0
  0
LINE
  5
6B
100
AcDbEntity
  8
USP-GEO
100
AcDbLine
 10
2.76915477542988
 20
10.54437547058394
 30
0.0
 11
2.769154775429907
 21
19.15980458493389
 31
0.0
  0
LINE
  5
6C
100
AcDbEntity
  8
USP-GEO
100
AcDbLine
 10
2.66715477542991
 20
19.15980458493387
 30
0.0
 11
2.667154775429883
 21
10.54437547058394
 31
0.0
  0
LINE
  5
6D
100
AcDbEntity
  8
USP-GEO
100
AcDbLine
 10
5.935272775429861
 20
19.16180458493402
 30
0.0
 11
5.935272775429837
 21
10.54437547058395
 31
0.0
  0
LINE
  5
6E
100
AcDbEntity
  8
USP-GEO
100
AcDbLine
 10
5.833272775429865
 20
19.161804584934
 30
0.0
 11
5.83327277542984
 21
10.54437547058395
 31
0.0
  0
TEXT
  5
6F
100
AcDbEntity
  8
USP-TXT
100
AcDbText
 10
0.0011851044054012
 20
0.0002676930789902
 30
0.0
 40
0.5
  1
PHD8 - FRONT VIEW
 72
     1
 11
4.251185104405401
 21
0.0002676930789902
 31
0.0
100
AcDbText
  0
LINE
  5
70
100
AcDbEntity
  8
USP-HID
100
AcDbLine
 10
5.051213775429838
 20
2.909804584933887
 30
0.0
 11
3.551213775429848
 21
2.909804584933891
 31
0.0
  0
LINE
  5
71
100
AcDbEntity
  8
USP-HID
100
AcDbLine
 10
2.801213775429848
 20
4.179804584933877
 30
0.0
 11
5.801213775429845
 21
4.179804584933868
 31
0.0
  0
CIRCLE
  5
72
100
AcDbEntity
  8
USP-GEO
100
AcDbCircle
 10
3.745213775429857
 20
12.28480458493382
 30
0.0
 40
0.1405
  0
CIRCLE
  5
73
100
AcDbEntity
  8
USP-GEO
100
AcDbCircle
 10
3.74521377542985
 20
10.03480458493382
 30
0.0
 40
0.1405
  0
CIRCLE
  5
74
100
AcDbEntity
  8
USP-GEO
100
AcDbCircle
 10
3.745213775429843
 20
7.784804584933831
 30
0.0
 40
0.1405
  0
LINE
  5
75
100
AcDbEntity
  8
USP-GEO
100
AcDbLine
 10
3.626213775429833
 20
3.534804584933899
 30
0.0
 11
4.976213775429846
 21
3.534804584933895
 31
0.0
  0
LINE
  5
76
100
AcDbEntity
  8
USP-GEO
100
AcDbLine
 10
5.051213775429845
 20
2.807804584933895
 30
0.0
 11
3.551213775429844
 21
2.807804584933892
 31
0.0
  0
LINE
  5
77
100
AcDbEntity
  8
USP-GEO
100
AcDbLine
 10
2.801213775429844
 20
4.367304584933877
 30
0.0
 11
5.801213775429845
 21
4.367304584933868
 31
0.0
  0
LINE
  5
78
100
AcDbEntity
  8
USP-GEO
100
AcDbLine
 10
2.801213775429844
 20
3.989973775628561
 30
0.0
 11
5.801213775429845
 21
3.989973775628552
 31
0.0
  0
LINE
  5
79
100
AcDbEntity
  8
USP-GEO
100
AcDbLine
 10
2.667154775429886
 20
10.28002098020645
 30
0.0
 11
2.667154775429871
 21
4.611488189661284
 31
0.0
  0
LINE
  5
7A
100
AcDbEntity
  8
USP-GEO
100
AcDbLine
 10
2.769154775429871
 20
4.611488189661291
 30
0.0
 11
2.769154775429886
 21
10.28002098020645
 31
0.0
  0
ARC
  5
7B
100
AcDbEntity
  8
USP-GEO
100
AcDbCircle
 10
3.410045185755127
 20
3.556781100976214
 30
0.0
 40
0.75
100
AcDbArc
 50
172.1046218142245
 51
272.9936217049549
  0
ARC
  5
7C
100
AcDbEntity
  8
USP-GEO
100
AcDbCircle
 10
3.519147657183236
 20
3.656536968176309
 30
0.0
 40
0.75
100
AcDbArc
 50
179.7503716778926
 51
264.649672572839
  0
ARC
  5
7D
100
AcDbEntity
  8
USP-GEO
100
AcDbCircle
 10
3.55121377542984
 20
3.659804584933878
 30
0.0
 40
0.75
100
AcDbArc
 50
179.9999999999997
 51
270.0
  0
LINE
  5
7E
100
AcDbEntity
  8
USP-GEO
100
AcDbLine
 10
2.76915477542987
 20
3.65980458493391
 30
0.0
 11
2.769154775429872
 21
4.347133699283777
 31
0.0
  0
LINE
  5
7F
100
AcDbEntity
  8
USP-GEO
100
AcDbLine
 10
2.801213775429844
 20
3.989973775628561
 30
0.0
 11
2.801213775429843
 21
3.659804584933881
 31
0.0
  0
LINE
  5
80
100
AcDbEntity
  8
USP-GEO
100
AcDbLine
 10
2.667154775429868
 20
4.347133699283777
 30
0.0
 11
2.667154775429866
 21
3.659804584933902
 31
0.0
  0
LINE
  5
81
100
AcDbEntity
  8
USP-GEO
100
AcDbLine
 10
2.769154775429865
 20
3.909804584933846
 30
0.0
 11
2.801213775429842
 21
3.909804584933845
 31
0.0
  0
LINE
  5
82
100
AcDbEntity
  8
USP-GEO
100
AcDbLine
 10
2.667154775429865
 20
3.659804584933902
 30
0.0
 11
2.769154775429865
 21
3.659804584933902
 31
0.0
  0
LINE
  5
83
100
AcDbEntity
  8
USP-GEO
100
AcDbLine
 10
2.667154775429874
 20
4.611488189661282
 30
0.0
 11
2.667154775429874
 21
4.347133699283777
 31
0.0
  0
LINE
  5
84
100
AcDbEntity
  8
USP-GEO
100
AcDbLine
 10
2.769154775429874
 20
4.347133699283777
 30
0.0
 11
2.769154775429874
 21
4.611488189661288
 31
0.0
  0
LINE
  5
85
100
AcDbEntity
  8
USP-GEO
100
AcDbLine
 10
2.667154775429868
 20
4.347133699283777
 30
0.0
 11
2.769154775429872
 21
4.347133699283777
 31
0.0
  0
LINE
  5
86
100
AcDbEntity
  8
USP-GEO
100
AcDbLine
 10
2.801213775429841
 20
4.36730458493387
 30
0.0
 11
2.801213775429841
 21
3.989973775628555
 31
0.0
  0
LINE
  5
87
100
AcDbEntity
  8
USP-GEO
100
AcDbLine
 10
2.667154775429872
 20
4.611488189661284
 30
0.0
 11
2.769154775429876
 21
4.611488189661284
 31
0.0
  0
LINE
  5
88
100
AcDbEntity
  8
USP-GEO
100
AcDbLine
 10
3.626213775429836
 20
2.984804584933891
 30
0.0
 11
3.62621377542983
 21
3.534804584933895
 31
0.0
  0
LINE
  5
89
100
AcDbEntity
  8
USP-GEO
100
AcDbLine
 10
3.551213775429848
 20
2.909804584933891
 30
0.0
 11
3.449213775429844
 21
2.909804584933892
 31
0.0
  0
LINE
  5
8A
100
AcDbEntity
  8
USP-GEO
100
AcDbLine
 10
3.449213775429844
 20
2.807804584933892
 30
0.0
 11
3.55121377542984
 21
2.807804584933891
 31
0.0
  0
LINE
  5
8B
100
AcDbEntity
  8
USP-GEO
100
AcDbLine
 10
3.551213775429844
 20
2.807804584933895
 30
0.0
 11
3.551213775429844
 21
2.909804584933892
 31
0.0
  0
ARC
  5
8C
100
AcDbEntity
  8
USP-GEO
100
AcDbCircle
 10
3.551213775429837
 20
2.984804584933898
 30
0.0
 40
0.075
100
AcDbArc
 50
270.0000000000055
 51
359.9999999999947
  0
CIRCLE
  5
8D
100
AcDbEntity
  8
USP-GEO
100
AcDbCircle
 10
3.526213775429831
 20
6.659804584933824
 30
0.0
 40
0.1405
  0
CIRCLE
  5
8E
100
AcDbEntity
  8
USP-GEO
100
AcDbCircle
 10
3.526213775429838
 20
8.909804584933823
 30
0.0
 40
0.1405
  0
LINE
  5
8F
100
AcDbEntity
  8
USP-GEO
100
AcDbLine
 10
2.769154775429884
 20
10.28002098020645
 30
0.0
 11
2.769154775429884
 21
10.54437547058394
 31
0.0
  0
LINE
  5
90
100
AcDbEntity
  8
USP-GEO
100
AcDbLine
 10
2.667154775429887
 20
10.28002098020645
 30
0.0
 11
2.667154775429887
 21
10.54437547058394
 31
0.0
  0
LINE
  5
91
100
AcDbEntity
  8
USP-GEO
100
AcDbLine
 10
2.66715477542989
 20
10.54437547058394
 30
0.0
 11
2.769154775429886
 21
10.54437547058394
 31
0.0
  0
LINE
  5
92
100
AcDbEntity
  8
USP-GEO
100
AcDbLine
 10
2.667154775429886
 20
10.28002098020645
 30
0.0
 11
2.769154775429886
 21
10.28002098020645
 31
0.0
  0
CIRCLE
  5
93
100
AcDbEntity
  8
USP-GEO
100
AcDbCircle
 10
3.526213775429842
 20
11.15980458493381
 30
0.0
 40
0.1405
  0
CIRCLE
  5
94
100
AcDbEntity
  8
USP-GEO
100
AcDbCircle
 10
3.526213775429849
 20
13.40980458493382
 30
0.0
 40
0.1405
  0
LINE
  5
95
100
AcDbEntity
  8
USP-GEO
100
AcDbLine
 10
5.833272775429836
 20
10.28002098020645
 30
0.0
 11
5.833272775429824
 21
4.611488189661231
 31
0.0
  0
LINE
  5
96
100
AcDbEntity
  8
USP-GEO
100
AcDbLine
 10
5.935272775429824
 20
4.611488189661238
 30
0.0
 11
5.935272775429837
 21
10.28002098020645
 31
0.0
  0
LINE
  5
97
100
AcDbEntity
  8
USP-GEO
100
AcDbLine
 10
5.153213775429845
 20
2.909804584933887
 30
0.0
 11
5.051213775429838
 21
2.909804584933887
 31
0.0
  0
LINE
  5
98
100
AcDbEntity
  8
USP-GEO
100
AcDbLine
 10
5.051213775429841
 20
2.807804584933887
 30
0.0
 11
5.153213775429842
 21
2.807804584933887
 31
0.0
  0
ARC
  5
99
100
AcDbEntity
  8
USP-GEO
100
AcDbCircle
 10
5.051213775429845
 20
3.659804584933878
 30
0.0
 40
0.75
100
AcDbArc
 50
269.9999999999997
 51
359.9999999999997
  0
LINE
  5
9A
100
AcDbEntity
  8
USP-GEO
100
AcDbLine
 10
4.976213775429839
 20
2.984804584933898
 30
0.0
 11
4.976213775429839
 21
3.534804584933888
 31
0.0
  0
ARC
  5
9B
100
AcDbEntity
  8
USP-GEO
100
AcDbCircle
 10
5.051213775429831
 20
2.984804584933891
 30
0.0
 40
0.075
100
AcDbArc
 50
179.9999999999931
 51
270.0000000000028
  0
LINE
  5
9C
100
AcDbEntity
  8
USP-GEO
100
AcDbLine
 10
5.051213775429845
 20
2.807804584933895
 30
0.0
 11
5.051213775429845
 21
2.909804584933892
 31
0.0
  0
ARC
  5
9D
100
AcDbEntity
  8
USP-GEO
100
AcDbCircle
 10
5.192382365104572
 20
3.556781100976207
 30
0.0
 40
0.75
100
AcDbArc
 50
267.0063782950442
 51
7.895378185776039
  0
ARC
  5
9E
100
AcDbEntity
  8
USP-GEO
100
AcDbCircle
 10
5.08327989367646
 20
3.656536968176305
 30
0.0
 40
0.75
100
AcDbArc
 50
275.3503274271607
 51
0.2496283221073715
  0
LINE
  5
9F
100
AcDbEntity
  8
USP-GEO
100
AcDbLine
 10
5.935272775429824
 20
4.611488189661238
 30
0.0
 11
5.833272775429824
 21
4.611488189661238
 31
0.0
  0
LINE
  5
A0
100
AcDbEntity
  8
USP-GEO
100
AcDbLine
 10
5.935272775429821
 20
4.347133699283735
 30
0.0
 11
5.833272775429824
 21
4.347133699283735
 31
0.0
  0
LINE
  5
A1
100
AcDbEntity
  8
USP-GEO
100
AcDbLine
 10
5.935272775429821
 20
3.659804584933874
 30
0.0
 11
5.833272775429835
 21
3.659804584933874
 31
0.0
  0
LINE
  5
A2
100
AcDbEntity
  8
USP-GEO
100
AcDbLine
 10
5.833272775429822
 20
4.347133699283728
 30
0.0
 11
5.83327277542982
 21
3.659804584933867
 31
0.0
  0
LINE
  5
A3
100
AcDbEntity
  8
USP-GEO
100
AcDbLine
 10
5.801213775429843
 20
3.659804584933874
 30
0.0
 11
5.801213775429845
 21
3.989973775628553
 31
0.0
  0
LINE
  5
A4
100
AcDbEntity
  8
USP-GEO
100
AcDbLine
 10
5.83327277542982
 20
3.909804584933817
 30
0.0
 11
5.801213775429841
 21
3.909804584933817
 31
0.0
  0
LINE
  5
A5
100
AcDbEntity
  8
USP-GEO
100
AcDbLine
 10
5.833272775429822
 20
4.611488189661232
 30
0.0
 11
5.833272775429822
 21
4.347133699283728
 31
0.0
  0
LINE
  5
A6
100
AcDbEntity
  8
USP-GEO
100
AcDbLine
 10
5.801213775429841
 20
3.989973775628548
 30
0.0
 11
5.801213775429841
 21
4.367304584933862
 31
0.0
  0
LINE
  5
A7
100
AcDbEntity
  8
USP-GEO
100
AcDbLine
 10
5.935272775429817
 20
3.659804584933874
 30
0.0
 11
5.935272775429819
 21
4.347133699283735
 31
0.0
  0
LINE
  5
A8
100
AcDbEntity
  8
USP-GEO
100
AcDbLine
 10
5.935272775429822
 20
4.347133699283735
 30
0.0
 11
5.935272775429822
 21
4.611488189661238
 31
0.0
  0
CIRCLE
  5
A9
100
AcDbEntity
  8
USP-GEO
100
AcDbCircle
 10
5.151213775429843
 20
9.472304584933823
 30
0.0
 40
0.1405
  0
CIRCLE
  5
AA
100
AcDbEntity
  8
USP-GEO
100
AcDbCircle
 10
5.151213775429836
 20
7.22230458493382
 30
0.0
 40
0.1405
  0
CIRCLE
  5
AB
100
AcDbEntity
  8
USP-GEO
100
AcDbCircle
 10
4.22921377542983
 20
6.37855458493382
 30
0.0
 40
0.09
  0
CIRCLE
  5
AC
100
AcDbEntity
  8
USP-GEO
100
AcDbCircle
 10
4.932213775429834
 20
6.097304584933817
 30
0.0
 40
0.1405
  0
CIRCLE
  5
AD
100
AcDbEntity
  8
USP-GEO
100
AcDbCircle
 10
4.932213775429842
 20
8.347304584933819
 30
0.0
 40
0.1405
  0
CIRCLE
  5
AE
100
AcDbEntity
  8
USP-GEO
100
AcDbCircle
 10
5.15121377542985
 20
13.97230458493381
 30
0.0
 40
0.1405
  0
CIRCLE
  5
AF
100
AcDbEntity
  8
USP-GEO
100
AcDbCircle
 10
5.15121377542985
 20
11.72230458493382
 30
0.0
 40
0.1405
  0
CIRCLE
  5
B0
100
AcDbEntity
  8
USP-GEO
100
AcDbCircle
 10
4.932213775429849
 20
10.59730458493381
 30
0.0
 40
0.1405
  0
CIRCLE
  5
B1
100
AcDbEntity
  8
USP-GEO
100
AcDbCircle
 10
4.932213775429856
 20
12.84730458493381
 30
0.0
 40
0.1405
  0
LINE
  5
B2
100
AcDbEntity
  8
USP-GEO
100
AcDbLine
 10
5.935272775429831
 20
10.28002098020645
 30
0.0
 11
5.833272775429831
 21
10.28002098020645
 31
0.0
  0
LINE
  5
B3
100
AcDbEntity
  8
USP-GEO
100
AcDbLine
 10
5.935272775429835
 20
10.54437547058395
 30
0.0
 11
5.833272775429838
 21
10.54437547058395
 31
0.0
  0
LINE
  5
B4
100
AcDbEntity
  8
USP-GEO
100
AcDbLine
 10
5.833272775429843
 20
10.54437547058395
 30
0.0
 11
5.833272775429842
 21
10.28002098020645
 31
0.0
  0
LINE
  5
B5
100
AcDbEntity
  8
USP-GEO
100
AcDbLine
 10
5.93527277542984
 20
10.54437547058395
 30
0.0
 11
5.935272775429838
 21
10.28002098020646
 31
0.0
  0
CIRCLE
  5
B6
100
AcDbEntity
  8
USP-GEO
100
AcDbCircle
 10
3.745213775429875
 20
19.03480458493382
 30
0.0
 40
0.1405
  0
CIRCLE
  5
B7
100
AcDbEntity
  8
USP-GEO
100
AcDbCircle
 10
3.745213775429868
 20
16.78480458493382
 30
0.0
 40
0.1405
  0
LINE
  5
B8
100
AcDbEntity
  8
USP-GEO
100
AcDbLine
 10
5.833272775429866
 20
19.40980458493382
 30
0.0
 11
3.026213775429867
 21
19.40980458493381
 31
0.0
  0
CIRCLE
  5
B9
100
AcDbEntity
  8
USP-GEO
100
AcDbCircle
 10
3.745213775429861
 20
14.53480458493382
 30
0.0
 40
0.1405
  0
CIRCLE
  5
BA
100
AcDbEntity
  8
USP-GEO
100
AcDbCircle
 10
3.526213775429856
 20
15.65980458493382
 30
0.0
 40
0.1405
  0
CIRCLE
  5
BB
100
AcDbEntity
  8
USP-GEO
100
AcDbCircle
 10
3.52621377542986
 20
17.90980458493382
 30
0.0
 40
0.1405
  0
LINE
  5
BC
100
AcDbEntity
  8
USP-GEO
100
AcDbLine
 10
2.769154775429908
 20
19.40980458493385
 30
0.0
 11
3.026213775429863
 21
19.40980458493385
 31
0.0
  0
LINE
  5
BD
100
AcDbEntity
  8
USP-GEO
100
AcDbLine
 10
2.769154775429902
 20
19.40980458493385
 30
0.0
 11
2.769154775429902
 21
19.15980458493388
 31
0.0
  0
LINE
  5
BE
100
AcDbEntity
  8
USP-GEO
100
AcDbLine
 10
2.667154775429914
 20
19.15980458493388
 30
0.0
 11
2.667154775429914
 21
19.40980458493385
 31
0.0
  0
LINE
  5
BF
100
AcDbEntity
  8
USP-GEO
100
AcDbLine
 10
2.769154775429904
 20
19.15980458493388
 30
0.0
 11
2.667154775429914
 21
19.15980458493388
 31
0.0
  0
LINE
  5
C0
100
AcDbEntity
  8
USP-GEO
100
AcDbLine
 10
2.667154775429918
 20
19.40980458493383
 30
0.0
 11
2.769154775429904
 21
19.40980458493383
 31
0.0
  0
CIRCLE
  5
C1
100
AcDbEntity
  8
USP-GEO
100
AcDbCircle
 10
4.448213775429866
 20
18.75355458493381
 30
0.0
 40
0.09
  0
CIRCLE
  5
C2
100
AcDbEntity
  8
USP-GEO
100
AcDbCircle
 10
5.151213775429864
 20
18.47230458493381
 30
0.0
 40
0.1405
  0
CIRCLE
  5
C3
100
AcDbEntity
  8
USP-GEO
100
AcDbCircle
 10
5.151213775429857
 20
16.22230458493382
 30
0.0
 40
0.1405
  0
CIRCLE
  5
C4
100
AcDbEntity
  8
USP-GEO
100
AcDbCircle
 10
4.932213775429863
 20
15.09730458493382
 30
0.0
 40
0.1405
  0
CIRCLE
  5
C5
100
AcDbEntity
  8
USP-GEO
100
AcDbCircle
 10
4.93221377542987
 20
17.34730458493381
 30
0.0
 40
0.1405
  0
LINE
  5
C6
100
AcDbEntity
  8
USP-GEO
100
AcDbLine
 10
5.935272775429863
 20
19.16180458493402
 30
0.0
 11
5.833272775429863
 21
19.16180458493401
 31
0.0
  0
LINE
  5
C7
100
AcDbEntity
  8
USP-GEO
100
AcDbLine
 10
5.833272775429863
 20
19.40980458493384
 30
0.0
 11
5.93527277542986
 21
19.40980458493384
 31
0.0
  0
LINE
  5
C8
100
AcDbEntity
  8
USP-GEO
100
AcDbLine
 10
5.833272775429865
 20
19.161804584934
 30
0.0
 11
5.833272775429866
 21
19.40980458493387
 31
0.0
  0
LINE
  5
C9
100
AcDbEntity
  8
USP-GEO
100
AcDbLine
 10
5.935272775429863
 20
19.40980458493383
 30
0.0
 11
5.935272775429861
 21
19.16180458493402
 31
0.0
  0
LINE
  5
CA
100
AcDbEntity
  8
USP-GEO
100
AcDbLine
 10
16.21150716153404
 20
3.909703744596253
 30
0.0
 11
16.21150716153433
 21
19.40980458493381
 31
0.0
  0
LINE
  5
CB
100
AcDbEntity
  8
USP-GEO
100
AcDbLine
 10
14.97533279964045
 20
10.54437547058393
 30
0.0
 11
14.97533279964066
 21
19.15980458493388
 31
0.0
  0
LINE
  5
CC
100
AcDbEntity
  8
USP-GEO
100
AcDbLine
 10
16.31350716153403
 20
3.909804584933809
 30
0.0
 11
16.31350716153432
 21
19.40980458493379
 31
0.0
  0
LINE
  5
CD
100
AcDbEntity
  8
USP-GEO
100
AcDbLine
 10
14.97733279964069
 20
19.16180458493401
 30
0.0
 11
14.97733279964049
 21
10.54437547058395
 31
0.0
  0
TEXT
  5
CE
100
AcDbEntity
  8
USP-TXT
100
AcDbText
 10
10.89851926713533
 20
0.0002676930789818
 30
0.0
 40
0.5
  1
PHD8 - SIDE VIEW
 72
     1
 11
14.815185933802
 21
0.0002676930789818
 31
0.0
100
AcDbText
  0
LINE
  5
CF
100
AcDbEntity
  8
USP-HID
100
AcDbLine
 10
15.32548597431199
 20
4.179804584933833
 30
0.0
 11
14.1504569989418
 21
4.179804584933854
 31
0.0
  0
LINE
  5
D0
100
AcDbEntity
  8
USP-HID
100
AcDbLine
 10
14.1504569989418
 20
4.367304584933854
 30
0.0
 11
15.32548597431199
 21
4.367304584933833
 31
0.0
  0
LINE
  5
D1
100
AcDbEntity
  8
USP-HID
100
AcDbLine
 10
13.35140716153402
 20
2.90980458493388
 30
0.0
 11
15.85140716153402
 21
2.909804584933833
 31
0.0
  0
LINE
  5
D2
100
AcDbEntity
  8
USP-GEO
100
AcDbLine
 10
15.85140716153404
 20
3.659804584933812
 30
0.0
 11
13.35240716153405
 21
3.659804584933858
 31
0.0
  0
LINE
  5
D3
100
AcDbEntity
  8
USP-GEO
100
AcDbLine
 10
13.35140716153402
 20
2.806781100976198
 30
0.0
 11
15.85140716153402
 21
2.806781100976152
 31
0.0
  0
LINE
  5
D4
100
AcDbEntity
  8
USP-GEO
100
AcDbLine
 10
13.38798157942974
 20
4.61148818966123
 30
0.0
 11
14.9417583817448
 21
10.28002098020645
 31
0.0
  0
LINE
  5
D5
100
AcDbEntity
  8
USP-GEO
100
AcDbLine
 10
13.38598157942971
 20
4.611488189661282
 30
0.0
 11
14.93975838174476
 21
10.28002098020644
 31
0.0
  0
LINE
  5
D6
100
AcDbEntity
  8
USP-GEO
100
AcDbLine
 10
13.35240716153405
 20
3.659804584933866
 30
0.0
 11
13.35240716153406
 21
4.347133699283727
 31
0.0
  0
LINE
  5
D7
100
AcDbEntity
  8
USP-GEO
100
AcDbLine
 10
13.35040716153402
 20
3.659804584933901
 30
0.0
 11
13.35040716153402
 21
4.347133699283769
 31
0.0
  0
LINE
  5
D8
100
AcDbEntity
  8
USP-GEO
100
AcDbLine
 10
13.35140716153402
 20
2.806781100976198
 30
0.0
 11
13.35140716153404
 21
3.659804584933866
 31
0.0
  0
LINE
  5
D9
100
AcDbEntity
  8
USP-GEO
100
AcDbLine
 10
13.24940716153401
 20
2.98480458493389
 30
0.0
 11
13.24940716153403
 21
3.53480458493388
 31
0.0
  0
LINE
  5
DA
100
AcDbEntity
  8
USP-GEO
100
AcDbLine
 10
13.24940716153401
 20
2.98480458493389
 30
0.0
 11
13.35140716153402
 21
2.984804584933888
 31
0.0
  0
LINE
  5
DB
100
AcDbEntity
  8
USP-GEO
100
AcDbLine
 10
13.24940716153401
 20
2.807804584933887
 30
0.0
 11
13.24940716153402
 21
2.909804584933883
 31
0.0
  0
LINE
  5
DC
100
AcDbEntity
  8
USP-GEO
100
AcDbLine
 10
13.24940716153401
 20
2.909804584933883
 30
0.0
 11
13.35140716153402
 21
2.909804584933882
 31
0.0
  0
LINE
  5
DD
100
AcDbEntity
  8
USP-GEO
100
AcDbLine
 10
13.24940716153401
 20
2.807804584933887
 30
0.0
 11
13.35140716153401
 21
2.807804584933885
 31
0.0
  0
LINE
  5
DE
100
AcDbEntity
  8
USP-GEO
100
AcDbLine
 10
13.24940716153401
 20
2.909804584933882
 30
0.0
 11
13.24940716153401
 21
2.984804584933891
 31
0.0
  0
LINE
  5
DF
100
AcDbEntity
  8
USP-GEO
100
AcDbLine
 10
13.24940716153403
 20
3.53480458493388
 30
0.0
 11
13.35140716153403
 21
3.534804584933878
 31
0.0
  0
LINE
  5
E0
100
AcDbEntity
  8
USP-GEO
100
AcDbLine
 10
13.35140716153404
 20
3.659804584933866
 30
0.0
 11
13.35240716153405
 21
3.659804584933866
 31
0.0
  0
LINE
  5
E1
100
AcDbEntity
  8
USP-GEO
100
AcDbLine
 10
13.35140716153403
 20
3.659804584933906
 30
0.0
 11
13.35040716153401
 21
3.659804584933906
 31
0.0
  0
ARC
  5
E2
100
AcDbEntity
  8
USP-GEO
100
AcDbCircle
 10
14.35240716153406
 20
4.347133699283709
 30
0.0
 40
1.0
100
AcDbArc
 50
164.6713999520758
 51
179.999999999999
  0
ARC
  5
E3
100
AcDbEntity
  8
USP-GEO
100
AcDbCircle
 10
14.35040716153402
 20
4.347133699283745
 30
0.0
 40
1.0
100
AcDbArc
 50
164.6713999520751
 51
179.9999999999985
  0
LINE
  5
E4
100
AcDbEntity
  8
USP-HID
100
AcDbLine
 10
13.77546424257444
 20
3.659804584933866
 30
0.0
 11
13.77546424257444
 21
3.989973775628545
 31
0.0
  0
LINE
  5
E5
100
AcDbEntity
  8
USP-HID
100
AcDbLine
 10
13.96297148662689
 20
3.989973775628541
 30
0.0
 11
13.96297148662688
 21
3.659804584933858
 31
0.0
  0
LINE
  5
E6
100
AcDbEntity
  8
USP-HID
100
AcDbLine
 10
13.77546424257442
 20
2.909804584933869
 30
0.0
 11
13.77546424257444
 21
3.659804584933866
 31
0.0
  0
LINE
  5
E7
100
AcDbEntity
  8
USP-HID
100
AcDbLine
 10
13.96297148662688
 20
3.659804584933858
 30
0.0
 11
13.96297148662687
 21
2.909804584933866
 31
0.0
  0
ARC
  5
E8
100
AcDbEntity
  8
USP-HID
100
AcDbCircle
 10
14.1504569989418
 20
3.992304584933854
 30
0.0
 40
0.1875
100
AcDbArc
 50
90.00000000000049
 51
180.7122612039164
  0
ARC
  5
E9
100
AcDbEntity
  8
USP-HID
100
AcDbCircle
 10
14.1504569989418
 20
3.992304584933854
 30
0.0
 40
0.375
100
AcDbArc
 50
90.00000000000019
 51
180.3561237224595
  0
ARC
  5
EA
100
AcDbEntity
  8
USP-GEO
100
AcDbCircle
 10
13.97733279964048
 20
10.54437547058396
 30
0.0
 40
1.0
100
AcDbArc
 50
344.6713999520763
 51
359.9999999999992
  0
ARC
  5
EB
100
AcDbEntity
  8
USP-GEO
100
AcDbCircle
 10
13.97533279964044
 20
10.54437547058396
 30
0.0
 40
1.0
100
AcDbArc
 50
344.671399952076
 51
359.9999999999983
  0
LINE
  5
EC
100
AcDbEntity
  8
USP-HID
100
AcDbLine
 10
15.51297148662689
 20
3.659804584933834
 30
0.0
 11
15.51297148662689
 21
3.989973775628381
 31
0.0
  0
LINE
  5
ED
100
AcDbEntity
  8
USP-HID
100
AcDbLine
 10
15.70047873067933
 20
3.989973775628506
 30
0.0
 11
15.70047873067933
 21
3.65980458493383
 31
0.0
  0
LINE
  5
EE
100
AcDbEntity
  8
USP-HID
100
AcDbLine
 10
15.70047873067933
 20
3.65980458493383
 30
0.0
 11
15.70047873067931
 21
2.90980458493383
 31
0.0
  0
LINE
  5
EF
100
AcDbEntity
  8
USP-HID
100
AcDbLine
 10
15.51297148662687
 20
2.909804584933834
 30
0.0
 11
15.51297148662689
 21
3.659804584933834
 31
0.0
  0
ARC
  5
F0
100
AcDbEntity
  8
USP-HID
100
AcDbCircle
 10
15.32548597431198
 20
3.992304584933837
 30
0.0
 40
0.1875
100
AcDbArc
 50
359.2877387960428
 51
90.0
  0
ARC
  5
F1
100
AcDbEntity
  8
USP-HID
100
AcDbCircle
 10
15.32548597431198
 20
3.992304584933837
 30
0.0
 40
0.375
100
AcDbArc
 50
359.6438762775401
 51
90.0
  0
ARC
  5
F2
100
AcDbEntity
  8
USP-GEO
100
AcDbCircle
 10
16.10240716153404
 20
3.659804584933809
 30
0.0
 40
0.25
100
AcDbArc
 50
88.37258104330768
 51
179.9999999999991
  0
LINE
  5
F3
100
AcDbEntity
  8
USP-GEO
100
AcDbLine
 10
16.10950716153404
 20
3.909703744596249
 30
0.0
 11
16.21150716153403
 21
3.909703744596248
 31
0.0
  0
LINE
  5
F4
100
AcDbEntity
  8
USP-GEO
100
AcDbLine
 10
16.10950716153402
 20
3.891902818447153
 30
0.0
 11
16.21093259731767
 21
3.909703744596253
 31
0.0
  0
LINE
  5
F5
100
AcDbEntity
  8
USP-GEO
100
AcDbLine
 10
15.85140716153402
 20
2.806781100976156
 30
0.0
 11
15.85140716153404
 21
3.659804584933816
 31
0.0
  0
LINE
  5
F6
100
AcDbEntity
  8
USP-GEO
100
AcDbLine
 10
16.02840716153401
 20
2.909804584933837
 30
0.0
 11
15.95340716153401
 21
2.909804584933839
 31
0.0
  0
LINE
  5
F7
100
AcDbEntity
  8
USP-GEO
100
AcDbLine
 10
16.02840716153401
 20
2.807804584933826
 30
0.0
 11
15.95340716153401
 21
2.807804584933828
 31
0.0
  0
LINE
  5
F8
100
AcDbEntity
  8
USP-GEO
100
AcDbLine
 10
15.953407161534
 20
2.807804584933837
 30
0.0
 11
15.953407161534
 21
2.909804584933834
 31
0.0
  0
LINE
  5
F9
100
AcDbEntity
  8
USP-GEO
100
AcDbLine
 10
15.95340716153401
 20
2.909804584933835
 30
0.0
 11
15.85140716153402
 21
2.909804584933837
 31
0.0
  0
LINE
  5
FA
100
AcDbEntity
  8
USP-GEO
100
AcDbLine
 10
15.85140716153402
 20
2.807804584933829
 30
0.0
 11
15.953407161534
 21
2.807804584933828
 31
0.0
  0
LINE
  5
FB
100
AcDbEntity
  8
USP-GEO
100
AcDbLine
 10
16.133957161534
 20
2.807804584933837
 30
0.0
 11
16.13395716153401
 21
3.334804584933831
 31
0.0
  0
LINE
  5
FC
100
AcDbEntity
  8
USP-GEO
100
AcDbLine
 10
16.02840716153401
 20
2.807804584933826
 30
0.0
 11
16.02840716153401
 21
2.909804584933834
 31
0.0
  0
LINE
  5
FD
100
AcDbEntity
  8
USP-GEO
100
AcDbLine
 10
16.03195716153401
 20
2.909804584933834
 30
0.0
 11
16.02840716153401
 21
2.909804584933834
 31
0.0
  0
LINE
  5
FE
100
AcDbEntity
  8
USP-GEO
100
AcDbLine
 10
16.03195716153402
 20
3.334804584933834
 30
0.0
 11
16.03195716153401
 21
2.909804584933841
 31
0.0
  0
LINE
  5
FF
100
AcDbEntity
  8
USP-GEO
100
AcDbLine
 10
16.02840716153401
 20
2.807804584933826
 30
0.0
 11
16.133957161534
 21
2.807804584933824
 31
0.0
  0
LINE
  5
100
100
AcDbEntity
  8
USP-GEO
100
AcDbLine
 10
16.13395716153401
 20
3.334804584933831
 30
0.0
 11
16.03195716153402
 21
3.334804584933833
 31
0.0
  0
LINE
  5
101
100
AcDbEntity
  8
USP-GEO
100
AcDbLine
 10
15.85240716153403
 20
3.659804584933812
 30
0.0
 11
15.85140716153404
 21
3.659804584933812
 31
0.0
  0
LINE
  5
102
100
AcDbEntity
  8
USP-GEO
100
AcDbLine
 10
16.10950716153402
 20
3.891902818447158
 30
0.0
 11
16.00950716153413
 21
3.89190281844716
 31
0.0
  0
LINE
  5
103
100
AcDbEntity
  8
USP-GEO
100
AcDbLine
 10
16.21150716153404
 20
3.909804584933812
 30
0.0
 11
16.31350716153403
 21
3.909804584933811
 31
0.0
  0
CIRCLE
  5
104
100
AcDbEntity
  8
USP-GEO
100
AcDbCircle
 10
15.47740716153421
 20
12.78480458493381
 30
0.0
 40
0.1875
  0
ARC
  5
105
100
AcDbEntity
  8
USP-GEO
100
AcDbCircle
 10
15.47540716153419
 20
12.78480458493383
 30
0.0
 40
0.1875
100
AcDbArc
 50
270.3055789388121
 51
89.69442105996654
  0
LINE
  5
106
100
AcDbEntity
  8
USP-GEO
100
AcDbLine
 10
15.22533279964053
 20
19.40980458493382
 30
0.0
 11
14.97733279964069
 21
19.16180458493401
 31
0.0
  0
LINE
  5
107
100
AcDbEntity
  8
USP-GEO
100
AcDbLine
 10
14.97733279964073
 20
19.16180458493395
 30
0.0
 11
14.97533279964066
 21
19.15980458493387
 31
0.0
  0
CIRCLE
  5
108
100
AcDbEntity
  8
USP-GEO
100
AcDbCircle
 10
15.47740716153435
 20
15.03480458493385
 30
0.0
 40
0.1875
  0
ARC
  5
109
100
AcDbEntity
  8
USP-GEO
100
AcDbCircle
 10
15.47540716153432
 20
15.03480458493386
 30
0.0
 40
0.1875
100
AcDbArc
 50
45.00000000000039
 51
89.69442106037204
  0
ARC
  5
10A
100
AcDbEntity
  8
USP-GEO
100
AcDbCircle
 10
15.47540716153432
 20
15.03480458493386
 30
0.0
 40
0.1875
100
AcDbArc
 50
270.3055789392208
 51
45.00000000000111
  0
CIRCLE
  5
10B
100
AcDbEntity
  8
USP-GEO
100
AcDbCircle
 10
15.47740716153432
 20
18.40980458493382
 30
0.0
 40
0.1875
  0
ARC
  5
10C
100
AcDbEntity
  8
USP-GEO
100
AcDbCircle
 10
15.47540716153429
 20
18.40980458493384
 30
0.0
 40
0.1875
100
AcDbArc
 50
270.3055789388126
 51
89.69442105996593
  0
LINE
  5
10D
100
AcDbEntity
  8
USP-GEO
100
AcDbLine
 10
16.21150716153433
 20
19.40980458493381
 30
0.0
 11
15.22533279964053
 21
19.40980458493383
 31
0.0
  0
LINE
  5
10E
100
AcDbEntity
  8
USP-GEO
100
AcDbLine
 10
16.21150716153432
 20
19.4098045849338
 30
0.0
 11
16.31350716153432
 21
19.4098045849338
 31
0.0
  0
ENDSEC
  0
SECTION
  2
OBJECTS
  0
DICTIONARY
  5
128
102
{ACAD_XDICTIONARY
360
129
102
}
100
AcDbDictionary
  3
ACAD_GROUP
350
126
  3
ACAD_MLINESTYLE
350
127
  0
DICTIONARY
  5
10F
100
AcDbDictionary
280
     1
  3
ACAD_LAYOUTSELFREF
360
110
  0
DICTIONARY
  5
115
100
AcDbDictionary
280
     1
  3
ACAD_LAYOUTSELFREF
360
116
  0
DICTIONARY
  5
129
100
AcDbDictionary
280
     1
  3
ACAD_XREC_ROUNDTRIP
360
12A
  0
DICTIONARY
  5
126
102
{ACAD_REACTORS
330
128
102
}
100
AcDbDictionary
  0
DICTIONARY
  5
127
102
{ACAD_REACTORS
330
128
102
}
100
AcDbDictionary
  3
STANDARD
350
12B
  0
XRECORD
  5
110
102
{ACAD_REACTORS
330
10F
102
}
100
AcDbXrecord
340
18
  0
XRECORD
  5
116
102
{ACAD_REACTORS
330
115
102
}
100
AcDbXrecord
340
15
  0
XRECORD
  5
12A
102
{ACAD_REACTORS
330
129
102
}
100
AcDbXrecord
102
EXTNAMES
  1
ACDBVARIABLEDICTIONARY
  2
AcDbVariableDictionary
  0
MLINESTYLE
  5
12B
102
{ACAD_REACTORS
330
127
102
}
100
AcDbMlineStyle
  2
STANDARD
 70
     0
  3

 62
     0
 51
90.0
 52
90.0
 71
     2
 49
0.5
 62
   256
  6
BYLAYER
 49
-0.5
 62
   256
  6
BYLAYER
  0
ENDSEC
  0
EOF
