  0
SECTION
  2
HEADER
  9
$ACADVER
  1
AC1014
  9
$ACADMAINTVER
 70
     9
  9
$DWGCODEPAGE
  3
ANSI_1252
  9
$INSBASE
 10
0.0
 20
0.0
 30
0.0
  9
$EXTMIN
 10
0.0026920007487377
 20
0.0010260288980533
 30
0.0
  9
$EXTMAX
 10
25.2880562199549
 20
29.05702414473978
 30
0.0
  9
$LIMMIN
 10
0.0
 20
0.0
  9
$LIMMAX
 10
12.0
 20
9.0
  9
$ORTHOMODE
 70
     0
  9
$REGENMODE
 70
     1
  9
$FILLMODE
 70
     1
  9
$QTEXTMODE
 70
     0
  9
$MIRRTEXT
 70
     0
  9
$DRAGMODE
 70
     2
  9
$LTSCALE
 40
1.5
  9
$OSMODE
 70
    37
  9
$ATTMODE
 70
     1
  9
$TEXTSIZE
 40
0.5
  9
$TRACEWID
 40
0.05
  9
$TEXTSTYLE
  7
STANDARD
  9
$CLAYER
  8
0
  9
$CELTYPE
  6
BYLAYER
  9
$CECOLOR
 62
   256
  9
$CELTSCALE
 40
1.0
  9
$DELOBJ
 70
     1
  9
$DISPSILH
 70
     1
  9
$DIMSCALE
 40
6.0
  9
$DIMASZ
 40
0.125
  9
$DIMEXO
 40
0.0625
  9
$DIMDLI
 40
0.37890625
  9
$DIMRND
 40
0.0
  9
$DIMDLE
 40
0.0
  9
$DIMEXE
 40
0.09375
  9
$DIMTP
 40
0.0
  9
$DIMTM
 40
0.0
  9
$DIMTXT
 40
0.109375
  9
$DIMCEN
 40
0.0
  9
$DIMTSZ
 40
0.0
  9
$DIMTOL
 70
     0
  9
$DIMLIM
 70
     0
  9
$DIMTIH
 70
     1
  9
$DIMTOH
 70
     1
  9
$DIMSE1
 70
     0
  9
$DIMSE2
 70
     0
  9
$DIMTAD
 70
     0
  9
$DIMZIN
 70
     8
  9
$DIMBLK
  1

  9
$DIMASO
 70
     1
  9
$DIMSHO
 70
     1
  9
$DIMPOST
  1

  9
$DIMAPOST
  1

  9
$DIMALT
 70
     0
  9
$DIMALTD
 70
     2
  9
$DIMALTF
 40
25.4
  9
$DIMLFAC
 40
1.0
  9
$DIMTOFL
 70
     0
  9
$DIMTVP
 40
0.0
  9
$DIMTIX
 70
     0
  9
$DIMSOXD
 70
     0
  9
$DIMSAH
 70
     0
  9
$DIMBLK1
  1

  9
$DIMBLK2
  1

  9
$DIMSTYLE
  2
STANDARD
  9
$DIMCLRD
 70
     0
  9
$DIMCLRE
 70
     0
  9
$DIMCLRT
 70
   256
  9
$DIMTFAC
 40
1.0
  9
$DIMGAP
 40
0.08984375
  9
$DIMJUST
 70
     0
  9
$DIMSD1
 70
     0
  9
$DIMSD2
 70
     0
  9
$DIMTOLJ
 70
     1
  9
$DIMTZIN
 70
     0
  9
$DIMALTZ
 70
     0
  9
$DIMALTTZ
 70
     0
  9
$DIMFIT
 70
     3
  9
$DIMUPT
 70
     1
  9
$DIMUNIT
 70
     7
  9
$DIMDEC
 70
     4
  9
$DIMTDEC
 70
     4
  9
$DIMALTU
 70
     2
  9
$DIMALTTD
 70
     2
  9
$DIMTXSTY
  7
STANDARD
  9
$DIMAUNIT
 70
     0
  9
$LUNITS
 70
     5
  9
$LUPREC
 70
     6
  9
$SKETCHINC
 40
0.1
  9
$FILLETRAD
 40
0.0
  9
$AUNITS
 70
     0
  9
$AUPREC
 70
     1
  9
$MENU
  1
CUSTOM
  9
$ELEVATION
 40
0.0
  9
$PELEVATION
 40
0.0
  9
$THICKNESS
 40
0.0
  9
$LIMCHECK
 70
     0
  9
$BLIPMODE
 70
     0
  9
$CHAMFERA
 40
0.0
  9
$CHAMFERB
 40
0.0
  9
$CHAMFERC
 40
0.0
  9
$CHAMFERD
 40
0.0
  9
$SKPOLY
 70
     0
  9
$TDCREATE
 40
2451263.663231366
  9
$TDUPDATE
 40
2452759.746429930
  9
$TDINDWG
 40
0.1265706250
  9
$TDUSRTIMER
 40
0.1265706250
  9
$USRTIMER
 70
     1
  9
$ANGBASE
 50
0.0
  9
$ANGDIR
 70
     0
  9
$PDMODE
 70
     0
  9
$PDSIZE
 40
0.0
  9
$PLINEWID
 40
0.0
  9
$COORDS
 70
     1
  9
$SPLFRAME
 70
     0
  9
$SPLINETYPE
 70
     6
  9
$SPLINESEGS
 70
     8
  9
$ATTDIA
 70
     0
  9
$ATTREQ
 70
     1
  9
$HANDLING
 70
     1
  9
$HANDSEED
  5
BB
  9
$SURFTAB1
 70
     6
  9
$SURFTAB2
 70
     6
  9
$SURFTYPE
 70
     6
  9
$SURFU
 70
     6
  9
$SURFV
 70
     6
  9
$UCSNAME
  2

  9
$UCSORG
 10
0.0
 20
0.0
 30
0.0
  9
$UCSXDIR
 10
1.0
 20
0.0
 30
0.0
  9
$UCSYDIR
 10
0.0
 20
1.0
 30
0.0
  9
$PUCSNAME
  2

  9
$PUCSORG
 10
0.0
 20
0.0
 30
0.0
  9
$PUCSXDIR
 10
1.0
 20
0.0
 30
0.0
  9
$PUCSYDIR
 10
0.0
 20
1.0
 30
0.0
  9
$USERI1
 70
     0
  9
$USERI2
 70
     0
  9
$USERI3
 70
     0
  9
$USERI4
 70
     0
  9
$USERI5
 70
     0
  9
$USERR1
 40
0.0
  9
$USERR2
 40
0.0
  9
$USERR3
 40
0.0
  9
$USERR4
 40
0.0
  9
$USERR5
 40
0.0
  9
$WORLDVIEW
 70
     1
  9
$SHADEDGE
 70
     3
  9
$SHADEDIF
 70
    70
  9
$TILEMODE
 70
     1
  9
$MAXACTVP
 70
    16
  9
$PINSBASE
 10
0.0
 20
0.0
 30
0.0
  9
$PLIMCHECK
 70
     0
  9
$PEXTMIN
 10
1.052083323321005
 20
0.7937500251559762
 30
0.0
  9
$PEXTMAX
 10
9.468749909889039
 20
7.143750226403783
 30
0.0
  9
$PLIMMIN
 10
-0.2145830289585384
 20
-0.2812499887361301
  9
$PLIMMAX
 10
10.78541673074557
 20
8.218749770967978
  9
$UNITMODE
 70
     0
  9
$VISRETAIN
 70
     0
  9
$PLINEGEN
 70
     0
  9
$PSLTSCALE
 70
     0
  9
$TREEDEPTH
 70
  3020
  9
$PICKSTYLE
 70
     1
  9
$CMLSTYLE
  2
STANDARD
  9
$CMLJUST
 70
     0
  9
$CMLSCALE
 40
1.0
  9
$PROXYGRAPHICS
 70
     1
  9
$MEASUREMENT
 70
     0
  0
ENDSEC
  0
SECTION
  2
CLASSES
  0
CLASS
  1
ACDBDICTIONARYWDFLT
  2
AcDbDictionaryWithDefault
  3
AutoCAD 2000
 90
        0
280
     0
281
     0
  0
CLASS
  1
ACDBPLACEHOLDER
  2
AcDbPlaceHolder
  3
AutoCAD 2000
 90
        0
280
     0
281
     0
  0
CLASS
  1
LAYOUT
  2
AcDbLayout
  3
AutoCAD 2000
 90
        0
280
     0
281
     0
  0
CLASS
  1
DICTIONARYVAR
  2
AcDbDictionaryVar
  3
"AutoCAD"
 90
        0
280
     0
281
     0
  0
CLASS
  1
LONG_TRANSACTION
  2
AcDbLongTransaction
  3
AutoCAD 2000
 90
        0
280
     0
281
     0
  0
CLASS
  1
LWPOLYLINE
  2
AcDbPolyline
  3
"AutoCAD"
 90
        0
280
     0
281
     1
  0
CLASS
  1
HATCH
  2
AcDbHatch
  3
"ACAD_SEDONA"
 90
        0
280
     0
281
     1
  0
CLASS
  1
XRECORD
  2
AcDbXrecord
  3
"<Built In>"
 90
        0
280
     0
281
     0
  0
CLASS
  1
LONG_TRANSACTION
  2
AcDbLongTransaction
  3
AutoCAD 2000
 90
        0
280
     0
281
     0
  0
CLASS
  1
LWPOLYLINE
  2
AcDbPolyline
  3
"AutoCAD"
 90
        0
280
     0
281
     1
  0
CLASS
  1
HATCH
  2
AcDbHatch
  3
"ACAD_SEDONA"
 90
        0
280
     0
281
     1
  0
CLASS
  1
XRECORD
  2
AcDbXrecord
  3
"<Built In>"
 90
        0
280
     0
281
     0
  0
ENDSEC
  0
SECTION
  2
TABLES
  0
TABLE
  2
VPORT
  5
9D
100
AcDbSymbolTable
 70
     1
  0
VPORT
  5
B7
100
AcDbSymbolTableRecord
100
AcDbViewportTableRecord
  2
*ACTIVE
 70
     0
 10
0.0
 20
0.0
 11
1.0
 21
1.0
 12
-10.45065196157268
 22
25.15758852032778
 13
0.0
 23
0.0
 14
1.0
 24
1.0
 15
0.0
 25
0.0
 16
0.0
 26
0.0
 36
1.0
 17
23.09603071721725
 27
-10.27010416511325
 37
-10.44050274849355
 40
29.98722349009224
 41
1.457627118644067
 42
50.0
 43
10.55307667737539
 44
10.55307667737539
 50
0.0
 51
0.0
 71
     0
 72
   100
 73
     1
 74
     1
 75
     0
 76
     0
 77
     0
 78
     0
  0
ENDTAB
  0
TABLE
  2
LTYPE
  5
98
100
AcDbSymbolTable
 70
     2
  0
LTYPE
  5
99
100
AcDbSymbolTableRecord
100
AcDbLinetypeTableRecord
  2
BYBLOCK
 70
     0
  3

 72
    65
 73
     0
 40
0.0
  0
LTYPE
  5
9A
100
AcDbSymbolTableRecord
100
AcDbLinetypeTableRecord
  2
BYLAYER
 70
     0
  3

 72
    65
 73
     0
 40
0.0
  0
LTYPE
  5
5
100
AcDbSymbolTableRecord
100
AcDbLinetypeTableRecord
  2
CONTINUOUS
 70
     0
  3
Solid line
 72
    65
 73
     0
 40
0.0
  0
LTYPE
  5
1D
100
AcDbSymbolTableRecord
100
AcDbLinetypeTableRecord
  2
HIDDEN
 70
     0
  3
Hidden __ __ __ __ __ __ __ __ __ __ __ __ __ _
 72
    65
 73
     2
 40
0.375
 49
0.25
 74
     0
 49
-0.125
 74
     0
  0
ENDTAB
  0
TABLE
  2
LAYER
  5
96
100
AcDbSymbolTable
 70
     4
  0
LAYER
  5
35
100
AcDbSymbolTableRecord
100
AcDbLayerTableRecord
  2
0
 70
     0
 62
     7
  6
CONTINUOUS
  0
LAYER
  5
8
100
AcDbSymbolTableRecord
100
AcDbLayerTableRecord
  2
USP-GEO
 70
     0
 62
     7
  6
CONTINUOUS
  0
LAYER
  5
1C
100
AcDbSymbolTableRecord
100
AcDbLayerTableRecord
  2
USP-HID
 70
     0
 62
     7
  6
HIDDEN
  0
LAYER
  5
4
100
AcDbSymbolTableRecord
100
AcDbLayerTableRecord
  2
USP
 70
     0
 62
     7
  6
CONTINUOUS
  0
ENDTAB
  0
TABLE
  2
STYLE
  5
97
100
AcDbSymbolTable
 70
     1
  0
STYLE
  5
33
100
AcDbSymbolTableRecord
100
AcDbTextStyleTableRecord
  2
STANDARD
 70
     0
 40
0.0
 41
1.0
 50
0.0
 71
     0
 42
0.5
  3
txt
  4

  0
ENDTAB
  0
TABLE
  2
VIEW
  5
9B
100
AcDbSymbolTable
 70
     0
  0
ENDTAB
  0
TABLE
  2
UCS
  5
9C
100
AcDbSymbolTable
 70
     0
  0
ENDTAB
  0
TABLE
  2
APPID
  5
9F
100
AcDbSymbolTable
 70
     1
  0
APPID
  5
91
100
AcDbSymbolTableRecord
100
AcDbRegAppTableRecord
  2
ACAD
 70
     0
  0
ENDTAB
  0
TABLE
  2
DIMSTYLE
  5
A0
100
AcDbSymbolTable
 70
     1
  0
DIMSTYLE
105
A8
100
AcDbSymbolTableRecord
100
AcDbDimStyleTableRecord
  2
STANDARD
 70
     0
  3

  4

  5

  6

  7

 40
1.0
 41
0.18
 42
0.0625
 43
0.38
 44
0.18
 45
0.0
 46
0.0
 47
0.0
 48
0.0
140
0.18
141
0.09
142
0.0
143
25.4
144
1.0
145
0.0
146
1.0
147
0.09
 71
     0
 72
     0
 73
     1
 74
     1
 75
     0
 76
     0
 77
     0
 78
     0
170
     0
171
     2
172
     0
173
     0
174
     0
175
     0
176
     0
177
     0
178
     0
270
     2
271
     4
272
     4
273
     2
274
     2
340
33
275
     0
280
     0
281
     0
282
     0
283
     1
284
     0
285
     0
286
     0
287
     3
288
     0
  0
ENDTAB
  0
TABLE
  2
BLOCK_RECORD
  5
1
100
AcDbSymbolTable
 70
     3
  0
BLOCK_RECORD
  5
2
102
{ACAD_XDICTIONARY
360
88
102
}
100
AcDbSymbolTableRecord
100
AcDbBlockTableRecord
  2
*MODEL_SPACE
  0
BLOCK_RECORD
  5
8C
102
{ACAD_XDICTIONARY
360
92
102
}
100
AcDbSymbolTableRecord
100
AcDbBlockTableRecord
  2
*PAPER_SPACE
  0
BLOCK_RECORD
  5
6
100
AcDbSymbolTableRecord
100
AcDbBlockTableRecord
  2
PCM6616_F
  0
BLOCK_RECORD
  5
38
100
AcDbSymbolTableRecord
100
AcDbBlockTableRecord
  2
PCM6616_T
  0
BLOCK_RECORD
  5
69
100
AcDbSymbolTableRecord
100
AcDbBlockTableRecord
  2
PCM6616_S
  0
ENDTAB
  0
ENDSEC
  0
SECTION
  2
BLOCKS
  0
BLOCK
  5
8A
100
AcDbEntity
  8
0
100
AcDbBlockBegin
  2
*MODEL_SPACE
 70
     0
 10
0.0
 20
0.0
 30
0.0
  3
*MODEL_SPACE
  1

  0
ENDBLK
  5
8B
100
AcDbEntity
  8
0
100
AcDbBlockEnd
  0
BLOCK
  5
94
100
AcDbEntity
 67
     1
  8
0
100
AcDbBlockBegin
  2
*PAPER_SPACE
 70
     0
 10
0.0
 20
0.0
 30
0.0
  3
*PAPER_SPACE
  1

  0
ENDBLK
  5
95
100
AcDbEntity
 67
     1
  8
0
100
AcDbBlockEnd
  0
BLOCK
  5
34
100
AcDbEntity
  8
0
100
AcDbBlockBegin
  2
PCM6616_F
 70
     0
 10
0.0
 20
0.0
 30
0.0
  3
PCM6616_F
  1

  0
LINE
  5
7
100
AcDbEntity
  8
USP-GEO
100
AcDbLine
 10
4.719249999999931
 20
3.718750000000041
 30
0.0
 11
4.906749999999924
 21
3.71875000000004
 31
0.0
  0
LINE
  5
9
100
AcDbEntity
  8
USP-GEO
100
AcDbLine
 10
4.906749999999924
 20
3.78175000000004
 30
0.0
 11
4.719249999999931
 21
3.781750000000041
 31
0.0
  0
LINE
  5
A
100
AcDbEntity
  8
USP-GEO
100
AcDbLine
 10
0.0000000000000173
 20
7.031750000000009
 30
0.0
 11
0.0
 21
3.718750000000007
 31
0.0
  0
LINE
  5
B
100
AcDbEntity
  8
USP-GEO
100
AcDbLine
 10
0.063000000000001
 20
3.781750000000006
 30
0.0
 11
0.0630000000000179
 21
7.031750000000009
 31
0.0
  0
LINE
  5
C
100
AcDbEntity
  8
USP-GEO
100
AcDbLine
 10
0.7192499999999438
 20
3.718750000000061
 30
0.0
 11
0.9067499999999366
 21
3.718750000000059
 31
0.0
  0
LINE
  5
D
100
AcDbEntity
  8
USP-GEO
100
AcDbLine
 10
0.9067499999999375
 20
3.781750000000059
 30
0.0
 11
0.7192499999999447
 21
3.781750000000061
 31
0.0
  0
LINE
  5
E
100
AcDbEntity
  8
USP-GEO
100
AcDbLine
 10
0.7192500000000051
 20
3.781750000000007
 30
0.0
 11
0.7192500000000047
 21
3.718750000000007
 31
0.0
  0
LINE
  5
F
100
AcDbEntity
  8
USP-GEO
100
AcDbLine
 10
0.4692500000000086
 20
3.781750000000004
 30
0.0
 11
0.4692500000000083
 21
3.718750000000004
 31
0.0
  0
LINE
  5
10
100
AcDbEntity
  8
USP-GEO
100
AcDbLine
 10
0.4692500000000086
 20
3.718750000000004
 30
0.0
 11
0.0
 21
3.718750000000006
 31
0.0
  0
LINE
  5
11
100
AcDbEntity
  8
USP-GEO
100
AcDbLine
 10
0.4692500000000086
 20
3.718750000000004
 30
0.0
 11
0.7192500000000053
 21
3.718750000000007
 31
0.0
  0
LINE
  5
12
100
AcDbEntity
  8
USP-GEO
100
AcDbLine
 10
0.0630000000000006
 20
3.781750000000006
 30
0.0
 11
0.4692500000000086
 21
3.781750000000004
 31
0.0
  0
LINE
  5
13
100
AcDbEntity
  8
USP-GEO
100
AcDbLine
 10
0.4692500000000086
 20
3.781750000000004
 30
0.0
 11
0.7192500000000051
 21
3.781750000000007
 31
0.0
  0
LINE
  5
14
100
AcDbEntity
  8
USP-GEO
100
AcDbLine
 10
4.719249999999919
 20
0.2499999999999818
 30
0.0
 11
4.719249999999938
 21
3.781750000000011
 31
0.0
  0
LINE
  5
15
100
AcDbEntity
  8
USP-GEO
100
AcDbLine
 10
0.9067499999999357
 20
3.781750000000057
 30
0.0
 11
0.9067499999999252
 21
0.2500000000000004
 31
0.0
  0
LINE
  5
16
100
AcDbEntity
  8
USP-GEO
100
AcDbLine
 10
1.156749999999924
 20
-0.0000000000000004
 30
0.0
 11
4.469249999999918
 21
-0.0000000000000169
 31
0.0
  0
LINE
  5
17
100
AcDbEntity
  8
USP-GEO
100
AcDbLine
 10
0.9067499999999251
 20
0.2500000000000004
 30
0.0
 11
1.156749999999923
 21
-0.0000000000000009
 31
0.0
  0
CIRCLE
  5
18
100
AcDbEntity
  8
USP-GEO
100
AcDbCircle
 10
1.531749999999933
 20
0.3749999999999969
 30
0.0
 40
0.0860000000000001
  0
CIRCLE
  5
19
100
AcDbEntity
  8
USP-GEO
100
AcDbCircle
 10
4.219249999999906
 20
0.4999999999999845
 30
0.0
 40
0.0860000000000001
  0
LINE
  5
1A
100
AcDbEntity
  8
USP-GEO
100
AcDbLine
 10
4.469249999999918
 20
-0.0000000000000173
 30
0.0
 11
4.719249999999919
 21
0.2499999999999818
 31
0.0
  0
LINE
  5
1B
100
AcDbEntity
  8
USP-HID
100
AcDbLine
 10
0.9067499999999348
 20
3.718750000000059
 30
0.0
 11
4.719249999999936
 21
3.71875000000004
 31
0.0
  0
CIRCLE
  5
1E
100
AcDbEntity
  8
USP-GEO
100
AcDbCircle
 10
2.812999999999925
 20
1.500000000000019
 30
0.0
 40
0.2655000000000001
  0
LINE
  5
1F
100
AcDbEntity
  8
USP-GEO
100
AcDbLine
 10
0.9067499999999357
 20
3.781750000000057
 30
0.0
 11
4.719249999999937
 21
3.78175000000001
 31
0.0
  0
CIRCLE
  5
20
100
AcDbEntity
  8
USP-GEO
100
AcDbCircle
 10
1.406749999999943
 20
2.374999999999999
 30
0.0
 40
0.0860000000000001
  0
CIRCLE
  5
21
100
AcDbEntity
  8
USP-GEO
100
AcDbCircle
 10
4.344249999999916
 20
2.499999999999984
 30
0.0
 40
0.0860000000000001
  0
LINE
  5
22
100
AcDbEntity
  8
USP-GEO
100
AcDbLine
 10
0.0000000000000169
 20
7.281750000000013
 30
0.0
 11
0.0000000000000191
 21
7.031750000000009
 31
0.0
  0
LINE
  5
23
100
AcDbEntity
  8
USP-GEO
100
AcDbLine
 10
0.0630000000000148
 20
7.281750000000013
 30
0.0
 11
0.0630000000000171
 21
7.031750000000009
 31
0.0
  0
LINE
  5
24
100
AcDbEntity
  8
USP-GEO
100
AcDbLine
 10
0.0630000000000175
 20
7.031750000000009
 30
0.0
 11
0.0000000000000195
 21
7.03175000000001
 31
0.0
  0
LINE
  5
25
100
AcDbEntity
  8
USP-GEO
100
AcDbLine
 10
0.0630000000000148
 20
7.281750000000013
 30
0.0
 11
0.0000000000000169
 21
7.281750000000013
 31
0.0
  0
LINE
  5
26
100
AcDbEntity
  8
USP-GEO
100
AcDbLine
 10
5.56300000000001
 20
3.781749999999979
 30
0.0
 11
5.563000000000027
 21
7.031749999999973
 31
0.0
  0
LINE
  5
27
100
AcDbEntity
  8
USP-GEO
100
AcDbLine
 10
5.62600000000001
 20
3.718749999999979
 30
0.0
 11
5.626000000000026
 21
7.031749999999973
 31
0.0
  0
LINE
  5
28
100
AcDbEntity
  8
USP-GEO
100
AcDbLine
 10
5.156749999999966
 20
3.781749999999981
 30
0.0
 11
5.156749999999966
 21
3.718749999999981
 31
0.0
  0
LINE
  5
29
100
AcDbEntity
  8
USP-GEO
100
AcDbLine
 10
4.906749999999963
 20
3.781749999999986
 30
0.0
 11
4.906749999999963
 21
3.718749999999986
 31
0.0
  0
LINE
  5
2A
100
AcDbEntity
  8
USP-GEO
100
AcDbLine
 10
5.156749999999966
 20
3.718749999999981
 30
0.0
 11
5.62600000000001
 21
3.718749999999979
 31
0.0
  0
LINE
  5
2B
100
AcDbEntity
  8
USP-GEO
100
AcDbLine
 10
4.906749999999963
 20
3.718749999999986
 30
0.0
 11
5.156749999999966
 21
3.718749999999981
 31
0.0
  0
LINE
  5
2C
100
AcDbEntity
  8
USP-GEO
100
AcDbLine
 10
5.156749999999966
 20
3.781749999999981
 30
0.0
 11
5.56300000000001
 21
3.781749999999979
 31
0.0
  0
LINE
  5
2D
100
AcDbEntity
  8
USP-GEO
100
AcDbLine
 10
4.906749999999963
 20
3.781749999999986
 30
0.0
 11
5.156749999999966
 21
3.781749999999981
 31
0.0
  0
LINE
  5
2E
100
AcDbEntity
  8
USP-GEO
100
AcDbLine
 10
5.563000000000027
 20
7.031749999999973
 30
0.0
 11
5.563000000000024
 21
7.281749999999977
 31
0.0
  0
LINE
  5
2F
100
AcDbEntity
  8
USP-GEO
100
AcDbLine
 10
5.626000000000026
 20
7.031749999999973
 30
0.0
 11
5.626000000000024
 21
7.281749999999977
 31
0.0
  0
LINE
  5
30
100
AcDbEntity
  8
USP-GEO
100
AcDbLine
 10
5.563000000000027
 20
7.031749999999973
 30
0.0
 11
5.626000000000026
 21
7.031749999999973
 31
0.0
  0
LINE
  5
31
100
AcDbEntity
  8
USP-GEO
100
AcDbLine
 10
5.563000000000024
 20
7.281749999999977
 30
0.0
 11
5.626000000000025
 21
7.281749999999976
 31
0.0
  0
TEXT
  5
32
100
AcDbEntity
  8
USP
100
AcDbText
 10
-2.26281408837225
 20
-2.985953165721941
 30
0.0
 40
0.5
  1
PCM6616 - FRONT ANGLE
 72
     1
 11
2.820519244961082
 21
-2.985953165721941
 31
0.0
100
AcDbText
  0
ENDBLK
  5
36
100
AcDbEntity
  8
0
100
AcDbBlockEnd
  0
BLOCK
  5
66
100
AcDbEntity
  8
0
100
AcDbBlockBegin
  2
PCM6616_T
 70
     0
 10
0.0
 20
0.0
 30
0.0
  3
PCM6616_T
  1

  0
TEXT
  5
39
100
AcDbEntity
  8
USP
100
AcDbText
 10
-1.762814088372273
 20
-2.918259802916157
 30
0.0
 40
0.5
  1
PCM6616 - TOP ANGLE
 72
     1
 11
2.820519244961059
 21
-2.918259802916157
 31
0.0
100
AcDbText
  0
ARC
  5
3A
100
AcDbEntity
  8
USP-GEO
100
AcDbCircle
 10
4.812999999999909
 20
3.796750000000256
 30
0.0
 40
0.0937499999999965
100
AcDbArc
 50
0.0000000000003053
 51
179.9999999999991
  0
ARC
  5
3B
100
AcDbEntity
  8
USP-GEO
100
AcDbCircle
 10
4.812999999999829
 20
9.20324999999997
 30
0.0
 40
0.0937499999999965
100
AcDbArc
 50
180.0000000000014
 51
359.9999999999983
  0
LINE
  5
3C
100
AcDbEntity
  8
USP-GEO
100
AcDbLine
 10
0.0629999999998265
 20
12.74999999999999
 30
0.0
 11
0.0629999999999962
 21
0.2499999999999982
 31
0.0
  0
LINE
  5
3D
100
AcDbEntity
  8
USP-GEO
100
AcDbLine
 10
-0.0000000000001723
 20
12.74999999999999
 30
0.0
 11
-0.0000000000000027
 21
0.2499999999999964
 31
0.0
  0
ARC
  5
3E
100
AcDbEntity
  8
USP-GEO
100
AcDbCircle
 10
0.8129999999999224
 20
3.796750000000203
 30
0.0
 40
0.0937499999999965
100
AcDbArc
 50
359.9999999999983
 51
180.0000000000003
  0
LINE
  5
3F
100
AcDbEntity
  8
USP-GEO
100
AcDbLine
 10
0.7192499999999225
 20
3.796750000000201
 30
0.0
 11
0.7192499999999847
 21
0.25
 31
0.0
  0
LINE
  5
40
100
AcDbEntity
  8
USP-GEO
100
AcDbLine
 10
0.4692499999999882
 20
-0.0000000000000036
 30
0.0
 11
0.7192499999999847
 21
0.25
 31
0.0
  0
LINE
  5
41
100
AcDbEntity
  8
USP-GEO
100
AcDbLine
 10
0.0629999999999962
 20
0.2499999999999982
 30
0.0
 11
0.062999999999998
 21
0.0000000000000018
 31
0.0
  0
LINE
  5
42
100
AcDbEntity
  8
USP-GEO
100
AcDbLine
 10
-0.0000000000000018
 20
0.2499999999999964
 30
0.0
 11
0.0
 21
0.0
 31
0.0
  0
LINE
  5
43
100
AcDbEntity
  8
USP-GEO
100
AcDbLine
 10
0.0629999999999802
 20
-0.0000000000000036
 30
0.0
 11
0.4692499999999882
 21
-0.0000000000000053
 31
0.0
  0
LINE
  5
44
100
AcDbEntity
  8
USP-GEO
100
AcDbLine
 10
0.0629999999999988
 20
0.0000000000000018
 30
0.0
 11
0.0000000000000009
 21
0.0000000000000018
 31
0.0
  0
LINE
  5
45
100
AcDbEntity
  8
USP-GEO
100
AcDbLine
 10
0.0629999999999962
 20
0.2499999999999982
 30
0.0
 11
-0.0000000000000018
 21
0.2499999999999982
 31
0.0
  0
LINE
  5
46
100
AcDbEntity
  8
USP-GEO
100
AcDbLine
 10
0.9067499999999171
 20
3.655750000000086
 30
0.0
 11
4.719249999999918
 21
3.655750000000137
 31
0.0
  0
LINE
  5
47
100
AcDbEntity
  8
USP-HID
100
AcDbLine
 10
0.9067499999999162
 20
3.718750000000088
 30
0.0
 11
4.719249999999918
 21
3.71875000000014
 31
0.0
  0
LINE
  5
48
100
AcDbEntity
  8
USP-GEO
100
AcDbLine
 10
0.9067499999999171
 20
3.655750000000086
 30
0.0
 11
0.9067499999999153
 21
3.796750000000203
 31
0.0
  0
LINE
  5
49
100
AcDbEntity
  8
USP-GEO
100
AcDbLine
 10
4.719249999999918
 20
3.655750000000137
 30
0.0
 11
4.719249999999918
 21
3.796750000000256
 31
0.0
  0
ARC
  5
4A
100
AcDbEntity
  8
USP-GEO
100
AcDbCircle
 10
0.8129999999998416
 20
9.203249999999913
 30
0.0
 40
0.0937499999999965
100
AcDbArc
 50
179.9999999999991
 51
359.9999999999983
  0
LINE
  5
4B
100
AcDbEntity
  8
USP-GEO
100
AcDbLine
 10
0.719249999999847
 20
9.203249999999913
 30
0.0
 11
0.7192499999998061
 21
12.75000000000005
 31
0.0
  0
LINE
  5
4C
100
AcDbEntity
  8
USP-GEO
100
AcDbLine
 10
0.0629999999998026
 20
13.00000000000004
 30
0.0
 11
0.4692499999998044
 21
13.00000000000005
 31
0.0
  0
LINE
  5
4D
100
AcDbEntity
  8
USP-GEO
100
AcDbLine
 10
0.0629999999998265
 20
12.74999999999999
 30
0.0
 11
-0.0000000000001723
 21
12.74999999999999
 31
0.0
  0
LINE
  5
4E
100
AcDbEntity
  8
USP-GEO
100
AcDbLine
 10
0.062999999999823
 20
13.0
 30
0.0
 11
-0.000000000000175
 21
13.0
 31
0.0
  0
LINE
  5
4F
100
AcDbEntity
  8
USP-GEO
100
AcDbLine
 10
-0.000000000000175
 20
13.0
 30
0.0
 11
-0.0000000000001705
 21
12.74999999999999
 31
0.0
  0
LINE
  5
50
100
AcDbEntity
  8
USP-GEO
100
AcDbLine
 10
0.062999999999823
 20
13.0
 30
0.0
 11
0.0629999999998274
 21
12.74999999999999
 31
0.0
  0
LINE
  5
51
100
AcDbEntity
  8
USP-GEO
100
AcDbLine
 10
0.7192499999998097
 20
12.75000000000005
 30
0.0
 11
0.4692499999998053
 21
13.00000000000005
 31
0.0
  0
LINE
  5
52
100
AcDbEntity
  8
USP-GEO
100
AcDbLine
 10
0.9067499999998398
 20
9.344250000000032
 30
0.0
 11
4.719249999999841
 21
9.344250000000085
 31
0.0
  0
LINE
  5
53
100
AcDbEntity
  8
USP-HID
100
AcDbLine
 10
4.719249999999843
 20
9.281250000000087
 30
0.0
 11
0.9067499999998407
 21
9.281250000000037
 31
0.0
  0
LINE
  5
54
100
AcDbEntity
  8
USP-GEO
100
AcDbLine
 10
0.9067499999998398
 20
9.344250000000032
 30
0.0
 11
0.9067499999998416
 21
9.203249999999913
 31
0.0
  0
LINE
  5
55
100
AcDbEntity
  8
USP-GEO
100
AcDbLine
 10
4.719249999999841
 20
9.344250000000082
 30
0.0
 11
4.719249999999843
 21
9.203249999999966
 31
0.0
  0
LINE
  5
56
100
AcDbEntity
  8
USP-GEO
100
AcDbLine
 10
5.626000000000005
 20
0.2500000000000799
 30
0.0
 11
5.625999999999836
 21
12.75000000000008
 31
0.0
  0
LINE
  5
57
100
AcDbEntity
  8
USP-GEO
100
AcDbLine
 10
5.562999999999836
 20
12.75000000000008
 30
0.0
 11
5.563000000000006
 21
0.2500000000000782
 31
0.0
  0
LINE
  5
58
100
AcDbEntity
  8
USP-GEO
100
AcDbLine
 10
4.906749999999909
 20
3.796750000000258
 30
0.0
 11
4.906749999999942
 21
0.2500000000000853
 31
0.0
  0
LINE
  5
59
100
AcDbEntity
  8
USP-GEO
100
AcDbLine
 10
5.626000000000007
 20
0.0000000000000835
 30
0.0
 11
5.626000000000005
 21
0.2500000000000799
 31
0.0
  0
LINE
  5
5A
100
AcDbEntity
  8
USP-GEO
100
AcDbLine
 10
5.563000000000006
 20
0.0000000000000817
 30
0.0
 11
5.563000000000006
 21
0.2500000000000782
 31
0.0
  0
LINE
  5
5B
100
AcDbEntity
  8
USP-GEO
100
AcDbLine
 10
4.906749999999942
 20
0.2500000000000853
 30
0.0
 11
5.156749999999946
 21
0.0000000000000888
 31
0.0
  0
LINE
  5
5C
100
AcDbEntity
  8
USP-GEO
100
AcDbLine
 10
5.156749999999946
 20
0.0000000000000888
 30
0.0
 11
5.562999999999989
 21
0.0000000000001013
 31
0.0
  0
LINE
  5
5D
100
AcDbEntity
  8
USP-GEO
100
AcDbLine
 10
5.563000000000006
 20
0.0000000000000817
 30
0.0
 11
5.626000000000007
 21
0.0000000000000817
 31
0.0
  0
LINE
  5
5E
100
AcDbEntity
  8
USP-GEO
100
AcDbLine
 10
5.563000000000006
 20
0.2500000000000782
 30
0.0
 11
5.626000000000005
 21
0.2500000000000782
 31
0.0
  0
LINE
  5
5F
100
AcDbEntity
  8
USP-GEO
100
AcDbLine
 10
4.906749999999836
 20
9.20324999999997
 30
0.0
 11
4.906749999999781
 21
12.75000000000011
 31
0.0
  0
LINE
  5
60
100
AcDbEntity
  8
USP-GEO
100
AcDbLine
 10
5.156749999999775
 20
13.00000000000011
 30
0.0
 11
5.562999999999811
 21
13.00000000000012
 31
0.0
  0
LINE
  5
61
100
AcDbEntity
  8
USP-GEO
100
AcDbLine
 10
5.156749999999775
 20
13.00000000000011
 30
0.0
 11
4.906749999999783
 21
12.75000000000011
 31
0.0
  0
LINE
  5
62
100
AcDbEntity
  8
USP-GEO
100
AcDbLine
 10
5.562999999999836
 20
12.75000000000008
 30
0.0
 11
5.625999999999836
 21
12.75000000000008
 31
0.0
  0
LINE
  5
63
100
AcDbEntity
  8
USP-GEO
100
AcDbLine
 10
5.56299999999983
 20
13.00000000000008
 30
0.0
 11
5.625999999999831
 21
13.00000000000008
 31
0.0
  0
LINE
  5
64
100
AcDbEntity
  8
USP-GEO
100
AcDbLine
 10
5.562999999999836
 20
12.75000000000008
 30
0.0
 11
5.562999999999832
 21
13.00000000000008
 31
0.0
  0
LINE
  5
65
100
AcDbEntity
  8
USP-GEO
100
AcDbLine
 10
5.625999999999836
 20
12.75000000000008
 30
0.0
 11
5.625999999999831
 21
13.00000000000008
 31
0.0
  0
ENDBLK
  5
67
100
AcDbEntity
  8
0
100
AcDbBlockEnd
  0
BLOCK
  5
86
100
AcDbEntity
  8
0
100
AcDbBlockBegin
  2
PCM6616_S
 70
     0
 10
0.0
 20
0.0
 30
0.0
  3
PCM6616_S
  1

  0
LINE
  5
6A
100
AcDbEntity
  8
USP-HID
100
AcDbLine
 10
13.00000000000002
 20
3.781750000000195
 30
0.0
 11
-0.0000000000000036
 21
3.781749999999997
 31
0.0
  0
LINE
  5
6B
100
AcDbEntity
  8
USP-GEO
100
AcDbLine
 10
-0.0000000000000231
 20
7.03174999999999
 30
0.0
 11
0.2499999999999733
 21
7.281749999999995
 31
0.0
  0
LINE
  5
6C
100
AcDbEntity
  8
USP-GEO
100
AcDbLine
 10
13.00000000000002
 20
3.718750000000166
 30
0.0
 11
-0.0000000000000018
 21
3.718749999999996
 31
0.0
  0
LINE
  5
6D
100
AcDbEntity
  8
USP-GEO
100
AcDbLine
 10
-0.0000000000000018
 20
3.718749999999996
 30
0.0
 11
-0.0000000000000231
 21
7.03174999999999
 31
0.0
  0
TEXT
  5
6E
100
AcDbEntity
  8
USP
100
AcDbText
 10
1.89458732342116
 20
-2.985953165721925
 30
0.0
 40
0.5
  1
PCM6616 - SIDE ANGLE
 72
     1
 11
6.644587323421161
 21
-2.985953165721925
 31
0.0
100
AcDbText
  0
CIRCLE
  5
6F
100
AcDbEntity
  8
USP-GEO
100
AcDbCircle
 10
8.249999999999934
 20
6.313000000000144
 30
0.0
 40
0.086
  0
LINE
  5
70
100
AcDbEntity
  8
USP-GEO
100
AcDbLine
 10
0.2499999999999733
 20
7.281749999999994
 30
0.0
 11
12.74999999999997
 21
7.281750000000163
 31
0.0
  0
LINE
  5
71
100
AcDbEntity
  8
USP-GEO
100
AcDbLine
 10
3.718750000000087
 20
0.2500000000000004
 30
0.0
 11
3.718750000000033
 21
3.718750000000058
 31
0.0
  0
LINE
  5
72
100
AcDbEntity
  8
USP-GEO
100
AcDbLine
 10
3.655750000000088
 20
0.2499999999999991
 30
0.0
 11
3.655750000000034
 21
3.718750000000044
 31
0.0
  0
LINE
  5
73
100
AcDbEntity
  8
USP-GEO
100
AcDbLine
 10
3.655750000000088
 20
0.2499999999999991
 30
0.0
 11
3.718750000000087
 21
0.25
 31
0.0
  0
LINE
  5
74
100
AcDbEntity
  8
USP-GEO
100
AcDbLine
 10
3.655750000000088
 20
0.0
 30
0.0
 11
3.718750000000087
 21
0.0000000000000009
 31
0.0
  0
LINE
  5
75
100
AcDbEntity
  8
USP-GEO
100
AcDbLine
 10
3.718750000000087
 20
0.0000000000000013
 30
0.0
 11
3.718750000000087
 21
0.2500000000000004
 31
0.0
  0
LINE
  5
76
100
AcDbEntity
  8
USP-GEO
100
AcDbLine
 10
3.655750000000088
 20
0.0
 30
0.0
 11
3.655750000000088
 21
0.2499999999999987
 31
0.0
  0
CIRCLE
  5
77
100
AcDbEntity
  8
USP-GEO
100
AcDbCircle
 10
3.249999999999987
 20
4.563000000000025
 30
0.0
 40
0.086
  0
CIRCLE
  5
78
100
AcDbEntity
  8
USP-GEO
100
AcDbCircle
 10
1.999999999999968
 20
5.813000000000006
 30
0.0
 40
0.2655000000000001
  0
CIRCLE
  5
79
100
AcDbEntity
  8
USP-GEO
100
AcDbCircle
 10
0.7499999999999521
 20
6.812999999999988
 30
0.0
 40
0.086
  0
CIRCLE
  5
7A
100
AcDbEntity
  8
USP-GEO
100
AcDbCircle
 10
4.749999999999969
 20
5.563000000000048
 30
0.0
 40
0.086
  0
LINE
  5
7B
100
AcDbEntity
  8
USP-GEO
100
AcDbLine
 10
12.99999999999997
 20
7.031750000000166
 30
0.0
 11
13.00000000000002
 21
3.718750000000166
 31
0.0
  0
CIRCLE
  5
7C
100
AcDbEntity
  8
USP-GEO
100
AcDbCircle
 10
9.749999999999955
 20
4.813000000000167
 30
0.0
 40
0.086
  0
LINE
  5
7D
100
AcDbEntity
  8
USP-GEO
100
AcDbLine
 10
9.28124999999998
 20
3.718750000000142
 30
0.0
 11
9.281250000000033
 21
0.2500000000001119
 31
0.0
  0
LINE
  5
7E
100
AcDbEntity
  8
USP-GEO
100
AcDbLine
 10
9.344249999999979
 20
3.718750000000119
 30
0.0
 11
9.344250000000032
 21
0.2500000000001128
 31
0.0
  0
LINE
  5
7F
100
AcDbEntity
  8
USP-GEO
100
AcDbLine
 10
9.344250000000032
 20
0.2500000000001128
 30
0.0
 11
9.281250000000033
 21
0.2500000000001119
 31
0.0
  0
LINE
  5
80
100
AcDbEntity
  8
USP-GEO
100
AcDbLine
 10
9.344250000000032
 20
0.0000000000001124
 30
0.0
 11
9.281250000000033
 21
0.0000000000001115
 31
0.0
  0
LINE
  5
81
100
AcDbEntity
  8
USP-GEO
100
AcDbLine
 10
9.281250000000033
 20
0.2500000000001119
 30
0.0
 11
9.281250000000033
 21
0.0000000000001132
 31
0.0
  0
LINE
  5
82
100
AcDbEntity
  8
USP-GEO
100
AcDbLine
 10
9.344250000000032
 20
0.2500000000001128
 30
0.0
 11
9.344250000000032
 21
0.0000000000001128
 31
0.0
  0
CIRCLE
  5
83
100
AcDbEntity
  8
USP-GEO
100
AcDbCircle
 10
12.24999999999992
 20
6.563000000000206
 30
0.0
 40
0.086
  0
CIRCLE
  5
84
100
AcDbEntity
  8
USP-GEO
100
AcDbCircle
 10
10.99999999999994
 20
5.813000000000187
 30
0.0
 40
0.2655000000000001
  0
LINE
  5
85
100
AcDbEntity
  8
USP-GEO
100
AcDbLine
 10
12.74999999999997
 20
7.281750000000163
 30
0.0
 11
12.99999999999998
 21
7.031750000000169
 31
0.0
  0
ENDBLK
  5
87
100
AcDbEntity
  8
0
100
AcDbBlockEnd
  0
ENDSEC
  0
SECTION
  2
ENTITIES
  0
INSERT
  5
3
100
AcDbEntity
  8
USP
100
AcDbBlockReference
  2
PCM6616_F
 10
2.265506089120988
 20
2.986979194619996
 30
0.0
  0
INSERT
  5
37
100
AcDbEntity
  8
USP
100
AcDbBlockReference
  2
PCM6616_T
 10
2.265506089121005
 20
16.05702414473965
 30
0.0
  0
INSERT
  5
68
100
AcDbEntity
  8
USP
100
AcDbBlockReference
  2
PCM6616_S
 10
12.28805621995488
 20
2.986979194619978
 30
0.0
  0
VIEWPORT
  5
8D
102
{ACAD_XDICTIONARY
360
8E
102
}
100
AcDbEntity
 67
     1
  8
0
100
AcDbViewport
 10
5.285416850893516
 20
3.968749891115924
 30
0.0
 40
13.50573247017707
 41
8.992999745766947
 68
    -1
 69
     1
1001
ACAD
1000
MVIEW
1002
{
1070
    16
1010
0.0
1020
0.0
1030
0.0
1010
0.0
1020
0.0
1030
1.0
1040
0.0
1040
8.992999745766947
1040
5.285416850893516
1040
3.968749891115924
1040
50.0
1040
0.0
1040
0.0
1070
     0
1070
   100
1070
     1
1070
     1
1070
     0
1070
     0
1070
     0
1070
     0
1040
0.0
1040
0.0
1040
0.0
1040
0.5
1040
0.5
1040
0.5
1040
0.5
1070
     0
1002
{
1002
}
1002
}
  0
ENDSEC
  0
SECTION
  2
OBJECTS
  0
DICTIONARY
  5
A4
102
{ACAD_XDICTIONARY
360
A5
102
}
100
AcDbDictionary
  3
ACAD_GROUP
350
A2
  3
ACAD_MLINESTYLE
350
A3
  0
DICTIONARY
  5
88
100
AcDbDictionary
280
     1
  3
ACAD_LAYOUTSELFREF
360
89
  0
DICTIONARY
  5
92
100
AcDbDictionary
280
     1
  3
ACAD_LAYOUTSELFREF
360
93
  0
DICTIONARY
  5
8E
100
AcDbDictionary
280
     1
  3
ACAD_XREC_ROUNDTRIP
360
8F
  0
DICTIONARY
  5
A5
100
AcDbDictionary
280
     1
  3
ACAD_XREC_ROUNDTRIP
360
A6
  0
DICTIONARY
  5
A2
102
{ACAD_REACTORS
330
A4
102
}
100
AcDbDictionary
  0
DICTIONARY
  5
A3
102
{ACAD_REACTORS
330
A4
102
}
100
AcDbDictionary
  3
STANDARD
350
A7
  0
XRECORD
  5
89
102
{ACAD_REACTORS
330
88
102
}
100
AcDbXrecord
340
18
  0
XRECORD
  5
93
102
{ACAD_REACTORS
330
92
102
}
100
AcDbXrecord
340
15
  0
XRECORD
  5
8F
102
{ACAD_REACTORS
330
8E
102
}
100
AcDbXrecord
102
UCS
 74
     0
 71
     1
 10
0.0
 20
0.0
 30
0.0
 10
1.0
 20
0.0
 30
0.0
 10
0.0
 20
1.0
 30
0.0
146
0.0
 79
     0
102
VIEW
281
     0
102
NEWVIEWCONTROL
280
     4
  0
XRECORD
  5
A6
102
{ACAD_REACTORS
330
A5
102
}
100
AcDbXrecord
102
EXTNAMES
  1
ACDBVARIABLEDICTIONARY
  2
AcDbVariableDictionary
  0
MLINESTYLE
  5
A7
102
{ACAD_REACTORS
330
A3
102
}
100
AcDbMlineStyle
  2
STANDARD
 70
     0
  3

 62
     0
 51
90.0
 52
90.0
 71
     2
 49
0.5
 62
   256
  6
BYLAYER
 49
-0.5
 62
   256
  6
BYLAYER
  0
ENDSEC
  0
EOF
