  0
SECTION
  2
HEADER
  9
$ACADVER
  1
AC1014
  9
$ACADMAINTVER
 70
     9
  9
$DWGCODEPAGE
  3
ANSI_1252
  9
$INSBASE
 10
0.0
 20
0.0
 30
0.0
  9
$EXTMIN
 10
0.0007767491942445
 20
0.0007664571699308
 30
0.0
  9
$EXTMAX
 10
19.69260069830356
 20
24.6991475117728
 30
0.0
  9
$LIMMIN
 10
0.0
 20
0.0
  9
$LIMMAX
 10
12.0
 20
9.0
  9
$ORTHOMODE
 70
     0
  9
$REGENMODE
 70
     1
  9
$FILLMODE
 70
     1
  9
$QTEXTMODE
 70
     0
  9
$MIRRTEXT
 70
     0
  9
$DRAGMODE
 70
     2
  9
$LTSCALE
 40
1.5
  9
$OSMODE
 70
    37
  9
$ATTMODE
 70
     1
  9
$TEXTSIZE
 40
0.25
  9
$TRACEWID
 40
0.05
  9
$TEXTSTYLE
  7
STANDARD
  9
$CLAYER
  8
0
  9
$CELTYPE
  6
BYLAYER
  9
$CECOLOR
 62
   256
  9
$CELTSCALE
 40
1.0
  9
$DELOBJ
 70
     1
  9
$DISPSILH
 70
     1
  9
$DIMSCALE
 40
6.0
  9
$DIMASZ
 40
0.125
  9
$DIMEXO
 40
0.0625
  9
$DIMDLI
 40
0.37890625
  9
$DIMRND
 40
0.0
  9
$DIMDLE
 40
0.0
  9
$DIMEXE
 40
0.09375
  9
$DIMTP
 40
0.0
  9
$DIMTM
 40
0.0
  9
$DIMTXT
 40
0.109375
  9
$DIMCEN
 40
0.0
  9
$DIMTSZ
 40
0.0
  9
$DIMTOL
 70
     0
  9
$DIMLIM
 70
     0
  9
$DIMTIH
 70
     1
  9
$DIMTOH
 70
     1
  9
$DIMSE1
 70
     0
  9
$DIMSE2
 70
     0
  9
$DIMTAD
 70
     0
  9
$DIMZIN
 70
     8
  9
$DIMBLK
  1

  9
$DIMASO
 70
     1
  9
$DIMSHO
 70
     1
  9
$DIMPOST
  1

  9
$DIMAPOST
  1

  9
$DIMALT
 70
     0
  9
$DIMALTD
 70
     2
  9
$DIMALTF
 40
25.4
  9
$DIMLFAC
 40
1.0
  9
$DIMTOFL
 70
     0
  9
$DIMTVP
 40
0.0
  9
$DIMTIX
 70
     0
  9
$DIMSOXD
 70
     0
  9
$DIMSAH
 70
     0
  9
$DIMBLK1
  1

  9
$DIMBLK2
  1

  9
$DIMSTYLE
  2
STANDARD
  9
$DIMCLRD
 70
     0
  9
$DIMCLRE
 70
     0
  9
$DIMCLRT
 70
   256
  9
$DIMTFAC
 40
1.0
  9
$DIMGAP
 40
0.08984375
  9
$DIMJUST
 70
     0
  9
$DIMSD1
 70
     0
  9
$DIMSD2
 70
     0
  9
$DIMTOLJ
 70
     1
  9
$DIMTZIN
 70
     0
  9
$DIMALTZ
 70
     0
  9
$DIMALTTZ
 70
     0
  9
$DIMFIT
 70
     3
  9
$DIMUPT
 70
     1
  9
$DIMUNIT
 70
     7
  9
$DIMDEC
 70
     4
  9
$DIMTDEC
 70
     4
  9
$DIMALTU
 70
     2
  9
$DIMALTTD
 70
     2
  9
$DIMTXSTY
  7
STANDARD
  9
$DIMAUNIT
 70
     0
  9
$LUNITS
 70
     5
  9
$LUPREC
 70
     6
  9
$SKETCHINC
 40
0.1
  9
$FILLETRAD
 40
0.0
  9
$AUNITS
 70
     0
  9
$AUPREC
 70
     1
  9
$MENU
  1
CUSTOM
  9
$ELEVATION
 40
0.0
  9
$PELEVATION
 40
0.0
  9
$THICKNESS
 40
0.0
  9
$LIMCHECK
 70
     0
  9
$BLIPMODE
 70
     0
  9
$CHAMFERA
 40
0.0
  9
$CHAMFERB
 40
0.0
  9
$CHAMFERC
 40
0.0
  9
$CHAMFERD
 40
0.0
  9
$SKPOLY
 70
     0
  9
$TDCREATE
 40
2451263.663231366
  9
$TDUPDATE
 40
2452759.746389247
  9
$TDINDWG
 40
0.1229007870
  9
$TDUSRTIMER
 40
0.1229007870
  9
$USRTIMER
 70
     1
  9
$ANGBASE
 50
0.0
  9
$ANGDIR
 70
     0
  9
$PDMODE
 70
     0
  9
$PDSIZE
 40
0.0
  9
$PLINEWID
 40
0.0
  9
$COORDS
 70
     1
  9
$SPLFRAME
 70
     0
  9
$SPLINETYPE
 70
     6
  9
$SPLINESEGS
 70
     8
  9
$ATTDIA
 70
     0
  9
$ATTREQ
 70
     1
  9
$HANDLING
 70
     1
  9
$HANDSEED
  5
B7
  9
$SURFTAB1
 70
     6
  9
$SURFTAB2
 70
     6
  9
$SURFTYPE
 70
     6
  9
$SURFU
 70
     6
  9
$SURFV
 70
     6
  9
$UCSNAME
  2

  9
$UCSORG
 10
0.0
 20
0.0
 30
0.0
  9
$UCSXDIR
 10
1.0
 20
0.0
 30
0.0
  9
$UCSYDIR
 10
0.0
 20
1.0
 30
0.0
  9
$PUCSNAME
  2

  9
$PUCSORG
 10
0.0
 20
0.0
 30
0.0
  9
$PUCSXDIR
 10
1.0
 20
0.0
 30
0.0
  9
$PUCSYDIR
 10
0.0
 20
1.0
 30
0.0
  9
$USERI1
 70
     0
  9
$USERI2
 70
     0
  9
$USERI3
 70
     0
  9
$USERI4
 70
     0
  9
$USERI5
 70
     0
  9
$USERR1
 40
0.0
  9
$USERR2
 40
0.0
  9
$USERR3
 40
0.0
  9
$USERR4
 40
0.0
  9
$USERR5
 40
0.0
  9
$WORLDVIEW
 70
     1
  9
$SHADEDGE
 70
     3
  9
$SHADEDIF
 70
    70
  9
$TILEMODE
 70
     1
  9
$MAXACTVP
 70
    16
  9
$PINSBASE
 10
0.0
 20
0.0
 30
0.0
  9
$PLIMCHECK
 70
     0
  9
$PEXTMIN
 10
1.000000000000000E+20
 20
1.000000000000000E+20
 30
1.000000000000000E+20
  9
$PEXTMAX
 10
-1.000000000000000E+20
 20
-1.000000000000000E+20
 30
-1.000000000000000E+20
  9
$PLIMMIN
 10
0.0
 20
0.0
  9
$PLIMMAX
 10
12.0
 20
9.0
  9
$UNITMODE
 70
     0
  9
$VISRETAIN
 70
     0
  9
$PLINEGEN
 70
     0
  9
$PSLTSCALE
 70
     0
  9
$TREEDEPTH
 70
  3020
  9
$PICKSTYLE
 70
     1
  9
$CMLSTYLE
  2
STANDARD
  9
$CMLJUST
 70
     0
  9
$CMLSCALE
 40
1.0
  9
$PROXYGRAPHICS
 70
     1
  9
$MEASUREMENT
 70
     0
  0
ENDSEC
  0
SECTION
  2
CLASSES
  0
CLASS
  1
ACDBDICTIONARYWDFLT
  2
AcDbDictionaryWithDefault
  3
AutoCAD 2000
 90
        0
280
     0
281
     0
  0
CLASS
  1
ACDBPLACEHOLDER
  2
AcDbPlaceHolder
  3
AutoCAD 2000
 90
        0
280
     0
281
     0
  0
CLASS
  1
LAYOUT
  2
AcDbLayout
  3
AutoCAD 2000
 90
        0
280
     0
281
     0
  0
CLASS
  1
DICTIONARYVAR
  2
AcDbDictionaryVar
  3
"AutoCAD"
 90
        0
280
     0
281
     0
  0
CLASS
  1
LONG_TRANSACTION
  2
AcDbLongTransaction
  3
AutoCAD 2000
 90
        0
280
     0
281
     0
  0
CLASS
  1
LWPOLYLINE
  2
AcDbPolyline
  3
"AutoCAD"
 90
        0
280
     0
281
     1
  0
CLASS
  1
HATCH
  2
AcDbHatch
  3
"ACAD_SEDONA"
 90
        0
280
     0
281
     1
  0
CLASS
  1
XRECORD
  2
AcDbXrecord
  3
"<Built In>"
 90
        0
280
     0
281
     0
  0
CLASS
  1
LONG_TRANSACTION
  2
AcDbLongTransaction
  3
AutoCAD 2000
 90
        0
280
     0
281
     0
  0
CLASS
  1
LWPOLYLINE
  2
AcDbPolyline
  3
"AutoCAD"
 90
        0
280
     0
281
     1
  0
CLASS
  1
HATCH
  2
AcDbHatch
  3
"ACAD_SEDONA"
 90
        0
280
     0
281
     1
  0
CLASS
  1
XRECORD
  2
AcDbXrecord
  3
"<Built In>"
 90
        0
280
     0
281
     0
  0
ENDSEC
  0
SECTION
  2
TABLES
  0
TABLE
  2
VPORT
  5
99
100
AcDbSymbolTable
 70
     1
  0
VPORT
  5
B3
100
AcDbSymbolTableRecord
100
AcDbViewportTableRecord
  2
*ACTIVE
 70
     0
 10
0.0
 20
0.0
 11
1.0
 21
1.0
 12
-13.24897901741019
 22
22.92481272497864
 13
0.0
 23
0.0
 14
1.0
 24
1.0
 15
0.0
 25
0.0
 16
0.0
 26
0.0
 36
1.0
 17
23.09603071721725
 27
-10.27010416511325
 37
-10.44050274849355
 40
25.48983862768924
 41
1.457627118644067
 42
50.0
 43
10.55307667737539
 44
10.55307667737539
 50
0.0
 51
0.0
 71
     0
 72
   100
 73
     1
 74
     1
 75
     0
 76
     0
 77
     0
 78
     0
  0
ENDTAB
  0
TABLE
  2
LTYPE
  5
94
100
AcDbSymbolTable
 70
     2
  0
LTYPE
  5
95
100
AcDbSymbolTableRecord
100
AcDbLinetypeTableRecord
  2
BYBLOCK
 70
     0
  3

 72
    65
 73
     0
 40
0.0
  0
LTYPE
  5
96
100
AcDbSymbolTableRecord
100
AcDbLinetypeTableRecord
  2
BYLAYER
 70
     0
  3

 72
    65
 73
     0
 40
0.0
  0
LTYPE
  5
5
100
AcDbSymbolTableRecord
100
AcDbLinetypeTableRecord
  2
CONTINUOUS
 70
     0
  3
Solid line
 72
    65
 73
     0
 40
0.0
  0
LTYPE
  5
9
100
AcDbSymbolTableRecord
100
AcDbLinetypeTableRecord
  2
HIDDEN
 70
     0
  3
Hidden __ __ __ __ __ __ __ __ __ __ __ __ __ _
 72
    65
 73
     2
 40
0.375
 49
0.25
 74
     0
 49
-0.125
 74
     0
  0
ENDTAB
  0
TABLE
  2
LAYER
  5
92
100
AcDbSymbolTable
 70
     5
  0
LAYER
  5
36
100
AcDbSymbolTableRecord
100
AcDbLayerTableRecord
  2
0
 70
     0
 62
     7
  6
CONTINUOUS
  0
LAYER
  5
B
100
AcDbSymbolTableRecord
100
AcDbLayerTableRecord
  2
USP-GEO
 70
     0
 62
     7
  6
CONTINUOUS
  0
LAYER
  5
33
100
AcDbSymbolTableRecord
100
AcDbLayerTableRecord
  2
USP-TXT
 70
     0
 62
     7
  6
CONTINUOUS
  0
LAYER
  5
8
100
AcDbSymbolTableRecord
100
AcDbLayerTableRecord
  2
USP-HID
 70
     0
 62
     7
  6
HIDDEN
  0
LAYER
  5
4
100
AcDbSymbolTableRecord
100
AcDbLayerTableRecord
  2
USP
 70
     0
 62
     7
  6
CONTINUOUS
  0
ENDTAB
  0
TABLE
  2
STYLE
  5
93
100
AcDbSymbolTable
 70
     1
  0
STYLE
  5
34
100
AcDbSymbolTableRecord
100
AcDbTextStyleTableRecord
  2
STANDARD
 70
     0
 40
0.0
 41
1.0
 50
0.0
 71
     0
 42
0.25
  3
txt
  4

  0
ENDTAB
  0
TABLE
  2
VIEW
  5
97
100
AcDbSymbolTable
 70
     0
  0
ENDTAB
  0
TABLE
  2
UCS
  5
98
100
AcDbSymbolTable
 70
     0
  0
ENDTAB
  0
TABLE
  2
APPID
  5
9B
100
AcDbSymbolTable
 70
     1
  0
APPID
  5
9C
100
AcDbSymbolTableRecord
100
AcDbRegAppTableRecord
  2
ACAD
 70
     0
  0
ENDTAB
  0
TABLE
  2
DIMSTYLE
  5
9D
100
AcDbSymbolTable
 70
     1
  0
DIMSTYLE
105
A5
100
AcDbSymbolTableRecord
100
AcDbDimStyleTableRecord
  2
STANDARD
 70
     0
  3

  4

  5

  6

  7

 40
1.0
 41
0.18
 42
0.0625
 43
0.38
 44
0.18
 45
0.0
 46
0.0
 47
0.0
 48
0.0
140
0.18
141
0.09
142
0.0
143
25.4
144
1.0
145
0.0
146
1.0
147
0.09
 71
     0
 72
     0
 73
     1
 74
     1
 75
     0
 76
     0
 77
     0
 78
     0
170
     0
171
     2
172
     0
173
     0
174
     0
175
     0
176
     0
177
     0
178
     0
270
     2
271
     4
272
     4
273
     2
274
     2
340
34
275
     0
280
     0
281
     0
282
     0
283
     1
284
     0
285
     0
286
     0
287
     3
288
     0
  0
ENDTAB
  0
TABLE
  2
BLOCK_RECORD
  5
1
100
AcDbSymbolTable
 70
     3
  0
BLOCK_RECORD
  5
2
102
{ACAD_XDICTIONARY
360
89
102
}
100
AcDbSymbolTableRecord
100
AcDbBlockTableRecord
  2
*MODEL_SPACE
  0
BLOCK_RECORD
  5
8D
102
{ACAD_XDICTIONARY
360
8E
102
}
100
AcDbSymbolTableRecord
100
AcDbBlockTableRecord
  2
*PAPER_SPACE
  0
BLOCK_RECORD
  5
6
100
AcDbSymbolTableRecord
100
AcDbBlockTableRecord
  2
PCM44_F
  0
BLOCK_RECORD
  5
39
100
AcDbSymbolTableRecord
100
AcDbBlockTableRecord
  2
PCM44_T
  0
BLOCK_RECORD
  5
6A
100
AcDbSymbolTableRecord
100
AcDbBlockTableRecord
  2
PCM44_S
  0
ENDTAB
  0
ENDSEC
  0
SECTION
  2
BLOCKS
  0
BLOCK
  5
8B
100
AcDbEntity
  8
0
100
AcDbBlockBegin
  2
*MODEL_SPACE
 70
     0
 10
0.0
 20
0.0
 30
0.0
  3
*MODEL_SPACE
  1

  0
ENDBLK
  5
8C
100
AcDbEntity
  8
0
100
AcDbBlockEnd
  0
BLOCK
  5
90
100
AcDbEntity
 67
     1
  8
0
100
AcDbBlockBegin
  2
*PAPER_SPACE
 70
     0
 10
0.0
 20
0.0
 30
0.0
  3
*PAPER_SPACE
  1

  0
ENDBLK
  5
91
100
AcDbEntity
 67
     1
  8
0
100
AcDbBlockEnd
  0
BLOCK
  5
35
100
AcDbEntity
  8
0
100
AcDbBlockBegin
  2
PCM44_F
 70
     0
 10
0.0
 20
0.0
 30
0.0
  3
PCM44_F
  1

  0
LINE
  5
7
100
AcDbEntity
  8
USP-HID
100
AcDbLine
 10
0.6254999999999851
 20
3.718750000000062
 30
0.0
 11
3.062999999999986
 21
3.718750000000022
 31
0.0
  0
CIRCLE
  5
A
100
AcDbEntity
  8
USP-GEO
100
AcDbCircle
 10
1.844249999999935
 20
1.500000000000013
 30
0.0
 40
0.2655000000000001
  0
LINE
  5
C
100
AcDbEntity
  8
USP-GEO
100
AcDbLine
 10
0.625499999999986
 20
3.781750000000061
 30
0.0
 11
3.062999999999979
 21
3.781749999999965
 31
0.0
  0
LINE
  5
D
100
AcDbEntity
  8
USP-GEO
100
AcDbLine
 10
0.8754999999999316
 20
0.0
 30
0.0
 11
2.812999999999896
 21
-0.0000000000000027
 31
0.0
  0
LINE
  5
E
100
AcDbEntity
  8
USP-GEO
100
AcDbLine
 10
0.625499999999986
 20
3.781750000000061
 30
0.0
 11
0.6254999999999367
 21
0.2500000000000044
 31
0.0
  0
LINE
  5
F
100
AcDbEntity
  8
USP-GEO
100
AcDbLine
 10
0.8754999999999316
 20
0.0
 30
0.0
 11
0.6254999999999354
 21
0.2500000000000044
 31
0.0
  0
CIRCLE
  5
10
100
AcDbEntity
  8
USP-GEO
100
AcDbCircle
 10
1.250499999999931
 20
0.3749999999999947
 30
0.0
 40
0.086
  0
CIRCLE
  5
11
100
AcDbEntity
  8
USP-GEO
100
AcDbCircle
 10
1.125499999999963
 20
2.374999999999996
 30
0.0
 40
0.086
  0
LINE
  5
12
100
AcDbEntity
  8
USP-GEO
100
AcDbLine
 10
0.0000000000000555
 20
7.06300000000007
 30
0.0
 11
0.0000000000000004
 21
3.71875000000007
 31
0.0
  0
LINE
  5
13
100
AcDbEntity
  8
USP-GEO
100
AcDbLine
 10
0.0630000000000544
 20
7.06300000000007
 30
0.0
 11
0.0630000000000002
 21
3.781750000000069
 31
0.0
  0
LINE
  5
14
100
AcDbEntity
  8
USP-GEO
100
AcDbLine
 10
0.1879999999999837
 20
3.718750000000066
 30
0.0
 11
0.4379999999999629
 21
3.718750000000063
 31
0.0
  0
LINE
  5
15
100
AcDbEntity
  8
USP-GEO
100
AcDbLine
 10
0.4379999999999638
 20
3.781750000000062
 30
0.0
 11
0.1879999999999846
 21
3.781750000000067
 31
0.0
  0
LINE
  5
16
100
AcDbEntity
  8
USP-GEO
100
AcDbLine
 10
0.1879999999999837
 20
3.718750000000066
 30
0.0
 11
-0.0000000000000004
 21
3.71875000000007
 31
0.0
  0
LINE
  5
17
100
AcDbEntity
  8
USP-GEO
100
AcDbLine
 10
0.1879999999999846
 20
3.781750000000067
 30
0.0
 11
0.1879999999999837
 21
3.718750000000067
 31
0.0
  0
LINE
  5
18
100
AcDbEntity
  8
USP-GEO
100
AcDbLine
 10
0.0630000000000006
 20
3.781750000000069
 30
0.0
 11
0.1879999999999846
 21
3.781750000000067
 31
0.0
  0
LINE
  5
19
100
AcDbEntity
  8
USP-GEO
100
AcDbLine
 10
0.4379999999999891
 20
3.718750000000064
 30
0.0
 11
0.625499999999982
 21
3.718750000000063
 31
0.0
  0
LINE
  5
1A
100
AcDbEntity
  8
USP-GEO
100
AcDbLine
 10
0.6254999999999824
 20
3.781750000000061
 30
0.0
 11
0.4379999999999895
 21
3.781750000000065
 31
0.0
  0
LINE
  5
1B
100
AcDbEntity
  8
USP-GEO
100
AcDbLine
 10
0.4379999999999993
 20
3.781750000000063
 30
0.0
 11
0.4379999999999984
 21
3.718750000000063
 31
0.0
  0
LINE
  5
1C
100
AcDbEntity
  8
USP-GEO
100
AcDbLine
 10
0.0630000000000544
 20
7.06300000000007
 30
0.0
 11
0.0000000000000555
 21
7.06300000000007
 31
0.0
  0
LINE
  5
1D
100
AcDbEntity
  8
USP-GEO
100
AcDbLine
 10
0.0630000000000588
 20
7.31300000000007
 30
0.0
 11
0.0000000000000595
 21
7.31300000000007
 31
0.0
  0
LINE
  5
1E
100
AcDbEntity
  8
USP-GEO
100
AcDbLine
 10
0.00000000000006
 20
7.31300000000007
 30
0.0
 11
0.0000000000000555
 21
7.06300000000007
 31
0.0
  0
LINE
  5
1F
100
AcDbEntity
  8
USP-GEO
100
AcDbLine
 10
0.0630000000000544
 20
7.06300000000007
 30
0.0
 11
0.0630000000000588
 21
7.31300000000007
 31
0.0
  0
LINE
  5
20
100
AcDbEntity
  8
USP-GEO
100
AcDbLine
 10
3.062999999999901
 20
0.2499999999999938
 30
0.0
 11
3.062999999999979
 21
3.781749999999965
 31
0.0
  0
CIRCLE
  5
21
100
AcDbEntity
  8
USP-GEO
100
AcDbCircle
 10
2.562999999999905
 20
0.4999999999999734
 30
0.0
 40
0.086
  0
LINE
  5
22
100
AcDbEntity
  8
USP-GEO
100
AcDbLine
 10
3.062999999999901
 20
0.2499999999999938
 30
0.0
 11
2.812999999999896
 21
-0.0000000000000027
 31
0.0
  0
CIRCLE
  5
23
100
AcDbEntity
  8
USP-GEO
100
AcDbCircle
 10
2.687999999999937
 20
2.49999999999997
 30
0.0
 40
0.086
  0
LINE
  5
24
100
AcDbEntity
  8
USP-GEO
100
AcDbLine
 10
3.62550000000002
 20
3.781750000000012
 30
0.0
 11
3.625500000000073
 21
7.063000000000013
 31
0.0
  0
LINE
  5
25
100
AcDbEntity
  8
USP-GEO
100
AcDbLine
 10
3.688500000000021
 20
3.71875000000001
 30
0.0
 11
3.688500000000074
 21
7.063000000000013
 31
0.0
  0
LINE
  5
26
100
AcDbEntity
  8
USP-GEO
100
AcDbLine
 10
3.250499999999977
 20
3.718750000000017
 30
0.0
 11
3.500499999999977
 21
3.718750000000013
 31
0.0
  0
LINE
  5
27
100
AcDbEntity
  8
USP-GEO
100
AcDbLine
 10
3.500499999999977
 20
3.781750000000013
 30
0.0
 11
3.250499999999977
 21
3.781750000000017
 31
0.0
  0
LINE
  5
28
100
AcDbEntity
  8
USP-GEO
100
AcDbLine
 10
3.062999999999982
 20
3.718750000000022
 30
0.0
 11
3.250499999999975
 21
3.71875000000002
 31
0.0
  0
LINE
  5
29
100
AcDbEntity
  8
USP-GEO
100
AcDbLine
 10
3.250499999999976
 20
3.781750000000019
 30
0.0
 11
3.062999999999983
 21
3.781750000000022
 31
0.0
  0
LINE
  5
2A
100
AcDbEntity
  8
USP-GEO
100
AcDbLine
 10
3.250499999999977
 20
3.781750000000018
 30
0.0
 11
3.250499999999977
 21
3.718750000000018
 31
0.0
  0
LINE
  5
2B
100
AcDbEntity
  8
USP-GEO
100
AcDbLine
 10
3.500499999999977
 20
3.718750000000013
 30
0.0
 11
3.688500000000021
 21
3.71875000000001
 31
0.0
  0
LINE
  5
2C
100
AcDbEntity
  8
USP-GEO
100
AcDbLine
 10
3.500499999999977
 20
3.781750000000013
 30
0.0
 11
3.625500000000021
 21
3.781750000000012
 31
0.0
  0
LINE
  5
2D
100
AcDbEntity
  8
USP-GEO
100
AcDbLine
 10
3.500499999999977
 20
3.781750000000013
 30
0.0
 11
3.500499999999977
 21
3.718750000000013
 31
0.0
  0
LINE
  5
2E
100
AcDbEntity
  8
USP-GEO
100
AcDbLine
 10
3.625500000000075
 20
7.063000000000013
 30
0.0
 11
3.688500000000074
 21
7.063000000000013
 31
0.0
  0
LINE
  5
2F
100
AcDbEntity
  8
USP-GEO
100
AcDbLine
 10
3.625500000000079
 20
7.313000000000013
 30
0.0
 11
3.688500000000078
 21
7.313000000000013
 31
0.0
  0
LINE
  5
30
100
AcDbEntity
  8
USP-GEO
100
AcDbLine
 10
3.625500000000079
 20
7.313000000000013
 30
0.0
 11
3.625500000000075
 21
7.063000000000013
 31
0.0
  0
LINE
  5
31
100
AcDbEntity
  8
USP-GEO
100
AcDbLine
 10
3.688500000000074
 20
7.063000000000013
 30
0.0
 11
3.688500000000078
 21
7.313000000000013
 31
0.0
  0
TEXT
  5
32
100
AcDbEntity
  8
USP-TXT
100
AcDbText
 10
-1.539531662840567
 20
-1.781510630809471
 30
0.0
 40
0.375
  1
PCM44 - FRONT VIEW
 72
     1
 11
1.835468337159432
 21
-1.781510630809471
 31
0.0
100
AcDbText
  0
ENDBLK
  5
37
100
AcDbEntity
  8
0
100
AcDbBlockEnd
  0
BLOCK
  5
67
100
AcDbEntity
  8
0
100
AcDbBlockBegin
  2
PCM44_T
 70
     0
 10
0.0
 20
0.0
 30
0.0
  3
PCM44_T
  1

  0
TEXT
  5
3A
100
AcDbEntity
  8
USP-TXT
100
AcDbText
 10
-1.164531662840624
 20
-1.891677021251551
 30
0.0
 40
0.375
  1
PCM44 - TOP VIEW
 72
     1
 11
1.835468337159375
 21
-1.891677021251551
 31
0.0
100
AcDbText
  0
LINE
  5
3B
100
AcDbEntity
  8
USP-HID
100
AcDbLine
 10
3.062999999999933
 20
7.281250000000088
 30
0.0
 11
0.6254999999999336
 21
7.281250000000092
 31
0.0
  0
LINE
  5
3C
100
AcDbEntity
  8
USP-HID
100
AcDbLine
 10
0.6254999999999309
 20
3.718750000000085
 30
0.0
 11
3.062999999999932
 21
3.718750000000085
 31
0.0
  0
LINE
  5
3D
100
AcDbEntity
  8
USP-GEO
100
AcDbLine
 10
0.6254999999999407
 20
7.344250000000087
 30
0.0
 11
3.062999999999934
 21
7.344250000000087
 31
0.0
  0
LINE
  5
3E
100
AcDbEntity
  8
USP-GEO
100
AcDbLine
 10
0.6254999999999314
 20
3.655750000000089
 30
0.0
 11
3.062999999999925
 21
3.655750000000086
 31
0.0
  0
LINE
  5
3F
100
AcDbEntity
  8
USP-GEO
100
AcDbLine
 10
0.0630000000000068
 20
10.75000000000008
 30
0.0
 11
0.063000000000002
 21
0.25
 31
0.0
  0
LINE
  5
40
100
AcDbEntity
  8
USP-GEO
100
AcDbLine
 10
0.000000000000008
 20
10.75000000000008
 30
0.0
 11
0.0000000000000031
 21
0.25
 31
0.0
  0
LINE
  5
41
100
AcDbEntity
  8
USP-GEO
100
AcDbLine
 10
0.4379999999999389
 20
3.796750000000063
 30
0.0
 11
0.4379999999999443
 21
0.2499999999999449
 31
0.0
  0
LINE
  5
42
100
AcDbEntity
  8
USP-GEO
100
AcDbLine
 10
0.4379999999999087
 20
0.2499999999999822
 30
0.0
 11
0.18799999999993
 21
0.0000000000000036
 31
0.0
  0
LINE
  5
43
100
AcDbEntity
  8
USP-GEO
100
AcDbLine
 10
0.0630000000000033
 20
0.25
 30
0.0
 11
0.0000000000000044
 21
0.25
 31
0.0
  0
LINE
  5
44
100
AcDbEntity
  8
USP-GEO
100
AcDbLine
 10
0.0629999999999988
 20
0.0
 30
0.0
 11
0.0
 21
0.0
 31
0.0
  0
LINE
  5
45
100
AcDbEntity
  8
USP-GEO
100
AcDbLine
 10
0.000000000000004
 20
0.25
 30
0.0
 11
0.0
 21
0.0
 31
0.0
  0
LINE
  5
46
100
AcDbEntity
  8
USP-GEO
100
AcDbLine
 10
0.0629999999999456
 20
0.0000000000000036
 30
0.0
 11
0.1879999999999295
 21
0.0000000000000036
 31
0.0
  0
LINE
  5
47
100
AcDbEntity
  8
USP-GEO
100
AcDbLine
 10
0.0629999999999988
 20
0.0
 30
0.0
 11
0.0630000000000028
 21
0.25
 31
0.0
  0
ARC
  5
48
100
AcDbEntity
  8
USP-GEO
100
AcDbCircle
 10
0.5317499999999318
 20
3.796750000000063
 30
0.0
 40
0.0937499999999965
100
AcDbArc
 50
0.0
 51
180.0
  0
LINE
  5
49
100
AcDbEntity
  8
USP-GEO
100
AcDbLine
 10
0.6254999999999314
 20
3.655750000000089
 30
0.0
 11
0.6254999999999314
 21
3.796750000000063
 31
0.0
  0
LINE
  5
4A
100
AcDbEntity
  8
USP-GEO
100
AcDbLine
 10
0.4379999999999407
 20
7.203250000000057
 30
0.0
 11
0.4379999999999496
 21
10.75000000000017
 31
0.0
  0
LINE
  5
4B
100
AcDbEntity
  8
USP-GEO
100
AcDbLine
 10
0.6254999999999407
 20
7.344250000000087
 30
0.0
 11
0.6254999999999407
 21
7.203250000000114
 31
0.0
  0
ARC
  5
4C
100
AcDbEntity
  8
USP-GEO
100
AcDbCircle
 10
0.5317499999999331
 20
7.203250000000114
 30
0.0
 40
0.0937499999999965
100
AcDbArc
 50
180.0000000000347
 51
0.0000000000011196
  0
LINE
  5
4D
100
AcDbEntity
  8
USP-GEO
100
AcDbLine
 10
0.1879999999999482
 20
11.00000000000017
 30
0.0
 11
0.4379999999999509
 21
10.75000000000017
 31
0.0
  0
LINE
  5
4E
100
AcDbEntity
  8
USP-GEO
100
AcDbLine
 10
0.0630000000000068
 20
10.75000000000008
 30
0.0
 11
0.000000000000008
 21
10.75000000000008
 31
0.0
  0
LINE
  5
4F
100
AcDbEntity
  8
USP-GEO
100
AcDbLine
 10
0.0630000000000033
 20
11.00000000000008
 30
0.0
 11
0.0000000000000044
 21
11.00000000000008
 31
0.0
  0
LINE
  5
50
100
AcDbEntity
  8
USP-GEO
100
AcDbLine
 10
0.000000000000004
 20
11.00000000000008
 30
0.0
 11
0.000000000000008
 21
10.75000000000008
 31
0.0
  0
LINE
  5
51
100
AcDbEntity
  8
USP-GEO
100
AcDbLine
 10
0.0630000000000068
 20
10.75000000000008
 30
0.0
 11
0.0630000000000028
 21
11.00000000000008
 31
0.0
  0
LINE
  5
52
100
AcDbEntity
  8
USP-GEO
100
AcDbLine
 10
0.0629999999999509
 20
11.00000000000017
 30
0.0
 11
0.1879999999999482
 21
11.00000000000017
 31
0.0
  0
LINE
  5
53
100
AcDbEntity
  8
USP-GEO
100
AcDbLine
 10
3.688500000000023
 20
0.2500000000000568
 30
0.0
 11
3.688500000000029
 21
10.75000000000008
 31
0.0
  0
LINE
  5
54
100
AcDbEntity
  8
USP-GEO
100
AcDbLine
 10
3.625500000000028
 20
10.75000000000008
 30
0.0
 11
3.625500000000023
 21
0.2500000000000568
 31
0.0
  0
LINE
  5
55
100
AcDbEntity
  8
USP-GEO
100
AcDbLine
 10
3.250499999999925
 20
3.796750000000173
 30
0.0
 11
3.25049999999993
 21
0.25
 31
0.0
  0
LINE
  5
56
100
AcDbEntity
  8
USP-GEO
100
AcDbLine
 10
3.500499999999923
 20
0.0
 30
0.0
 11
3.250499999999923
 21
0.25
 31
0.0
  0
LINE
  5
57
100
AcDbEntity
  8
USP-GEO
100
AcDbLine
 10
3.625500000000023
 20
0.2500000000000568
 30
0.0
 11
3.688500000000023
 21
0.2500000000000568
 31
0.0
  0
LINE
  5
58
100
AcDbEntity
  8
USP-GEO
100
AcDbLine
 10
3.625500000000019
 20
0.0000000000000568
 30
0.0
 11
3.68850000000002
 21
0.0000000000000568
 31
0.0
  0
LINE
  5
59
100
AcDbEntity
  8
USP-GEO
100
AcDbLine
 10
3.500499999999923
 20
0.0
 30
0.0
 11
3.625499999999966
 21
0.0000000000000036
 31
0.0
  0
LINE
  5
5A
100
AcDbEntity
  8
USP-GEO
100
AcDbLine
 10
3.625500000000023
 20
0.2500000000000568
 30
0.0
 11
3.625500000000019
 21
0.0000000000000568
 31
0.0
  0
LINE
  5
5B
100
AcDbEntity
  8
USP-GEO
100
AcDbLine
 10
3.68850000000002
 20
0.0000000000000568
 30
0.0
 11
3.688500000000023
 21
0.2500000000000568
 31
0.0
  0
ARC
  5
5C
100
AcDbEntity
  8
USP-GEO
100
AcDbCircle
 10
3.156749999999925
 20
3.796750000000173
 30
0.0
 40
0.0937499999999965
100
AcDbArc
 50
0.0
 51
180.0
  0
LINE
  5
5D
100
AcDbEntity
  8
USP-GEO
100
AcDbLine
 10
3.062999999999925
 20
3.655750000000086
 30
0.0
 11
3.062999999999925
 21
3.796750000000173
 31
0.0
  0
LINE
  5
5E
100
AcDbEntity
  8
USP-GEO
100
AcDbLine
 10
3.250499999999926
 20
7.20325
 30
0.0
 11
3.250499999999935
 21
10.74999999999994
 31
0.0
  0
LINE
  5
5F
100
AcDbEntity
  8
USP-GEO
100
AcDbLine
 10
3.062999999999934
 20
7.344250000000087
 30
0.0
 11
3.062999999999934
 21
7.203249999999943
 31
0.0
  0
ARC
  5
60
100
AcDbEntity
  8
USP-GEO
100
AcDbCircle
 10
3.156749999999927
 20
7.203249999999997
 30
0.0
 40
0.0937499999999965
100
AcDbArc
 50
180.0000000000336
 51
0.0000000000022391
  0
LINE
  5
61
100
AcDbEntity
  8
USP-GEO
100
AcDbLine
 10
3.250499999999864
 20
10.75000000000001
 30
0.0
 11
3.500499999999914
 21
11.00000000000006
 31
0.0
  0
LINE
  5
62
100
AcDbEntity
  8
USP-GEO
100
AcDbLine
 10
3.625500000000028
 20
10.75000000000008
 30
0.0
 11
3.688500000000029
 21
10.75000000000008
 31
0.0
  0
LINE
  5
63
100
AcDbEntity
  8
USP-GEO
100
AcDbLine
 10
3.625500000000025
 20
11.00000000000008
 30
0.0
 11
3.688500000000025
 21
11.00000000000008
 31
0.0
  0
LINE
  5
64
100
AcDbEntity
  8
USP-GEO
100
AcDbLine
 10
3.625500000000025
 20
11.00000000000008
 30
0.0
 11
3.625500000000028
 21
10.75000000000008
 31
0.0
  0
LINE
  5
65
100
AcDbEntity
  8
USP-GEO
100
AcDbLine
 10
3.500499999999914
 20
11.00000000000006
 30
0.0
 11
3.625499999999971
 21
11.00000000000006
 31
0.0
  0
LINE
  5
66
100
AcDbEntity
  8
USP-GEO
100
AcDbLine
 10
3.688500000000029
 20
10.75000000000008
 30
0.0
 11
3.688500000000025
 21
11.00000000000008
 31
0.0
  0
ENDBLK
  5
68
100
AcDbEntity
  8
0
100
AcDbBlockEnd
  0
BLOCK
  5
87
100
AcDbEntity
  8
0
100
AcDbBlockBegin
  2
PCM44_S
 70
     0
 10
0.0
 20
0.0
 30
0.0
  3
PCM44_S
  1

  0
LINE
  5
6B
100
AcDbEntity
  8
USP-HID
100
AcDbLine
 10
11.00000000000005
 20
3.78175000000002
 30
0.0
 11
0.0
 21
3.781750000000014
 31
0.0
  0
CIRCLE
  5
6C
100
AcDbEntity
  8
USP-GEO
100
AcDbCircle
 10
0.7500000000000551
 20
6.844249999999986
 30
0.0
 40
0.086
  0
LINE
  5
6D
100
AcDbEntity
  8
USP-GEO
100
AcDbLine
 10
0.2500000000000551
 20
7.313000000000014
 30
0.0
 11
10.75000000000008
 21
7.312999999999949
 31
0.0
  0
LINE
  5
6E
100
AcDbEntity
  8
USP-GEO
100
AcDbLine
 10
11.00000000000005
 20
3.718749999999947
 30
0.0
 11
0.0
 21
3.718750000000014
 31
0.0
  0
LINE
  5
6F
100
AcDbEntity
  8
USP-GEO
100
AcDbLine
 10
0.0
 20
3.718750000000013
 30
0.0
 11
0.0000000000000533
 21
7.063000000000014
 31
0.0
  0
LINE
  5
70
100
AcDbEntity
  8
USP-GEO
100
AcDbLine
 10
0.0000000000000533
 20
7.063000000000014
 30
0.0
 11
0.2500000000000551
 21
7.313000000000014
 31
0.0
  0
TEXT
  5
71
100
AcDbEntity
  8
USP-TXT
100
AcDbText
 10
2.430552714536542
 20
-1.781510630809462
 30
0.0
 40
0.375
  1
PCM44 - SIDE VIEW
 72
     1
 11
5.555552714536542
 21
-1.781510630809462
 31
0.0
100
AcDbText
  0
LINE
  5
72
100
AcDbEntity
  8
USP-GEO
100
AcDbLine
 10
3.718750000000085
 20
0.2499999999999964
 30
0.0
 11
3.718750000000083
 21
3.718750000000025
 31
0.0
  0
LINE
  5
73
100
AcDbEntity
  8
USP-GEO
100
AcDbLine
 10
3.655750000000084
 20
0.2499999999999964
 30
0.0
 11
3.655750000000082
 21
3.718749999999991
 31
0.0
  0
LINE
  5
74
100
AcDbEntity
  8
USP-GEO
100
AcDbLine
 10
3.718750000000085
 20
0.0
 30
0.0
 11
3.718750000000085
 21
0.2499999999999964
 31
0.0
  0
LINE
  5
75
100
AcDbEntity
  8
USP-GEO
100
AcDbLine
 10
3.655750000000084
 20
0.2499999999999964
 30
0.0
 11
3.655750000000084
 21
0.0
 31
0.0
  0
LINE
  5
76
100
AcDbEntity
  8
USP-GEO
100
AcDbLine
 10
3.655750000000084
 20
0.0
 30
0.0
 11
3.718750000000085
 21
0.0
 31
0.0
  0
LINE
  5
77
100
AcDbEntity
  8
USP-GEO
100
AcDbLine
 10
3.655750000000084
 20
0.2499999999999964
 30
0.0
 11
3.718750000000085
 21
0.2499999999999964
 31
0.0
  0
CIRCLE
  5
78
100
AcDbEntity
  8
USP-GEO
100
AcDbCircle
 10
2.000000000000055
 20
5.844249999999988
 30
0.0
 40
0.2655000000000001
  0
CIRCLE
  5
79
100
AcDbEntity
  8
USP-GEO
100
AcDbCircle
 10
3.250000000000056
 20
4.594249999999987
 30
0.0
 40
0.086
  0
CIRCLE
  5
7A
100
AcDbEntity
  8
USP-GEO
100
AcDbCircle
 10
4.750000000000055
 20
5.594249999999988
 30
0.0
 40
0.086
  0
CIRCLE
  5
7B
100
AcDbEntity
  8
USP-GEO
100
AcDbCircle
 10
6.250000000000056
 20
6.344249999999989
 30
0.0
 40
0.086
  0
LINE
  5
7C
100
AcDbEntity
  8
USP-GEO
100
AcDbLine
 10
7.281250000000083
 20
3.718750000000026
 30
0.0
 11
7.281250000000083
 21
0.2500000000000524
 31
0.0
  0
LINE
  5
7D
100
AcDbEntity
  8
USP-GEO
100
AcDbLine
 10
7.344250000000085
 20
3.718749999999968
 30
0.0
 11
7.344250000000085
 21
0.2500000000000515
 31
0.0
  0
LINE
  5
7E
100
AcDbEntity
  8
USP-GEO
100
AcDbLine
 10
7.281250000000083
 20
0.2500000000000533
 30
0.0
 11
7.281250000000083
 21
0.0000000000000568
 31
0.0
  0
LINE
  5
7F
100
AcDbEntity
  8
USP-GEO
100
AcDbLine
 10
7.344250000000085
 20
0.000000000000056
 30
0.0
 11
7.344250000000085
 21
0.2500000000000515
 31
0.0
  0
LINE
  5
80
100
AcDbEntity
  8
USP-GEO
100
AcDbLine
 10
7.344250000000085
 20
0.000000000000056
 30
0.0
 11
7.281250000000083
 21
0.000000000000056
 31
0.0
  0
LINE
  5
81
100
AcDbEntity
  8
USP-GEO
100
AcDbLine
 10
7.344250000000085
 20
0.2500000000000515
 30
0.0
 11
7.281250000000083
 21
0.2500000000000515
 31
0.0
  0
CIRCLE
  5
82
100
AcDbEntity
  8
USP-GEO
100
AcDbCircle
 10
10.25000000000005
 20
6.594249999999991
 30
0.0
 40
0.086
  0
CIRCLE
  5
83
100
AcDbEntity
  8
USP-GEO
100
AcDbCircle
 10
9.000000000000055
 20
5.84424999999999
 30
0.0
 40
0.2655000000000001
  0
CIRCLE
  5
84
100
AcDbEntity
  8
USP-GEO
100
AcDbCircle
 10
7.750000000000055
 20
4.844249999999989
 30
0.0
 40
0.086
  0
LINE
  5
85
100
AcDbEntity
  8
USP-GEO
100
AcDbLine
 10
11.00000000000008
 20
7.062999999999949
 30
0.0
 11
11.00000000000005
 21
3.718749999999947
 31
0.0
  0
LINE
  5
86
100
AcDbEntity
  8
USP-GEO
100
AcDbLine
 10
10.75000000000008
 20
7.312999999999949
 30
0.0
 11
11.00000000000008
 21
7.062999999999949
 31
0.0
  0
ENDBLK
  5
88
100
AcDbEntity
  8
0
100
AcDbBlockEnd
  0
ENDSEC
  0
SECTION
  2
ENTITIES
  0
INSERT
  5
3
100
AcDbEntity
  8
USP
100
AcDbBlockReference
  2
PCM44_F
 10
1.540308412034812
 20
1.782277087979402
 30
0.0
  0
INSERT
  5
38
100
AcDbEntity
  8
USP
100
AcDbBlockReference
  2
PCM44_T
 10
1.540308412034872
 20
13.69914751177262
 30
0.0
  0
INSERT
  5
69
100
AcDbEntity
  8
USP
100
AcDbBlockReference
  2
PCM44_S
 10
8.692600698303479
 20
1.782277087979398
 30
0.0
  0
ENDSEC
  0
SECTION
  2
OBJECTS
  0
DICTIONARY
  5
A1
102
{ACAD_XDICTIONARY
360
A2
102
}
100
AcDbDictionary
  3
ACAD_GROUP
350
9F
  3
ACAD_MLINESTYLE
350
A0
  0
DICTIONARY
  5
89
100
AcDbDictionary
280
     1
  3
ACAD_LAYOUTSELFREF
360
8A
  0
DICTIONARY
  5
8E
100
AcDbDictionary
280
     1
  3
ACAD_LAYOUTSELFREF
360
8F
  0
DICTIONARY
  5
A2
100
AcDbDictionary
280
     1
  3
ACAD_XREC_ROUNDTRIP
360
A3
  0
DICTIONARY
  5
9F
102
{ACAD_REACTORS
330
A1
102
}
100
AcDbDictionary
  0
DICTIONARY
  5
A0
102
{ACAD_REACTORS
330
A1
102
}
100
AcDbDictionary
  3
STANDARD
350
A4
  0
XRECORD
  5
8A
102
{ACAD_REACTORS
330
89
102
}
100
AcDbXrecord
340
18
  0
XRECORD
  5
8F
102
{ACAD_REACTORS
330
8E
102
}
100
AcDbXrecord
340
15
  0
XRECORD
  5
A3
102
{ACAD_REACTORS
330
A2
102
}
100
AcDbXrecord
102
EXTNAMES
  1
ACDBVARIABLEDICTIONARY
  2
AcDbVariableDictionary
  0
MLINESTYLE
  5
A4
102
{ACAD_REACTORS
330
A0
102
}
100
AcDbMlineStyle
  2
STANDARD
 70
     0
  3

 62
     0
 51
90.0
 52
90.0
 71
     2
 49
0.5
 62
   256
  6
BYLAYER
 49
-0.5
 62
   256
  6
BYLAYER
  0
ENDSEC
  0
EOF
