  0
SECTION
  2
HEADER
  9
$ACADVER
  1
AC1014
  9
$ACADMAINTVER
 70
     9
  9
$DWGCODEPAGE
  3
ANSI_1252
  9
$INSBASE
 10
0.0
 20
0.0
 30
0.0
  9
$EXTMIN
 10
0.0004728831963412
 20
0.0002746372486868
 30
0.0
  9
$EXTMAX
 10
15.49594015591761
 20
7.849123883436961
 30
0.000000000000002
  9
$LIMMIN
 10
0.0
 20
0.0
  9
$LIMMAX
 10
12.0
 20
9.0
  9
$ORTHOMODE
 70
     0
  9
$REGENMODE
 70
     1
  9
$FILLMODE
 70
     1
  9
$QTEXTMODE
 70
     0
  9
$MIRRTEXT
 70
     1
  9
$DRAGMODE
 70
     2
  9
$LTSCALE
 40
1.0
  9
$OSMODE
 70
    37
  9
$ATTMODE
 70
     1
  9
$TEXTSIZE
 40
0.375
  9
$TRACEWID
 40
0.05
  9
$TEXTSTYLE
  7
STANDARD
  9
$CLAYER
  8
0
  9
$CELTYPE
  6
BYLAYER
  9
$CECOLOR
 62
   256
  9
$CELTSCALE
 40
1.0
  9
$DELOBJ
 70
     1
  9
$DISPSILH
 70
     0
  9
$DIMSCALE
 40
1.0
  9
$DIMASZ
 40
0.18
  9
$DIMEXO
 40
0.0625
  9
$DIMDLI
 40
0.38
  9
$DIMRND
 40
0.0
  9
$DIMDLE
 40
0.0
  9
$DIMEXE
 40
0.18
  9
$DIMTP
 40
0.0
  9
$DIMTM
 40
0.0
  9
$DIMTXT
 40
0.18
  9
$DIMCEN
 40
0.09
  9
$DIMTSZ
 40
0.0
  9
$DIMTOL
 70
     0
  9
$DIMLIM
 70
     0
  9
$DIMTIH
 70
     1
  9
$DIMTOH
 70
     1
  9
$DIMSE1
 70
     0
  9
$DIMSE2
 70
     0
  9
$DIMTAD
 70
     0
  9
$DIMZIN
 70
     0
  9
$DIMBLK
  1

  9
$DIMASO
 70
     1
  9
$DIMSHO
 70
     1
  9
$DIMPOST
  1

  9
$DIMAPOST
  1

  9
$DIMALT
 70
     0
  9
$DIMALTD
 70
     2
  9
$DIMALTF
 40
25.4
  9
$DIMLFAC
 40
1.0
  9
$DIMTOFL
 70
     0
  9
$DIMTVP
 40
0.0
  9
$DIMTIX
 70
     0
  9
$DIMSOXD
 70
     0
  9
$DIMSAH
 70
     0
  9
$DIMBLK1
  1

  9
$DIMBLK2
  1

  9
$DIMSTYLE
  2
STANDARD
  9
$DIMCLRD
 70
     0
  9
$DIMCLRE
 70
     0
  9
$DIMCLRT
 70
     0
  9
$DIMTFAC
 40
1.0
  9
$DIMGAP
 40
0.09
  9
$DIMJUST
 70
     0
  9
$DIMSD1
 70
     0
  9
$DIMSD2
 70
     0
  9
$DIMTOLJ
 70
     1
  9
$DIMTZIN
 70
     0
  9
$DIMALTZ
 70
     0
  9
$DIMALTTZ
 70
     0
  9
$DIMFIT
 70
     3
  9
$DIMUPT
 70
     0
  9
$DIMUNIT
 70
     2
  9
$DIMDEC
 70
     4
  9
$DIMTDEC
 70
     4
  9
$DIMALTU
 70
     2
  9
$DIMALTTD
 70
     2
  9
$DIMTXSTY
  7
STANDARD
  9
$DIMAUNIT
 70
     0
  9
$LUNITS
 70
     2
  9
$LUPREC
 70
     4
  9
$SKETCHINC
 40
0.1
  9
$FILLETRAD
 40
0.5
  9
$AUNITS
 70
     0
  9
$AUPREC
 70
     0
  9
$MENU
  1
.
  9
$ELEVATION
 40
0.0
  9
$PELEVATION
 40
0.0
  9
$THICKNESS
 40
0.0
  9
$LIMCHECK
 70
     0
  9
$BLIPMODE
 70
     0
  9
$CHAMFERA
 40
0.5
  9
$CHAMFERB
 40
0.5
  9
$CHAMFERC
 40
1.0
  9
$CHAMFERD
 40
0.0
  9
$SKPOLY
 70
     0
  9
$TDCREATE
 40
2451674.688137500
  9
$TDUPDATE
 40
2452759.746380567
  9
$TDINDWG
 40
0.0957765394
  9
$TDUSRTIMER
 40
0.0957759606
  9
$USRTIMER
 70
     1
  9
$ANGBASE
 50
0.0
  9
$ANGDIR
 70
     0
  9
$PDMODE
 70
     0
  9
$PDSIZE
 40
0.0
  9
$PLINEWID
 40
0.0
  9
$COORDS
 70
     1
  9
$SPLFRAME
 70
     0
  9
$SPLINETYPE
 70
     6
  9
$SPLINESEGS
 70
     8
  9
$ATTDIA
 70
     0
  9
$ATTREQ
 70
     1
  9
$HANDLING
 70
     1
  9
$HANDSEED
  5
CF
  9
$SURFTAB1
 70
     6
  9
$SURFTAB2
 70
     6
  9
$SURFTYPE
 70
     6
  9
$SURFU
 70
     6
  9
$SURFV
 70
     6
  9
$UCSNAME
  2

  9
$UCSORG
 10
0.0
 20
0.0
 30
0.0
  9
$UCSXDIR
 10
1.0
 20
0.0
 30
0.0
  9
$UCSYDIR
 10
0.0
 20
1.0
 30
0.0
  9
$PUCSNAME
  2

  9
$PUCSORG
 10
0.0
 20
0.0
 30
0.0
  9
$PUCSXDIR
 10
1.0
 20
0.0
 30
0.0
  9
$PUCSYDIR
 10
0.0
 20
1.0
 30
0.0
  9
$USERI1
 70
     0
  9
$USERI2
 70
     0
  9
$USERI3
 70
     0
  9
$USERI4
 70
     0
  9
$USERI5
 70
     0
  9
$USERR1
 40
0.0
  9
$USERR2
 40
0.0
  9
$USERR3
 40
0.0
  9
$USERR4
 40
0.0
  9
$USERR5
 40
0.0
  9
$WORLDVIEW
 70
     1
  9
$SHADEDGE
 70
     3
  9
$SHADEDIF
 70
    70
  9
$TILEMODE
 70
     1
  9
$MAXACTVP
 70
    48
  9
$PINSBASE
 10
0.0
 20
0.0
 30
0.0
  9
$PLIMCHECK
 70
     0
  9
$PEXTMIN
 10
1.000000000000000E+20
 20
1.000000000000000E+20
 30
1.000000000000000E+20
  9
$PEXTMAX
 10
-1.000000000000000E+20
 20
-1.000000000000000E+20
 30
-1.000000000000000E+20
  9
$PLIMMIN
 10
0.0
 20
0.0
  9
$PLIMMAX
 10
12.0
 20
9.0
  9
$UNITMODE
 70
     0
  9
$VISRETAIN
 70
     1
  9
$PLINEGEN
 70
     0
  9
$PSLTSCALE
 70
     1
  9
$TREEDEPTH
 70
  3020
  9
$PICKSTYLE
 70
     1
  9
$CMLSTYLE
  2
STANDARD
  9
$CMLJUST
 70
     0
  9
$CMLSCALE
 40
1.0
  9
$PROXYGRAPHICS
 70
     1
  9
$MEASUREMENT
 70
     0
  0
ENDSEC
  0
SECTION
  2
CLASSES
  0
CLASS
  1
ACDBDICTIONARYWDFLT
  2
AcDbDictionaryWithDefault
  3
AutoCAD 2000
 90
        0
280
     1
281
     0
  0
CLASS
  1
ACDBPLACEHOLDER
  2
AcDbPlaceHolder
  3
AutoCAD 2000
 90
        0
280
     1
281
     0
  0
CLASS
  1
LAYOUT
  2
AcDbLayout
  3
AutoCAD 2000
 90
        0
280
     1
281
     0
  0
CLASS
  1
LONG_TRANSACTION
  2
AcDbLongTransaction
  3
AutoCAD 2000
 90
        0
280
     1
281
     0
  0
CLASS
  1
LWPOLYLINE
  2
AcDbPolyline
  3
"AutoCAD"
 90
        0
280
     1
281
     1
  0
CLASS
  1
HATCH
  2
AcDbHatch
  3
"ACAD_SEDONA"
 90
        0
280
     1
281
     1
  0
CLASS
  1
XRECORD
  2
AcDbXrecord
  3
"<Built In>"
 90
        0
280
     0
281
     0
  0
CLASS
  1
LONG_TRANSACTION
  2
AcDbLongTransaction
  3
AutoCAD 2000
 90
        0
280
     1
281
     0
  0
CLASS
  1
LWPOLYLINE
  2
AcDbPolyline
  3
"AutoCAD"
 90
        0
280
     1
281
     1
  0
CLASS
  1
HATCH
  2
AcDbHatch
  3
"ACAD_SEDONA"
 90
        0
280
     1
281
     1
  0
CLASS
  1
XRECORD
  2
AcDbXrecord
  3
"<Built In>"
 90
        0
280
     0
281
     0
  0
CLASS
  1
LONG_TRANSACTION
  2
AcDbLongTransaction
  3
AutoCAD 2000
 90
        0
280
     1
281
     0
  0
CLASS
  1
LWPOLYLINE
  2
AcDbPolyline
  3
"AutoCAD"
 90
        0
280
     1
281
     1
  0
CLASS
  1
HATCH
  2
AcDbHatch
  3
"ACAD_SEDONA"
 90
        0
280
     1
281
     1
  0
CLASS
  1
XRECORD
  2
AcDbXrecord
  3
"<Built In>"
 90
        0
280
     0
281
     0
  0
CLASS
  1
LONG_TRANSACTION
  2
AcDbLongTransaction
  3
AutoCAD 2000
 90
        0
280
     1
281
     0
  0
CLASS
  1
LWPOLYLINE
  2
AcDbPolyline
  3
"AutoCAD"
 90
        0
280
     1
281
     1
  0
CLASS
  1
HATCH
  2
AcDbHatch
  3
"ACAD_SEDONA"
 90
        0
280
     1
281
     1
  0
CLASS
  1
XRECORD
  2
AcDbXrecord
  3
"<Built In>"
 90
        0
280
     0
281
     0
  0
CLASS
  1
DICTIONARYVAR
  2
AcDbDictionaryVar
  3
"AutoCAD"
 90
        0
280
     0
281
     0
  0
CLASS
  1
LONG_TRANSACTION
  2
AcDbLongTransaction
  3
AutoCAD 2000
 90
        0
280
     0
281
     0
  0
CLASS
  1
LWPOLYLINE
  2
AcDbPolyline
  3
"AutoCAD"
 90
        0
280
     0
281
     1
  0
CLASS
  1
HATCH
  2
AcDbHatch
  3
"ACAD_SEDONA"
 90
        0
280
     0
281
     1
  0
CLASS
  1
XRECORD
  2
AcDbXrecord
  3
"<Built In>"
 90
        0
280
     0
281
     0
  0
CLASS
  1
LONG_TRANSACTION
  2
AcDbLongTransaction
  3
AutoCAD 2000
 90
        0
280
     0
281
     0
  0
CLASS
  1
LWPOLYLINE
  2
AcDbPolyline
  3
"AutoCAD"
 90
        0
280
     0
281
     1
  0
CLASS
  1
HATCH
  2
AcDbHatch
  3
"ACAD_SEDONA"
 90
        0
280
     0
281
     1
  0
CLASS
  1
XRECORD
  2
AcDbXrecord
  3
"<Built In>"
 90
        0
280
     0
281
     0
  0
ENDSEC
  0
SECTION
  2
TABLES
  0
TABLE
  2
VPORT
  5
AF
100
AcDbSymbolTable
 70
     1
  0
VPORT
  5
CB
100
AcDbSymbolTableRecord
100
AcDbViewportTableRecord
  2
*ACTIVE
 70
     0
 10
0.0
 20
0.0
 11
1.0
 21
1.0
 12
7.748561309405
 22
4.052276765829776
 13
0.0
 23
0.0
 14
0.5
 24
0.5
 15
0.5
 25
0.5
 16
0.0
 26
0.0
 36
1.0
 17
0.0
 27
0.0
 37
0.0
 40
10.68364408870991
 41
1.457627118644067
 42
50.0
 43
0.0
 44
0.0
 50
0.0
 51
0.0
 71
     0
 72
   100
 73
     1
 74
     3
 75
     0
 76
     0
 77
     0
 78
     0
  0
ENDTAB
  0
TABLE
  2
LTYPE
  5
A8
100
AcDbSymbolTable
 70
     2
  0
LTYPE
  5
A9
102
{ACAD_XDICTIONARY
360
AA
102
}
100
AcDbSymbolTableRecord
100
AcDbLinetypeTableRecord
  2
BYBLOCK
 70
     0
  3

 72
    65
 73
     0
 40
0.0
  0
LTYPE
  5
AB
102
{ACAD_XDICTIONARY
360
AC
102
}
100
AcDbSymbolTableRecord
100
AcDbLinetypeTableRecord
  2
BYLAYER
 70
     0
  3

 72
    65
 73
     0
 40
0.0
  0
LTYPE
  5
5
102
{ACAD_XDICTIONARY
360
6
102
}
100
AcDbSymbolTableRecord
100
AcDbLinetypeTableRecord
  2
CONTINUOUS
 70
     0
  3
Solid line
 72
    65
 73
     0
 40
0.0
  0
LTYPE
  5
6C
100
AcDbSymbolTableRecord
100
AcDbLinetypeTableRecord
  2
HIDDEN
 70
     0
  3
Hidden __ __ __ __ __ __ __ __ __ __ __ __ __ _
 72
    65
 73
     2
 40
0.375
 49
0.25
 74
     0
 49
-0.125
 74
     0
  0
ENDTAB
  0
TABLE
  2
LAYER
  5
A6
100
AcDbSymbolTable
 70
     5
  0
LAYER
  5
62
100
AcDbSymbolTableRecord
100
AcDbLayerTableRecord
  2
0
 70
     0
 62
     7
  6
CONTINUOUS
  0
LAYER
  5
4
100
AcDbSymbolTableRecord
100
AcDbLayerTableRecord
  2
USP
 70
     0
 62
     7
  6
CONTINUOUS
  0
LAYER
  5
6B
100
AcDbSymbolTableRecord
100
AcDbLayerTableRecord
  2
USP-HID
 70
     0
 62
     7
  6
HIDDEN
  0
LAYER
  5
9
100
AcDbSymbolTableRecord
100
AcDbLayerTableRecord
  2
USP-GEO
 70
     0
 62
     7
  6
CONTINUOUS
  0
LAYER
  5
E
100
AcDbSymbolTableRecord
100
AcDbLayerTableRecord
  2
USP-TXT
 70
     0
 62
     7
  6
CONTINUOUS
  0
ENDTAB
  0
TABLE
  2
STYLE
  5
A7
100
AcDbSymbolTable
 70
     1
  0
STYLE
  5
F
102
{ACAD_XDICTIONARY
360
10
102
}
100
AcDbSymbolTableRecord
100
AcDbTextStyleTableRecord
  2
STANDARD
 70
     0
 40
0.0
 41
1.0
 50
0.0
 71
     0
 42
0.375
  3
txt
  4

  0
ENDTAB
  0
TABLE
  2
VIEW
  5
AD
100
AcDbSymbolTable
 70
     0
  0
ENDTAB
  0
TABLE
  2
UCS
  5
AE
100
AcDbSymbolTable
 70
     0
  0
ENDTAB
  0
TABLE
  2
APPID
  5
B1
100
AcDbSymbolTable
 70
     1
  0
APPID
  5
B2
100
AcDbSymbolTableRecord
100
AcDbRegAppTableRecord
  2
ACAD
 70
     0
  0
ENDTAB
  0
TABLE
  2
DIMSTYLE
  5
B3
100
AcDbSymbolTable
 70
     1
  0
DIMSTYLE
105
BC
102
{ACAD_XDICTIONARY
360
BD
102
}
100
AcDbSymbolTableRecord
100
AcDbDimStyleTableRecord
  2
STANDARD
 70
     0
  3

  4

  5

  6

  7

 40
1.0
 41
0.18
 42
0.0625
 43
0.38
 44
0.18
 45
0.0
 46
0.0
 47
0.0
 48
0.0
140
0.18
141
0.09
142
0.0
143
25.4
144
1.0
145
0.0
146
1.0
147
0.09
 71
     0
 72
     0
 73
     1
 74
     1
 75
     0
 76
     0
 77
     0
 78
     0
170
     0
171
     2
172
     0
173
     0
174
     0
175
     0
176
     0
177
     0
178
     0
270
     2
271
     4
272
     4
273
     2
274
     2
340
F
275
     0
280
     0
281
     0
282
     0
283
     1
284
     0
285
     0
286
     0
287
     3
288
     0
  0
ENDTAB
  0
TABLE
  2
BLOCK_RECORD
  5
1
100
AcDbSymbolTable
 70
     2
  0
BLOCK_RECORD
  5
2
102
{ACAD_XDICTIONARY
360
9D
102
}
100
AcDbSymbolTableRecord
100
AcDbBlockTableRecord
  2
*MODEL_SPACE
  0
BLOCK_RECORD
  5
A1
102
{ACAD_XDICTIONARY
360
A2
102
}
100
AcDbSymbolTableRecord
100
AcDbBlockTableRecord
  2
*PAPER_SPACE
  0
BLOCK_RECORD
  5
7
100
AcDbSymbolTableRecord
100
AcDbBlockTableRecord
  2
PAU66_F
  0
BLOCK_RECORD
  5
65
100
AcDbSymbolTableRecord
100
AcDbBlockTableRecord
  2
PAU66_S
  0
ENDTAB
  0
ENDSEC
  0
SECTION
  2
BLOCKS
  0
BLOCK
  5
9F
100
AcDbEntity
  8
0
100
AcDbBlockBegin
  2
*MODEL_SPACE
 70
     0
 10
0.0
 20
0.0
 30
0.0
  3
*MODEL_SPACE
  1

  0
ENDBLK
  5
A0
100
AcDbEntity
  8
0
100
AcDbBlockEnd
  0
BLOCK
  5
A4
100
AcDbEntity
 67
     1
  8
0
100
AcDbBlockBegin
  2
*PAPER_SPACE
 70
     0
 10
0.0
 20
0.0
 30
0.0
  3
*PAPER_SPACE
  1

  0
ENDBLK
  5
A5
100
AcDbEntity
 67
     1
  8
0
100
AcDbBlockEnd
  0
BLOCK
  5
61
100
AcDbEntity
  8
0
100
AcDbBlockBegin
  2
PAU66_F
 70
     0
 10
0.0
 20
0.0
 30
0.0
  3
PAU66_F
  1

  0
LINE
  5
8
100
AcDbEntity
  8
USP-GEO
100
AcDbLine
 10
5.762500000000041
 20
5.72500000000001
 30
0.0000000000000007
 11
5.762500000000057
 21
0.2875000000000123
 31
0.0000000000000007
210
0.0
220
1.0
230
0.0
  0
LINE
  5
A
100
AcDbEntity
  8
USP-GEO
100
AcDbLine
 10
5.628000000000065
 20
0.2875000000000167
 30
0.0000000000000007
 11
5.628000000000049
 21
5.725000000000019
 31
0.0000000000000007
210
0.0
220
1.0
230
0.0
  0
LINE
  5
B
100
AcDbEntity
  8
USP-GEO
100
AcDbLine
 10
0.1345000000000009
 20
0.2874999999999999
 30
0.0
 11
0.134499999999985
 21
5.725000000000001
 31
0.0
210
0.0
220
1.0
230
0.0
  0
LINE
  5
C
100
AcDbEntity
  8
USP-GEO
100
AcDbLine
 10
-0.0000000000000124
 20
5.724999999999999
 30
0.0
 11
0.0000000000000036
 21
0.2874999999999945
 31
0.0
210
0.0
220
1.0
230
0.0
  0
TEXT
  5
D
100
AcDbEntity
  8
USP-TXT
100
AcDbText
 10
-0.2438803634625533
 20
-1.539496496868473
 30
-0.0000000000000008
 40
0.375
  1
PAU66 - FRONT VIEW
100
AcDbText
  0
LINE
  5
11
100
AcDbEntity
  8
USP-GEO
100
AcDbLine
 10
4.41757098654183
 20
1.705928571000008
 30
0.0000000000000005
 11
1.351429011958034
 21
1.705928571000008
 31
0.0000000000000002
210
0.0
220
1.0
230
0.0
  0
LINE
  5
12
100
AcDbEntity
  8
USP-GEO
100
AcDbLine
 10
3.787500000000088
 20
0.8895000000000122
 30
0.0000000000000005
 11
1.975000000000088
 21
0.8895000000000122
 31
0.0000000000000002
210
0.0
220
1.0
230
0.0
  0
LINE
  5
13
100
AcDbEntity
  8
USP-GEO
100
AcDbLine
 10
1.975000000000088
 20
0.7550000000000131
 30
0.0000000000000002
 11
3.787500000000088
 21
0.7550000000000131
 31
0.0000000000000005
210
0.0
220
1.0
230
0.0
  0
LINE
  5
14
100
AcDbEntity
  8
USP-GEO
100
AcDbLine
 10
1.425000000000077
 20
0.7550000000000099
 30
0.0000000000000002
 11
4.337500000000099
 21
0.7550000000000143
 31
0.0000000000000005
210
0.0
220
1.0
230
0.0
  0
LINE
  5
15
100
AcDbEntity
  8
USP-GEO
100
AcDbLine
 10
1.425000000000085
 20
-0.0000000000000067
 30
0.0000000000000002
 11
4.337500000000082
 21
0.0000000000000013
 31
0.0000000000000005
210
0.0
220
1.0
230
0.0
  0
LINE
  5
16
100
AcDbEntity
  8
USP-GEO
100
AcDbLine
 10
5.169544654693494
 20
0.1345000000000096
 30
0.0000000000000006
 11
0.5994553438063699
 21
0.1345000000000096
 31
0.0000000000000001
210
0.0
220
1.0
230
0.0
  0
ARC
  5
17
100
AcDbEntity
  8
USP-GEO
100
AcDbCircle
 10
0.2775785713894976
 20
1.562849999610459
 30
0.0
 40
0.04910714284375
100
AcDbArc
 50
90.0
 51
180.0
  0
LINE
  5
18
100
AcDbEntity
  8
USP-GEO
100
AcDbLine
 10
0.1344999999999974
 20
0.1344999999999932
 30
0.0
 11
0.2875000000000956
 21
0.1344999999999936
 31
0.0
210
0.0
220
1.0
230
0.0
  0
LINE
  5
19
100
AcDbEntity
  8
USP-GEO
100
AcDbLine
 10
0.0000000000000071
 20
0.0
 30
0.0
 11
0.2875000000000947
 21
0.0000000000000007
 31
0.0
210
0.0
220
1.0
230
0.0
  0
LINE
  5
1A
100
AcDbEntity
  8
USP-GEO
100
AcDbLine
 10
0.2327142856874431
 20
1.705928571000008
 30
0.0
 11
1.208967506276064
 21
1.705928571000008
 31
0.0000000000000001
210
0.0
220
1.0
230
0.0
  0
LINE
  5
1B
100
AcDbEntity
  8
USP-GEO
100
AcDbLine
 10
0.1344999999999432
 20
0.1345000000000132
 30
0.0
 11
0.1344999999999432
 21
1.607714285312507
 31
0.0
210
0.0
220
1.0
230
0.0
  0
LINE
  5
1C
100
AcDbEntity
  8
USP-GEO
100
AcDbLine
 10
0.2284714285457472
 20
1.705836882487579
 30
0.0
 11
0.2284714285457472
 21
0.1345000000000132
 31
0.0
210
0.0
220
1.0
230
0.0
  0
LINE
  5
1D
100
AcDbEntity
  8
USP-GEO
100
AcDbLine
 10
-0.0000000000000009
 20
0.2875000000000012
 30
0.0
 11
0.0
 21
0.0
 31
0.0
210
0.0
220
1.0
230
0.0
  0
LINE
  5
1E
100
AcDbEntity
  8
USP-GEO
100
AcDbLine
 10
0.0000000000000027
 20
0.2874999999999941
 30
0.0
 11
0.1344999999999956
 21
0.287499999999995
 31
0.0
210
0.0
220
1.0
230
0.0
  0
LINE
  5
1F
100
AcDbEntity
  8
USP-GEO
100
AcDbLine
 10
0.2284714285457472
 20
0.1345000000000096
 30
0.0
 11
0.1344999999999432
 21
0.1345000000000096
 31
0.0
210
0.0
220
1.0
230
0.0
  0
LINE
  5
20
100
AcDbEntity
  8
USP-GEO
100
AcDbLine
 10
0.1345000000000009
 20
0.1344999999999943
 30
0.0
 11
0.1345000000000001
 21
0.2874999999999932
 31
0.0
210
0.0
220
1.0
230
0.0
  0
ARC
  5
21
100
AcDbEntity
  8
USP-GEO
100
AcDbCircle
 10
0.2327142856874431
 20
1.607714285312507
 30
0.0
 40
0.0982142856875
100
AcDbArc
 50
92.47594820149677
 51
180.0
  0
ARC
  5
22
100
AcDbEntity
  8
USP-GEO
100
AcDbCircle
 10
0.2327142856874431
 20
1.607714285312507
 30
0.0
 40
0.0982142856875
100
AcDbArc
 50
90.0
 51
92.47594820149677
  0
LINE
  5
23
100
AcDbEntity
  8
USP-GEO
100
AcDbLine
 10
0.3401696295913723
 20
0.1345000000000114
 30
0.0
 11
0.3401696295913723
 21
1.509499999625008
 31
0.0
210
0.0
220
1.0
230
0.0
  0
LINE
  5
24
100
AcDbEntity
  8
USP-GEO
100
AcDbLine
 10
1.425000000000085
 20
-0.0000000000000067
 30
0.0000000000000002
 11
1.425000000000077
 21
0.7550000000000099
 31
0.0000000000000002
210
0.0
220
1.0
230
0.0
  0
LINE
  5
25
100
AcDbEntity
  8
USP-GEO
100
AcDbLine
 10
1.225000000000085
 20
0.1344999999999978
 30
0.0000000000000002
 11
0.2875000000000813
 21
0.1344999999999954
 31
0.0
210
0.0
220
1.0
230
0.0
  0
LINE
  5
26
100
AcDbEntity
  8
USP-GEO
100
AcDbLine
 10
0.2875000000000858
 20
-0.0000000000000024
 30
0.0
 11
1.225000000000084
 21
0.0
 31
0.0000000000000002
210
0.0
220
1.0
230
0.0
  0
LINE
  5
27
100
AcDbEntity
  8
USP-GEO
100
AcDbLine
 10
1.425000000000082
 20
0.2689999999999866
 30
0.0000000000000002
 11
0.7875000000000485
 21
0.2689999999999848
 31
0.0000000000000001
210
0.0
220
1.0
230
0.0
  0
LINE
  5
28
100
AcDbEntity
  8
USP-GEO
100
AcDbLine
 10
0.5994553438063699
 20
0.1345000000000096
 30
0.0000000000000001
 11
0.3401696295913723
 21
0.1345000000000096
 31
0.0
210
0.0
220
1.0
230
0.0
  0
LINE
  5
29
100
AcDbEntity
  8
USP-GEO
100
AcDbLine
 10
0.7875000000000503
 20
0.2689999999999866
 30
0.0000000000000001
 11
0.5062500000000494
 21
0.1344999999999852
 31
0.0000000000000001
210
0.0
220
1.0
230
0.0
  0
LINE
  5
2A
100
AcDbEntity
  8
USP-GEO
100
AcDbLine
 10
0.2875000000000813
 20
0.1344999999999943
 30
0.0
 11
0.2875000000000813
 21
-0.0000000000000058
 31
0.0
210
0.0
220
1.0
230
0.0
  0
LINE
  5
2B
100
AcDbEntity
  8
USP-GEO
100
AcDbLine
 10
1.225000000000085
 20
0.1344999999999978
 30
0.0000000000000002
 11
1.225000000000085
 21
0.0
 31
0.0000000000000002
210
0.0
220
1.0
230
0.0
  0
LINE
  5
2C
100
AcDbEntity
  8
USP-GEO
100
AcDbLine
 10
1.225000000000072
 20
-0.0000000000000011
 30
0.0000000000000002
 11
1.425000000000071
 21
-0.0000000000000007
 31
0.0000000000000002
210
0.0
220
1.0
230
0.0
  0
LINE
  5
2D
100
AcDbEntity
  8
USP-GEO
100
AcDbLine
 10
1.42500000000008
 20
0.1344999999999941
 30
0.0000000000000002
 11
1.225000000000081
 21
0.1344999999999936
 31
0.0000000000000002
210
0.0
220
1.0
230
0.0
  0
LINE
  5
2E
100
AcDbEntity
  8
USP-GEO
100
AcDbLine
 10
1.425000000000084
 20
0.2152000000000058
 30
0.0000000000000002
 11
1.25625000000007
 21
0.1344999999999985
 31
0.0000000000000002
210
0.0
220
1.0
230
0.0
  0
LINE
  5
2F
100
AcDbEntity
  8
USP-GEO
100
AcDbLine
 10
1.975000000000088
 20
0.8895000000000157
 30
0.0000000000000002
 11
1.975000000000088
 21
0.7550000000000131
 31
0.0000000000000002
210
0.0
220
1.0
230
0.0
  0
LINE
  5
30
100
AcDbEntity
  8
USP-GEO
100
AcDbLine
 10
1.349741196381577
 20
1.509499999625008
 30
0.0000000000000002
 11
0.5994553438063699
 21
1.509499999625008
 31
0.0000000000000001
210
0.0
220
1.0
230
0.0
  0
LINE
  5
31
100
AcDbEntity
  8
USP-GEO
100
AcDbLine
 10
0.2775785713894976
 20
1.611957142454208
 30
0.0
 11
1.208967506276064
 21
1.611957142454208
 31
0.0000000000000001
210
0.0
220
1.0
230
0.0
  0
LINE
  5
32
100
AcDbEntity
  8
USP-GEO
100
AcDbLine
 10
0.5994553438063699
 20
1.509499999625008
 30
0.0000000000000001
 11
0.3401696295913723
 21
1.509499999625008
 31
0.0
210
0.0
220
1.0
230
0.0
  0
LINE
  5
33
100
AcDbEntity
  8
USP-GEO
100
AcDbLine
 10
1.349741196381577
 20
1.705836882487577
 30
0.0000000000000002
 11
1.349741196381577
 21
1.607714285312507
 31
0.0000000000000002
210
0.0
220
1.0
230
0.0
  0
LINE
  5
34
100
AcDbEntity
  8
USP-GEO
100
AcDbLine
 10
1.349741196381577
 20
1.607714285312507
 30
0.0000000000000002
 11
1.349741196381577
 21
1.509499999625008
 31
0.0000000000000002
210
0.0
220
1.0
230
0.0
  0
LINE
  5
35
100
AcDbEntity
  8
USP-GEO
100
AcDbLine
 10
1.208967506276064
 20
1.611957142454208
 30
0.0000000000000001
 11
1.349741196381577
 21
1.611957142454208
 31
0.0000000000000002
210
0.0
220
1.0
230
0.0
  0
LINE
  5
36
100
AcDbEntity
  8
USP-GEO
100
AcDbLine
 10
1.208967506276064
 20
1.705928571000008
 30
0.0000000000000001
 11
1.351429011958034
 21
1.705928571000008
 31
0.0000000000000002
210
0.0
220
1.0
230
0.0
  0
SPLINE
  5
37
100
AcDbEntity
  8
USP-GEO
100
AcDbSpline
210
-0.0542437945750331
220
0.9985277215731677
230
0.0
 70
    24
 71
     3
 72
     8
 73
     4
 74
     0
 42
0.0000001
 43
0.0000001
 40
0.3196463162608571
 40
0.3196463162608571
 40
0.3196463162608571
 40
0.3196463162608571
 40
0.32253689631152
 40
0.32253689631152
 40
0.32253689631152
 40
0.32253689631152
 10
1.351429011958034
 20
1.705928571000008
 30
0.0000000000000002
 10
1.350890487103383
 20
1.705928571000008
 30
0.0000000000000002
 10
1.350327806872265
 20
1.705897965874523
 30
0.0000000000000002
 10
1.349741196381577
 20
1.705836882487579
 30
0.0000000000000002
  0
LINE
  5
38
100
AcDbEntity
  8
USP-GEO
100
AcDbLine
 10
5.428830368908499
 20
1.509499999625008
 30
0.0000000000000007
 11
5.169544654693494
 21
1.509499999625008
 31
0.0000000000000006
210
0.0
220
1.0
230
0.0
  0
LINE
  5
39
100
AcDbEntity
  8
USP-GEO
100
AcDbLine
 10
4.5600324922238
 20
1.611957142454208
 30
0.0000000000000006
 11
5.491421427110401
 21
1.611957142454208
 31
0.0000000000000007
210
0.0
220
1.0
230
0.0
  0
LINE
  5
3A
100
AcDbEntity
  8
USP-GEO
100
AcDbLine
 10
4.5600324922238
 20
1.705928571000008
 30
0.0000000000000006
 11
5.536285712812444
 21
1.705928571000008
 31
0.0000000000000007
210
0.0
220
1.0
230
0.0
  0
LINE
  5
3B
100
AcDbEntity
  8
USP-GEO
100
AcDbLine
 10
5.428830368908494
 20
0.1345000000000096
 30
0.0000000000000007
 11
5.169544654693494
 21
0.1345000000000096
 31
0.0000000000000006
210
0.0
220
1.0
230
0.0
  0
LINE
  5
3C
100
AcDbEntity
  8
USP-GEO
100
AcDbLine
 10
5.475000000000083
 20
0.1345000000000072
 30
0.0000000000000007
 11
4.537500000000088
 21
0.1345000000000047
 31
0.0000000000000006
210
0.0
220
1.0
230
0.0
  0
LINE
  5
3D
100
AcDbEntity
  8
USP-GEO
100
AcDbLine
 10
4.537500000000088
 20
0.0000000000000082
 30
0.0000000000000006
 11
5.475000000000079
 21
0.0000000000000107
 31
0.0000000000000007
210
0.0
220
1.0
230
0.0
  0
LINE
  5
3E
100
AcDbEntity
  8
USP-GEO
100
AcDbLine
 10
4.975000000000063
 20
0.2689999999999999
 30
0.0000000000000006
 11
5.256250000000067
 21
0.1344999999999985
 31
0.0000000000000006
210
0.0
220
1.0
230
0.0
  0
LINE
  5
3F
100
AcDbEntity
  8
USP-GEO
100
AcDbLine
 10
3.787500000000088
 20
0.8895000000000122
 30
0.0000000000000005
 11
3.787500000000088
 21
0.7550000000000131
 31
0.0000000000000005
210
0.0
220
1.0
230
0.0
  0
LINE
  5
40
100
AcDbEntity
  8
USP-GEO
100
AcDbLine
 10
4.337500000000082
 20
0.0000000000000062
 30
0.0000000000000005
 11
4.337500000000094
 21
0.755000000000014
 31
0.0000000000000005
210
0.0
220
1.0
230
0.0
  0
LINE
  5
41
100
AcDbEntity
  8
USP-GEO
100
AcDbLine
 10
4.975000000000063
 20
0.2689999999999963
 30
0.0000000000000006
 11
4.337500000000087
 21
0.2689999999999946
 31
0.0000000000000005
210
0.0
220
1.0
230
0.0
  0
LINE
  5
42
100
AcDbEntity
  8
USP-GEO
100
AcDbLine
 10
4.537500000000088
 20
0.1345000000000125
 30
0.0000000000000006
 11
4.537500000000088
 21
0.0000000000000098
 31
0.0000000000000006
210
0.0
220
1.0
230
0.0
  0
LINE
  5
43
100
AcDbEntity
  8
USP-GEO
100
AcDbLine
 10
4.337500000000085
 20
0.0000000000000042
 30
0.0000000000000005
 11
4.537500000000084
 21
0.0000000000000047
 31
0.0000000000000006
210
0.0
220
1.0
230
0.0
  0
LINE
  5
44
100
AcDbEntity
  8
USP-GEO
100
AcDbLine
 10
4.537500000000081
 20
0.1345000000000025
 30
0.0000000000000006
 11
4.337500000000082
 21
0.1345000000000021
 31
0.0000000000000005
210
0.0
220
1.0
230
0.0
  0
LINE
  5
45
100
AcDbEntity
  8
USP-GEO
100
AcDbLine
 10
4.337500000000087
 20
0.2151999999999903
 30
0.0000000000000005
 11
4.50625000000007
 21
0.1344999999999985
 31
0.0000000000000006
210
0.0
220
1.0
230
0.0
  0
LINE
  5
46
100
AcDbEntity
  8
USP-GEO
100
AcDbLine
 10
5.169544654693494
 20
1.509499999625008
 30
0.0000000000000006
 11
4.419258802118276
 21
1.509499999625008
 31
0.0000000000000005
210
0.0
220
1.0
230
0.0
  0
LINE
  5
47
100
AcDbEntity
  8
USP-GEO
100
AcDbLine
 10
4.419258802118276
 20
1.607714285312507
 30
0.0000000000000005
 11
4.419258802118276
 21
1.705836882487577
 31
0.0000000000000005
210
0.0
220
1.0
230
0.0
  0
LINE
  5
48
100
AcDbEntity
  8
USP-GEO
100
AcDbLine
 10
4.419258802118276
 20
1.509499999625008
 30
0.0000000000000005
 11
4.419258802118276
 21
1.607714285312507
 31
0.0000000000000005
210
0.0
220
1.0
230
0.0
  0
LINE
  5
49
100
AcDbEntity
  8
USP-GEO
100
AcDbLine
 10
4.419258802118276
 20
1.611957142454208
 30
0.0000000000000005
 11
4.5600324922238
 21
1.611957142454208
 31
0.0000000000000006
210
0.0
220
1.0
230
0.0
  0
LINE
  5
4A
100
AcDbEntity
  8
USP-GEO
100
AcDbLine
 10
4.417570986541829
 20
1.705928571000008
 30
0.0000000000000005
 11
4.5600324922238
 21
1.705928571000008
 31
0.0000000000000006
210
0.0
220
1.0
230
0.0
  0
SPLINE
  5
4B
100
AcDbEntity
  8
USP-GEO
100
AcDbSpline
210
0.0542437945753747
220
0.9985277215731491
230
0.0
 70
    24
 71
     3
 72
     8
 73
     4
 74
     0
 42
0.0000001
 43
0.0000001
 40
0.1258761791398205
 40
0.1258761791398205
 40
0.1258761791398205
 40
0.1258761791398205
 40
0.1287667591904833
 40
0.1287667591904833
 40
0.1287667591904833
 40
0.1287667591904833
 10
4.419258802118276
 20
1.705836882487579
 30
0.0000000000000005
 10
4.418672191627599
 20
1.705897965874523
 30
0.0000000000000005
 10
4.418109511396481
 20
1.705928571000008
 30
0.0000000000000005
 10
4.41757098654183
 20
1.705928571000008
 30
0.0000000000000005
  0
LINE
  5
4C
100
AcDbEntity
  8
USP-GEO
100
AcDbLine
 10
5.540528569954151
 20
0.1345000000000096
 30
0.0000000000000007
 11
5.540528569954151
 21
1.705836882487575
 31
0.0000000000000007
210
0.0
220
1.0
230
0.0
  0
LINE
  5
4D
100
AcDbEntity
  8
USP-GEO
100
AcDbLine
 10
5.634499998499943
 20
1.607714285312507
 30
0.0000000000000007
 11
5.634499998499943
 21
0.1345000000000096
 31
0.0000000000000007
210
0.0
220
1.0
230
0.0
  0
LINE
  5
4E
100
AcDbEntity
  8
USP-GEO
100
AcDbLine
 10
5.428830368908494
 20
0.1345000000000114
 30
0.0000000000000007
 11
5.428830368908494
 21
1.509499999625008
 31
0.0000000000000007
210
0.0
220
1.0
230
0.0
  0
LINE
  5
4F
100
AcDbEntity
  8
USP-GEO
100
AcDbLine
 10
5.634499998499956
 20
0.1345000000000096
 30
0.0000000000000007
 11
5.540528569954151
 21
0.1345000000000096
 31
0.0000000000000007
210
0.0
220
1.0
230
0.0
  0
LINE
  5
50
100
AcDbEntity
  8
USP-GEO
100
AcDbLine
 10
5.628000000000064
 20
0.1345000000000092
 30
0.0000000000000007
 11
5.475000000000083
 21
0.1345000000000087
 31
0.0000000000000007
210
0.0
220
1.0
230
0.0
  0
LINE
  5
51
100
AcDbEntity
  8
USP-GEO
100
AcDbLine
 10
5.762500000000052
 20
0.0000000000000098
 30
0.0000000000000007
 11
5.475000000000081
 21
0.0000000000000091
 31
0.0000000000000007
210
0.0
220
1.0
230
0.0
  0
LINE
  5
52
100
AcDbEntity
  8
USP-GEO
100
AcDbLine
 10
5.475000000000083
 20
0.1345000000000072
 30
0.0000000000000007
 11
5.475000000000083
 21
0.0000000000000107
 31
0.0000000000000007
210
0.0
220
1.0
230
0.0
  0
LINE
  5
53
100
AcDbEntity
  8
USP-GEO
100
AcDbLine
 10
5.762500000000057
 20
0.2875000000000127
 30
0.0000000000000007
 11
5.762500000000057
 21
0.0000000000000098
 31
0.0000000000000007
210
0.0
220
1.0
230
0.0
  0
LINE
  5
54
100
AcDbEntity
  8
USP-GEO
100
AcDbLine
 10
5.76250000000005
 20
0.2875000000000119
 30
0.0000000000000007
 11
5.628000000000064
 21
0.2875000000000119
 31
0.0000000000000007
210
0.0
220
1.0
230
0.0
  0
LINE
  5
55
100
AcDbEntity
  8
USP-GEO
100
AcDbLine
 10
5.628000000000062
 20
0.1345000000000147
 30
0.0000000000000007
 11
5.628000000000062
 21
0.2875000000000163
 31
0.0000000000000007
210
0.0
220
1.0
230
0.0
  0
ARC
  5
56
100
AcDbEntity
  8
USP-GEO
100
AcDbCircle
 10
5.536285712812444
 20
1.607714285312507
 30
0.0000000000000007
 40
0.0982142856875
100
AcDbArc
 50
0.0
 51
87.52405179849713
  0
ARC
  5
57
100
AcDbEntity
  8
USP-GEO
100
AcDbCircle
 10
5.491421427110401
 20
1.562849999610458
 30
0.0000000000000007
 40
0.04910714284375
100
AcDbArc
 50
0.0
 51
90.0
  0
ARC
  5
58
100
AcDbEntity
  8
USP-GEO
100
AcDbCircle
 10
5.536285712812444
 20
1.607714285312507
 30
0.0000000000000007
 40
0.0982142856875
100
AcDbArc
 50
87.52405179849713
 51
90.0
  0
LINE
  5
59
100
AcDbEntity
  8
USP-GEO
100
AcDbLine
 10
0.134499999999985
 20
5.725000000000001
 30
0.0
 11
0.1344999999999779
 21
6.099999999999996
 31
0.0
210
0.0
220
1.0
230
0.0
  0
LINE
  5
5A
100
AcDbEntity
  8
USP-GEO
100
AcDbLine
 10
-0.0000000000000124
 20
5.724999999999999
 30
0.0
 11
-0.0000000000000195
 21
6.099999999999994
 31
0.0
210
0.0
220
1.0
230
0.0
  0
LINE
  5
5B
100
AcDbEntity
  8
USP-GEO
100
AcDbLine
 10
-0.0000000000000124
 20
5.724999999999999
 30
0.0
 11
0.134499999999985
 21
5.724999999999999
 31
0.0
210
0.0
220
1.0
230
0.0
  0
LINE
  5
5C
100
AcDbEntity
  8
USP-GEO
100
AcDbLine
 10
-0.0000000000000178
 20
6.099999999999997
 30
0.0
 11
0.1344999999999725
 21
6.099999999999997
 31
0.0
210
0.0
220
1.0
230
0.0
  0
LINE
  5
5D
100
AcDbEntity
  8
USP-GEO
100
AcDbLine
 10
5.762500000000041
 20
5.72500000000001
 30
0.0000000000000007
 11
5.762500000000034
 21
6.100000000000012
 31
0.0000000000000007
210
0.0
220
1.0
230
0.0
  0
LINE
  5
5E
100
AcDbEntity
  8
USP-GEO
100
AcDbLine
 10
5.628000000000049
 20
5.725000000000019
 30
0.0000000000000007
 11
5.628000000000042
 21
6.100000000000017
 31
0.0000000000000007
210
0.0
220
1.0
230
0.0
  0
LINE
  5
5F
100
AcDbEntity
  8
USP-GEO
100
AcDbLine
 10
5.762500000000041
 20
5.72500000000001
 30
0.0000000000000007
 11
5.628000000000049
 21
5.72500000000001
 31
0.0000000000000007
210
0.0
220
1.0
230
0.0
  0
LINE
  5
60
100
AcDbEntity
  8
USP-GEO
100
AcDbLine
 10
5.762500000000036
 20
6.100000000000012
 30
0.0000000000000007
 11
5.628000000000035
 21
6.100000000000012
 31
0.0000000000000007
210
0.0
220
1.0
230
0.0
  0
ENDBLK
  5
63
100
AcDbEntity
  8
0
100
AcDbBlockEnd
  0
BLOCK
  5
9B
100
AcDbEntity
  8
0
100
AcDbBlockBegin
  2
PAU66_S
 70
     0
 10
0.0
 20
0.0
 30
0.0
  3
PAU66_S
  1

  0
LINE
  5
66
100
AcDbEntity
  8
USP-GEO
100
AcDbLine
 10
5.249999999249975
 20
5.725000000000038
 30
0.0000000000000009
 11
5.249999999250018
 21
0.2875000000000401
 31
0.0000000000000009
210
0.0
220
1.0
230
0.0
  0
LINE
  5
67
100
AcDbEntity
  8
USP-GEO
100
AcDbLine
 10
0.2499999992500061
 20
0.2875000000000001
 30
0.0
 11
0.2499999992499635
 21
5.725000000000008
 31
0.0
210
0.0
220
1.0
230
0.0
  0
TEXT
  5
68
100
AcDbEntity
  8
USP-TXT
100
AcDbText
 10
-0.5030857298879017
 20
-1.748849246188233
 30
-0.0000000000000011
 40
0.375
  1
PAU66 - SIDE VIEW
100
AcDbText
  0
LINE
  5
69
100
AcDbEntity
  8
USP-GEO
100
AcDbLine
 10
5.15624999924999
 20
0.0000000000000375
 30
0.0000000000000009
 11
0.343749999250015
 21
0.0
 31
0.0
210
0.0
220
1.0
230
0.0
  0
LINE
  5
6A
100
AcDbEntity
  8
USP-HID
100
AcDbLine
 10
0.2499999992499973
 20
1.705928570999998
 30
0.0
 11
5.249999999250011
 21
1.705928570999998
 31
0.0000000000000009
  0
LINE
  5
6D
100
AcDbEntity
  8
USP-HID
100
AcDbLine
 10
0.3437499992500221
 20
0.1345000000000029
 30
0.0
 11
5.156249999250018
 21
0.1345000000000447
 31
0.0000000000000009
  0
LINE
  5
6E
100
AcDbEntity
  8
USP-GEO
100
AcDbLine
 10
0.0
 20
1.509499999624996
 30
-0.0000000000000001
 11
0.0
 21
0.1344999999999998
 31
-0.0000000000000001
210
0.0
220
1.0
230
0.0
  0
LINE
  5
6F
100
AcDbEntity
  8
USP-GEO
100
AcDbLine
 10
0.343749999250015
 20
0.1345000000000003
 30
0.0
 11
0.0000000000000053
 21
0.1344999999999998
 31
-0.0000000000000001
210
0.0
220
1.0
230
0.0
  0
LINE
  5
70
100
AcDbEntity
  8
USP-GEO
100
AcDbLine
 10
0.3437499992500115
 20
0.2875000000000028
 30
0.0
 11
0.343749999250015
 21
0.0000000000000064
 31
0.0
210
0.0
220
1.0
230
0.0
  0
LINE
  5
71
100
AcDbEntity
  8
USP-GEO
100
AcDbLine
 10
0.2499999992500221
 20
0.1345000000000021
 30
0.0
 11
0.2499999992500221
 21
0.000000000000002
 31
0.0
210
0.0
220
1.0
230
0.0
  0
LINE
  5
72
100
AcDbEntity
  8
USP-GEO
100
AcDbLine
 10
0.3437499992500221
 20
0.0000000000000002
 30
0.0
 11
0.2499999992500186
 21
-0.0000000000000004
 31
0.0
210
0.0
220
1.0
230
0.0
  0
LINE
  5
73
100
AcDbEntity
  8
USP-GEO
100
AcDbLine
 10
0.3437499992500115
 20
0.2875000000000028
 30
0.0
 11
0.2499999992500061
 21
0.2875000000000023
 31
0.0
210
0.0
220
1.0
230
0.0
  0
LINE
  5
74
100
AcDbEntity
  8
USP-GEO
100
AcDbLine
 10
0.3437499992500221
 20
0.1345000000000029
 30
0.0
 11
0.2499999992500221
 21
0.1345000000000023
 31
0.0
210
0.0
220
1.0
230
0.0
  0
LINE
  5
75
100
AcDbEntity
  8
USP-GEO
100
AcDbLine
 10
0.2946428570625024
 20
0.1344999999999998
 30
0.0
 11
0.2946428570625024
 21
0.2875000000000028
 31
0.0
210
0.0
220
1.0
230
0.0
  0
SPLINE
  5
76
100
AcDbEntity
  8
USP-GEO
100
AcDbSpline
210
0.0000000000000002
220
0.0
230
-1.0
 70
     8
 71
     3
 72
    14
 73
    10
 74
     0
 42
0.0000001
 43
0.0000001
 40
0.0950116943416629
 40
0.0950116943416629
 40
0.0950116943416629
 40
0.0950116943416629
 40
0.1068922848895874
 40
0.1068922848895874
 40
0.1187728754375119
 40
0.1187728754375119
 40
0.1307544904089738
 40
0.1307544904089738
 40
0.1427361053804357
 40
0.1427361053804357
 40
0.1427361053804357
 40
0.1427361053804357
 10
0.0939714285457996
 20
1.562849999610446
 30
0.0
 10
0.0939714285457996
 20
1.569073166086238
 30
0.0
 10
0.0952257661203326
 20
1.575663215003907
 30
0.0
 10
0.100230798600478
 20
1.587712387105331
 30
0.0
 10
0.1039786375209033
 20
1.593177314333033
 30
0.0
 10
0.1126014786741081
 20
1.601841412249279
 30
0.0
 10
0.11808764702781
 20
1.605628397586763
 30
0.0
 10
0.1301916235949605
 20
1.61068789550016
 30
0.0
 10
0.1368143057485547
 20
1.611957142454198
 30
0.0
 10
0.1430785713895499
 20
1.611957142454198
 30
0.0
  0
LINE
  5
77
100
AcDbEntity
  8
USP-GEO
100
AcDbLine
 10
0.249999999249999
 20
1.509499999624996
 30
0.0
 11
-0.0000000000000231
 21
1.509499999624996
 31
-0.0000000000000001
210
0.0
220
1.0
230
0.0
  0
LINE
  5
78
100
AcDbEntity
  8
USP-GEO
100
AcDbLine
 10
0.2499999992499973
 20
1.705928570999998
 30
0.0
 11
0.098214285687499
 21
1.705928570999998
 31
0.0
210
0.0
220
1.0
230
0.0
  0
LINE
  5
79
100
AcDbEntity
  8
USP-GEO
100
AcDbLine
 10
0.0939714285457996
 20
1.562849999610446
 30
0.0
 11
0.0939714285457996
 21
1.705836882487567
 31
0.0
210
0.0
220
1.0
230
0.0
  0
ARC
  5
7A
100
AcDbEntity
  8
USP-GEO
100
AcDbCircle
 10
-0.0982142856875008
 20
1.607714285312497
 30
0.0000000000000001
 40
0.0982142856875
210
0.0000000000000002
220
0.0
230
-1.0
100
AcDbArc
 50
0.0
 51
87.52405179850018
  0
LINE
  5
7B
100
AcDbEntity
  8
USP-GEO
100
AcDbLine
 10
0.0
 20
1.607714285312497
 30
-0.0000000000000001
 11
0.0
 21
1.509499999624996
 31
-0.0000000000000001
210
0.0
220
1.0
230
0.0
  0
LINE
  5
7C
100
AcDbEntity
  8
USP-GEO
100
AcDbLine
 10
0.0939714285457996
 20
1.509499999624996
 30
0.0
 11
0.0939714285457996
 21
1.562849999610446
 31
0.0
210
0.0
220
1.0
230
0.0
  0
SPLINE
  5
7D
100
AcDbEntity
  8
USP-GEO
100
AcDbSpline
210
0.0000000000000002
220
0.0
230
-1.0
 70
     8
 71
     3
 72
     8
 73
     4
 74
     0
 42
0.0000001
 43
0.0000001
 40
0.31964631626086
 40
0.31964631626086
 40
0.31964631626086
 40
0.31964631626086
 40
0.3225368963115234
 40
0.3225368963115234
 40
0.3225368963115234
 40
0.3225368963115234
 10
0.0982142856875008
 20
1.705928570999998
 30
0.0
 10
0.0967991778307589
 20
1.705928570999998
 30
0.0
 10
0.0953840758188882
 20
1.705897965874513
 30
0.0
 10
0.0939714285457996
 20
1.705836882487567
 30
0.0
  0
LINE
  5
7E
100
AcDbEntity
  8
USP-GEO
100
AcDbLine
 10
0.2499999992499955
 20
1.611957142454198
 30
0.0
 11
0.1430785713895499
 21
1.611957142454198
 31
0.0
210
0.0
220
1.0
230
0.0
  0
LINE
  5
7F
100
AcDbEntity
  8
USP-GEO
100
AcDbLine
 10
5.499999998500001
 20
1.509499999624996
 30
0.0000000000000009
 11
5.499999998500001
 21
0.1344999999999998
 31
0.0000000000000009
210
0.0
220
1.0
230
0.0
  0
LINE
  5
80
100
AcDbEntity
  8
USP-GEO
100
AcDbLine
 10
5.156249999249997
 20
0.1344999999999998
 30
0.0000000000000009
 11
5.499999998499998
 21
0.1344999999999998
 31
0.0000000000000009
210
0.0
220
1.0
230
0.0
  0
LINE
  5
81
100
AcDbEntity
  8
USP-GEO
100
AcDbLine
 10
5.156249999250007
 20
0.2875000000000409
 30
0.0000000000000009
 11
5.156249999249986
 21
0.0000000000000375
 31
0.0000000000000009
210
0.0
220
1.0
230
0.0
  0
LINE
  5
82
100
AcDbEntity
  8
USP-GEO
100
AcDbLine
 10
5.249999999250022
 20
0.1345000000000349
 30
0.0000000000000009
 11
5.249999999250022
 21
0.0000000000000384
 31
0.0000000000000009
210
0.0
220
1.0
230
0.0
  0
LINE
  5
83
100
AcDbEntity
  8
USP-GEO
100
AcDbLine
 10
5.249999999250029
 20
0.000000000000044
 30
0.0000000000000009
 11
5.156249999250025
 21
0.0000000000000433
 31
0.0000000000000009
210
0.0
220
1.0
230
0.0
  0
LINE
  5
84
100
AcDbEntity
  8
USP-GEO
100
AcDbLine
 10
5.205357141437513
 20
0.2875000000000409
 30
0.0000000000000009
 11
5.205357141437513
 21
0.1344999999999998
 31
0.0000000000000009
210
0.0
220
1.0
230
0.0
  0
LINE
  5
85
100
AcDbEntity
  8
USP-GEO
100
AcDbLine
 10
5.156249999250007
 20
0.2875000000000409
 30
0.0000000000000009
 11
5.249999999250011
 21
0.2875000000000414
 31
0.0000000000000009
210
0.0
220
1.0
230
0.0
  0
LINE
  5
86
100
AcDbEntity
  8
USP-GEO
100
AcDbLine
 10
5.156249999250018
 20
0.1345000000000447
 30
0.0000000000000009
 11
5.249999999250022
 21
0.1345000000000454
 31
0.0000000000000009
210
0.0
220
1.0
230
0.0
  0
LINE
  5
87
100
AcDbEntity
  8
USP-GEO
100
AcDbLine
 10
5.406028569954202
 20
1.562849999610446
 30
0.0000000000000009
 11
5.406028569954202
 21
1.705836882487567
 31
0.0000000000000009
210
0.0
220
1.0
230
0.0
  0
ARC
  5
88
100
AcDbEntity
  8
USP-GEO
100
AcDbCircle
 10
-5.4017857128125
 20
1.607714285312497
 30
0.0000000000000001
 40
0.0982142856875
210
0.0000000000000002
220
0.0
230
-1.0
100
AcDbArc
 50
92.47594820149982
 51
180.0
  0
LINE
  5
89
100
AcDbEntity
  8
USP-GEO
100
AcDbLine
 10
5.249999999250004
 20
1.509499999624996
 30
0.0000000000000009
 11
5.499999998500026
 21
1.509499999624996
 31
0.0000000000000009
210
0.0
220
1.0
230
0.0
  0
LINE
  5
8A
100
AcDbEntity
  8
USP-GEO
100
AcDbLine
 10
5.406028569954202
 20
1.562849999610446
 30
0.0000000000000009
 11
5.406028569954202
 21
1.509499999624996
 31
0.0000000000000009
210
0.0
220
1.0
230
0.0
  0
LINE
  5
8B
100
AcDbEntity
  8
USP-GEO
100
AcDbLine
 10
5.356921427110453
 20
1.611957142454198
 30
0.0000000000000009
 11
5.249999999250004
 21
1.611957142454198
 31
0.0000000000000009
210
0.0
220
1.0
230
0.0
  0
SPLINE
  5
8C
100
AcDbEntity
  8
USP-GEO
100
AcDbSpline
210
-0.0000000000000002
220
0.0
230
1.0
 70
     8
 71
     3
 72
    14
 73
    10
 74
     0
 42
0.0000001
 43
0.0000001
 40
0.1422988301464533
 40
0.1422988301464533
 40
0.1422988301464533
 40
0.1422988301464533
 40
0.1542804451179165
 40
0.1542804451179165
 40
0.1662620600893796
 40
0.1662620600893796
 40
0.1781426506373027
 40
0.1781426506373027
 40
0.1900232411852259
 40
0.1900232411852259
 40
0.1900232411852259
 40
0.1900232411852259
 10
5.356921427110453
 20
1.611957142454198
 30
0.0000000000000009
 10
5.363185692751446
 20
1.611957142454198
 30
0.0000000000000009
 10
5.369808374905055
 20
1.61068789550016
 30
0.0000000000000009
 10
5.381912351472198
 20
1.605628397586763
 30
0.0000000000000009
 10
5.3873985198259
 20
1.601841412249275
 30
0.0000000000000009
 10
5.396021360979098
 20
1.59317731433303
 30
0.0000000000000009
 10
5.399769199899512
 20
1.587712387105331
 30
0.0000000000000009
 10
5.404774232379672
 20
1.575663215003914
 30
0.0000000000000009
 10
5.406028569954202
 20
1.569073166086238
 30
0.0000000000000009
 10
5.406028569954202
 20
1.562849999610446
 30
0.0000000000000009
  0
LINE
  5
8D
100
AcDbEntity
  8
USP-GEO
100
AcDbLine
 10
5.499999998500001
 20
1.509499999624996
 30
0.0000000000000009
 11
5.499999998500001
 21
1.607714285312497
 31
0.0000000000000009
210
0.0
220
1.0
230
0.0
  0
LINE
  5
8E
100
AcDbEntity
  8
USP-GEO
100
AcDbLine
 10
5.401785712812504
 20
1.705928570999998
 30
0.0000000000000009
 11
5.249999999250011
 21
1.705928570999998
 31
0.0000000000000009
210
0.0
220
1.0
230
0.0
  0
SPLINE
  5
8F
100
AcDbEntity
  8
USP-GEO
100
AcDbSpline
210
0.0000000000000002
220
0.0
230
-1.0
 70
     8
 71
     3
 72
     8
 73
     4
 74
     0
 42
0.0000001
 43
0.0000001
 40
0.1258761791398205
 40
0.1258761791398205
 40
0.1258761791398205
 40
0.1258761791398205
 40
0.1287667591904833
 40
0.1287667591904833
 40
0.1287667591904833
 40
0.1287667591904833
 10
5.406028569954202
 20
1.705836882487567
 30
0.0000000000000009
 10
5.404615922681113
 20
1.705897965874513
 30
0.0000000000000009
 10
5.403200820669244
 20
1.705928570999998
 30
0.0000000000000009
 10
5.4017857128125
 20
1.705928570999998
 30
0.0000000000000009
  0
LINE
  5
90
100
AcDbEntity
  8
USP-GEO
100
AcDbLine
 10
0.6249999992499653
 20
6.100000000000006
 30
0.0000000000000001
 11
4.874999999249968
 21
6.10000000000004
 31
0.0000000000000008
210
0.0
220
1.0
230
0.0
  0
CIRCLE
  5
91
100
AcDbEntity
  8
USP-GEO
100
AcDbCircle
 10
-0.7499999992499653
 20
5.60000000000001
 30
0.0000000000000001
 40
0.0900000000000035
210
0.0000000000000002
220
0.0
230
-1.0
  0
CIRCLE
  5
92
100
AcDbEntity
  8
USP-GEO
100
AcDbCircle
 10
-2.749999999249968
 20
5.350000000000029
 30
0.0000000000000001
 40
0.2812500000000001
210
0.0000000000000002
220
0.0
230
-1.0
  0
CIRCLE
  5
93
100
AcDbEntity
  8
USP-GEO
100
AcDbCircle
 10
-0.7499999992499902
 20
3.100000000000013
 30
0.0000000000000001
 40
0.0900000000000035
210
0.0000000000000002
220
0.0
230
-1.0
  0
CIRCLE
  5
94
100
AcDbEntity
  8
USP-GEO
100
AcDbCircle
 10
-2.749999999249986
 20
3.350000000000031
 30
0.0000000000000001
 40
0.2812500000000001
210
0.0000000000000002
220
0.0
230
-1.0
  0
CIRCLE
  5
95
100
AcDbEntity
  8
USP-GEO
100
AcDbCircle
 10
-2.049999999249976
 20
4.350000000000022
 30
0.0000000000000001
 40
0.0900000000000035
210
0.0000000000000002
220
0.0
230
-1.0
  0
LINE
  5
96
100
AcDbEntity
  8
USP-GEO
100
AcDbLine
 10
0.2499999992499617
 20
5.725000000000008
 30
0.0
 11
0.6249999992499618
 21
6.100000000000012
 31
0.0000000000000001
210
0.0
220
1.0
230
0.0
  0
CIRCLE
  5
97
100
AcDbEntity
  8
USP-GEO
100
AcDbCircle
 10
-3.449999999249971
 20
5.600000000000028
 30
0.0000000000000001
 40
0.0900000000000035
210
0.0000000000000002
220
0.0
230
-1.0
  0
CIRCLE
  5
98
100
AcDbEntity
  8
USP-GEO
100
AcDbCircle
 10
-3.449999999249993
 20
3.100000000000027
 30
0.0000000000000001
 40
0.0900000000000035
210
0.0000000000000002
220
0.0
230
-1.0
  0
CIRCLE
  5
99
100
AcDbEntity
  8
USP-GEO
100
AcDbCircle
 10
-4.749999999249979
 20
4.35000000000004
 30
0.0000000000000001
 40
0.0900000000000035
210
0.0000000000000002
220
0.0
230
-1.0
  0
LINE
  5
9A
100
AcDbEntity
  8
USP-GEO
100
AcDbLine
 10
5.249999999249975
 20
5.725000000000038
 30
0.0000000000000009
 11
4.874999999249968
 21
6.10000000000004
 31
0.0000000000000008
210
0.0
220
1.0
230
0.0
  0
ENDBLK
  5
9C
100
AcDbEntity
  8
0
100
AcDbBlockEnd
  0
ENDSEC
  0
SECTION
  2
ENTITIES
  0
INSERT
  5
3
100
AcDbEntity
  8
USP
100
AcDbBlockReference
  2
PAU66_F
 10
0.2443532466588945
 20
1.749123883436929
 30
0.0000000000000008
  0
INSERT
  5
64
100
AcDbEntity
  8
USP
100
AcDbBlockReference
  2
PAU66_S
 10
9.749025885805517
 20
1.74912388343692
 30
0.0000000000000011
  0
ENDSEC
  0
SECTION
  2
OBJECTS
  0
DICTIONARY
  5
B8
102
{ACAD_XDICTIONARY
360
B9
102
}
100
AcDbDictionary
  3
ACAD_GROUP
350
B5
  3
ACAD_MLINESTYLE
350
B6
  0
DICTIONARY
  5
AA
100
AcDbDictionary
280
     1
  0
DICTIONARY
  5
AC
100
AcDbDictionary
280
     1
  0
DICTIONARY
  5
6
100
AcDbDictionary
280
     1
  0
DICTIONARY
  5
10
100
AcDbDictionary
280
     1
  0
DICTIONARY
  5
BD
100
AcDbDictionary
280
     1
  0
DICTIONARY
  5
9D
100
AcDbDictionary
280
     1
  3
ACAD_LAYOUTSELFREF
360
9E
  0
DICTIONARY
  5
A2
100
AcDbDictionary
280
     1
  3
ACAD_LAYOUTSELFREF
360
A3
  0
DICTIONARY
  5
B9
100
AcDbDictionary
280
     1
  3
ACAD_XREC_ROUNDTRIP
360
BA
  0
DICTIONARY
  5
B5
102
{ACAD_REACTORS
330
B8
102
}
100
AcDbDictionary
  0
DICTIONARY
  5
B6
102
{ACAD_XDICTIONARY
360
B7
102
}
102
{ACAD_REACTORS
330
B8
102
}
100
AcDbDictionary
  3
STANDARD
350
BB
  0
XRECORD
  5
9E
102
{ACAD_REACTORS
330
9D
102
}
100
AcDbXrecord
340
2
  0
XRECORD
  5
A3
102
{ACAD_REACTORS
330
A2
102
}
100
AcDbXrecord
340
A3
  0
XRECORD
  5
BA
102
{ACAD_REACTORS
330
B9
102
}
100
AcDbXrecord
102
EXTNAMES
  1
ACDBVARIABLEDICTIONARY
  2
AcDbVariableDictionary
  0
DICTIONARY
  5
B7
100
AcDbDictionary
280
     1
  0
MLINESTYLE
  5
BB
102
{ACAD_REACTORS
330
B6
102
}
100
AcDbMlineStyle
  2
STANDARD
 70
     0
  3

 62
   256
 51
90.0
 52
90.0
 71
     2
 49
0.5
 62
   256
  6
BYLAYER
 49
-0.5
 62
   256
  6
BYLAYER
  0
ENDSEC
  0
EOF
