  0
SECTION
  2
HEADER
  9
$ACADVER
  1
AC1014
  9
$ACADMAINTVER
 70
     9
  9
$DWGCODEPAGE
  3
ANSI_1252
  9
$INSBASE
 10
0.0
 20
0.0
 30
0.0
  9
$EXTMIN
 10
0.0004323059416613
 20
0.0002746372486868
 30
-0.0000000000000012
  9
$EXTMAX
 10
14.16685128758275
 20
6.485520216180713
 30
0.0000000000000003
  9
$LIMMIN
 10
0.0
 20
0.0
  9
$LIMMAX
 10
12.0
 20
9.0
  9
$ORTHOMODE
 70
     0
  9
$REGENMODE
 70
     1
  9
$FILLMODE
 70
     1
  9
$QTEXTMODE
 70
     0
  9
$MIRRTEXT
 70
     1
  9
$DRAGMODE
 70
     2
  9
$LTSCALE
 40
1.0
  9
$OSMODE
 70
    37
  9
$ATTMODE
 70
     1
  9
$TEXTSIZE
 40
0.375
  9
$TRACEWID
 40
0.05
  9
$TEXTSTYLE
  7
STANDARD
  9
$CLAYER
  8
0
  9
$CELTYPE
  6
BYLAYER
  9
$CECOLOR
 62
   256
  9
$CELTSCALE
 40
1.0
  9
$DELOBJ
 70
     1
  9
$DISPSILH
 70
     0
  9
$DIMSCALE
 40
1.0
  9
$DIMASZ
 40
0.18
  9
$DIMEXO
 40
0.0625
  9
$DIMDLI
 40
0.38
  9
$DIMRND
 40
0.0
  9
$DIMDLE
 40
0.0
  9
$DIMEXE
 40
0.18
  9
$DIMTP
 40
0.0
  9
$DIMTM
 40
0.0
  9
$DIMTXT
 40
0.18
  9
$DIMCEN
 40
0.09
  9
$DIMTSZ
 40
0.0
  9
$DIMTOL
 70
     0
  9
$DIMLIM
 70
     0
  9
$DIMTIH
 70
     1
  9
$DIMTOH
 70
     1
  9
$DIMSE1
 70
     0
  9
$DIMSE2
 70
     0
  9
$DIMTAD
 70
     0
  9
$DIMZIN
 70
     0
  9
$DIMBLK
  1

  9
$DIMASO
 70
     1
  9
$DIMSHO
 70
     1
  9
$DIMPOST
  1

  9
$DIMAPOST
  1

  9
$DIMALT
 70
     0
  9
$DIMALTD
 70
     2
  9
$DIMALTF
 40
25.4
  9
$DIMLFAC
 40
1.0
  9
$DIMTOFL
 70
     0
  9
$DIMTVP
 40
0.0
  9
$DIMTIX
 70
     0
  9
$DIMSOXD
 70
     0
  9
$DIMSAH
 70
     0
  9
$DIMBLK1
  1

  9
$DIMBLK2
  1

  9
$DIMSTYLE
  2
STANDARD
  9
$DIMCLRD
 70
     0
  9
$DIMCLRE
 70
     0
  9
$DIMCLRT
 70
     0
  9
$DIMTFAC
 40
1.0
  9
$DIMGAP
 40
0.09
  9
$DIMJUST
 70
     0
  9
$DIMSD1
 70
     0
  9
$DIMSD2
 70
     0
  9
$DIMTOLJ
 70
     1
  9
$DIMTZIN
 70
     0
  9
$DIMALTZ
 70
     0
  9
$DIMALTTZ
 70
     0
  9
$DIMFIT
 70
     3
  9
$DIMUPT
 70
     0
  9
$DIMUNIT
 70
     2
  9
$DIMDEC
 70
     4
  9
$DIMTDEC
 70
     4
  9
$DIMALTU
 70
     2
  9
$DIMALTTD
 70
     2
  9
$DIMTXSTY
  7
STANDARD
  9
$DIMAUNIT
 70
     0
  9
$LUNITS
 70
     2
  9
$LUPREC
 70
     4
  9
$SKETCHINC
 40
0.1
  9
$FILLETRAD
 40
0.5
  9
$AUNITS
 70
     0
  9
$AUPREC
 70
     0
  9
$MENU
  1
.
  9
$ELEVATION
 40
0.0
  9
$PELEVATION
 40
0.0
  9
$THICKNESS
 40
0.0
  9
$LIMCHECK
 70
     0
  9
$BLIPMODE
 70
     0
  9
$CHAMFERA
 40
0.5
  9
$CHAMFERB
 40
0.5
  9
$CHAMFERC
 40
1.0
  9
$CHAMFERD
 40
0.0
  9
$SKPOLY
 70
     0
  9
$TDCREATE
 40
2451674.688137500
  9
$TDUPDATE
 40
2452759.746370984
  9
$TDINDWG
 40
0.0781924769
  9
$TDUSRTIMER
 40
0.0781918981
  9
$USRTIMER
 70
     1
  9
$ANGBASE
 50
0.0
  9
$ANGDIR
 70
     0
  9
$PDMODE
 70
     0
  9
$PDSIZE
 40
0.0
  9
$PLINEWID
 40
0.0
  9
$COORDS
 70
     1
  9
$SPLFRAME
 70
     0
  9
$SPLINETYPE
 70
     6
  9
$SPLINESEGS
 70
     8
  9
$ATTDIA
 70
     0
  9
$ATTREQ
 70
     1
  9
$HANDLING
 70
     1
  9
$HANDSEED
  5
D5
  9
$SURFTAB1
 70
     6
  9
$SURFTAB2
 70
     6
  9
$SURFTYPE
 70
     6
  9
$SURFU
 70
     6
  9
$SURFV
 70
     6
  9
$UCSNAME
  2

  9
$UCSORG
 10
0.0
 20
0.0
 30
0.0
  9
$UCSXDIR
 10
1.0
 20
0.0
 30
0.0
  9
$UCSYDIR
 10
0.0
 20
1.0
 30
0.0
  9
$PUCSNAME
  2

  9
$PUCSORG
 10
0.0
 20
0.0
 30
0.0
  9
$PUCSXDIR
 10
1.0
 20
0.0
 30
0.0
  9
$PUCSYDIR
 10
0.0
 20
1.0
 30
0.0
  9
$USERI1
 70
     0
  9
$USERI2
 70
     0
  9
$USERI3
 70
     0
  9
$USERI4
 70
     0
  9
$USERI5
 70
     0
  9
$USERR1
 40
0.0
  9
$USERR2
 40
0.0
  9
$USERR3
 40
0.0
  9
$USERR4
 40
0.0
  9
$USERR5
 40
0.0
  9
$WORLDVIEW
 70
     1
  9
$SHADEDGE
 70
     3
  9
$SHADEDIF
 70
    70
  9
$TILEMODE
 70
     1
  9
$MAXACTVP
 70
    48
  9
$PINSBASE
 10
0.0
 20
0.0
 30
0.0
  9
$PLIMCHECK
 70
     0
  9
$PEXTMIN
 10
1.000000000000000E+20
 20
1.000000000000000E+20
 30
1.000000000000000E+20
  9
$PEXTMAX
 10
-1.000000000000000E+20
 20
-1.000000000000000E+20
 30
-1.000000000000000E+20
  9
$PLIMMIN
 10
0.0
 20
0.0
  9
$PLIMMAX
 10
12.0
 20
9.0
  9
$UNITMODE
 70
     0
  9
$VISRETAIN
 70
     1
  9
$PLINEGEN
 70
     0
  9
$PSLTSCALE
 70
     1
  9
$TREEDEPTH
 70
  3020
  9
$PICKSTYLE
 70
     1
  9
$CMLSTYLE
  2
STANDARD
  9
$CMLJUST
 70
     0
  9
$CMLSCALE
 40
1.0
  9
$PROXYGRAPHICS
 70
     1
  9
$MEASUREMENT
 70
     0
  0
ENDSEC
  0
SECTION
  2
CLASSES
  0
CLASS
  1
ACDBDICTIONARYWDFLT
  2
AcDbDictionaryWithDefault
  3
AutoCAD 2000
 90
        0
280
     1
281
     0
  0
CLASS
  1
ACDBPLACEHOLDER
  2
AcDbPlaceHolder
  3
AutoCAD 2000
 90
        0
280
     1
281
     0
  0
CLASS
  1
LAYOUT
  2
AcDbLayout
  3
AutoCAD 2000
 90
        0
280
     1
281
     0
  0
CLASS
  1
LONG_TRANSACTION
  2
AcDbLongTransaction
  3
AutoCAD 2000
 90
        0
280
     1
281
     0
  0
CLASS
  1
LWPOLYLINE
  2
AcDbPolyline
  3
"AutoCAD"
 90
        0
280
     1
281
     1
  0
CLASS
  1
HATCH
  2
AcDbHatch
  3
"ACAD_SEDONA"
 90
        0
280
     1
281
     1
  0
CLASS
  1
XRECORD
  2
AcDbXrecord
  3
"<Built In>"
 90
        0
280
     0
281
     0
  0
CLASS
  1
LONG_TRANSACTION
  2
AcDbLongTransaction
  3
AutoCAD 2000
 90
        0
280
     1
281
     0
  0
CLASS
  1
LWPOLYLINE
  2
AcDbPolyline
  3
"AutoCAD"
 90
        0
280
     1
281
     1
  0
CLASS
  1
HATCH
  2
AcDbHatch
  3
"ACAD_SEDONA"
 90
        0
280
     1
281
     1
  0
CLASS
  1
XRECORD
  2
AcDbXrecord
  3
"<Built In>"
 90
        0
280
     0
281
     0
  0
CLASS
  1
LONG_TRANSACTION
  2
AcDbLongTransaction
  3
AutoCAD 2000
 90
        0
280
     1
281
     0
  0
CLASS
  1
LWPOLYLINE
  2
AcDbPolyline
  3
"AutoCAD"
 90
        0
280
     1
281
     1
  0
CLASS
  1
HATCH
  2
AcDbHatch
  3
"ACAD_SEDONA"
 90
        0
280
     1
281
     1
  0
CLASS
  1
XRECORD
  2
AcDbXrecord
  3
"<Built In>"
 90
        0
280
     0
281
     0
  0
CLASS
  1
LONG_TRANSACTION
  2
AcDbLongTransaction
  3
AutoCAD 2000
 90
        0
280
     1
281
     0
  0
CLASS
  1
LWPOLYLINE
  2
AcDbPolyline
  3
"AutoCAD"
 90
        0
280
     1
281
     1
  0
CLASS
  1
HATCH
  2
AcDbHatch
  3
"ACAD_SEDONA"
 90
        0
280
     1
281
     1
  0
CLASS
  1
XRECORD
  2
AcDbXrecord
  3
"<Built In>"
 90
        0
280
     0
281
     0
  0
CLASS
  1
DICTIONARYVAR
  2
AcDbDictionaryVar
  3
"AutoCAD"
 90
        0
280
     0
281
     0
  0
CLASS
  1
LONG_TRANSACTION
  2
AcDbLongTransaction
  3
AutoCAD 2000
 90
        0
280
     0
281
     0
  0
CLASS
  1
LWPOLYLINE
  2
AcDbPolyline
  3
"AutoCAD"
 90
        0
280
     0
281
     1
  0
CLASS
  1
HATCH
  2
AcDbHatch
  3
"ACAD_SEDONA"
 90
        0
280
     0
281
     1
  0
CLASS
  1
XRECORD
  2
AcDbXrecord
  3
"<Built In>"
 90
        0
280
     0
281
     0
  0
CLASS
  1
LONG_TRANSACTION
  2
AcDbLongTransaction
  3
AutoCAD 2000
 90
        0
280
     0
281
     0
  0
CLASS
  1
LWPOLYLINE
  2
AcDbPolyline
  3
"AutoCAD"
 90
        0
280
     0
281
     1
  0
CLASS
  1
HATCH
  2
AcDbHatch
  3
"ACAD_SEDONA"
 90
        0
280
     0
281
     1
  0
CLASS
  1
XRECORD
  2
AcDbXrecord
  3
"<Built In>"
 90
        0
280
     0
281
     0
  0
ENDSEC
  0
SECTION
  2
TABLES
  0
TABLE
  2
VPORT
  5
B5
100
AcDbSymbolTable
 70
     1
  0
VPORT
  5
D1
100
AcDbSymbolTableRecord
100
AcDbViewportTableRecord
  2
*ACTIVE
 70
     0
 10
0.0
 20
0.0
 11
1.0
 21
1.0
 12
7.083966165237028
 22
3.359481515159559
 13
0.0
 23
0.0
 14
0.5
 24
0.5
 15
0.5
 25
0.5
 16
0.0
 26
0.0
 36
1.0
 17
0.0
 27
0.0
 37
0.0
 40
9.767306500368533
 41
1.457627118644067
 42
50.0
 43
0.0
 44
0.0
 50
0.0
 51
0.0
 71
     0
 72
   100
 73
     1
 74
     3
 75
     0
 76
     0
 77
     0
 78
     0
  0
ENDTAB
  0
TABLE
  2
LTYPE
  5
AE
100
AcDbSymbolTable
 70
     2
  0
LTYPE
  5
AF
102
{ACAD_XDICTIONARY
360
B0
102
}
100
AcDbSymbolTableRecord
100
AcDbLinetypeTableRecord
  2
BYBLOCK
 70
     0
  3

 72
    65
 73
     0
 40
0.0
  0
LTYPE
  5
B1
102
{ACAD_XDICTIONARY
360
B2
102
}
100
AcDbSymbolTableRecord
100
AcDbLinetypeTableRecord
  2
BYLAYER
 70
     0
  3

 72
    65
 73
     0
 40
0.0
  0
LTYPE
  5
5
102
{ACAD_XDICTIONARY
360
6
102
}
100
AcDbSymbolTableRecord
100
AcDbLinetypeTableRecord
  2
CONTINUOUS
 70
     0
  3
Solid line
 72
    65
 73
     0
 40
0.0
  0
LTYPE
  5
69
100
AcDbSymbolTableRecord
100
AcDbLinetypeTableRecord
  2
HIDDEN
 70
     0
  3
Hidden __ __ __ __ __ __ __ __ __ __ __ __ __ _
 72
    65
 73
     2
 40
0.375
 49
0.25
 74
     0
 49
-0.125
 74
     0
  0
ENDTAB
  0
TABLE
  2
LAYER
  5
AC
100
AcDbSymbolTable
 70
     5
  0
LAYER
  5
5B
100
AcDbSymbolTableRecord
100
AcDbLayerTableRecord
  2
0
 70
     0
 62
     7
  6
CONTINUOUS
  0
LAYER
  5
4
100
AcDbSymbolTableRecord
100
AcDbLayerTableRecord
  2
USP
 70
     0
 62
     7
  6
CONTINUOUS
  0
LAYER
  5
68
100
AcDbSymbolTableRecord
100
AcDbLayerTableRecord
  2
USP-HID
 70
     0
 62
     7
  6
HIDDEN
  0
LAYER
  5
9
100
AcDbSymbolTableRecord
100
AcDbLayerTableRecord
  2
USP-GEO
 70
     0
 62
     7
  6
CONTINUOUS
  0
LAYER
  5
57
100
AcDbSymbolTableRecord
100
AcDbLayerTableRecord
  2
USP-TXT
 70
     0
 62
     7
  6
CONTINUOUS
  0
ENDTAB
  0
TABLE
  2
STYLE
  5
AD
100
AcDbSymbolTable
 70
     1
  0
STYLE
  5
58
102
{ACAD_XDICTIONARY
360
59
102
}
100
AcDbSymbolTableRecord
100
AcDbTextStyleTableRecord
  2
STANDARD
 70
     0
 40
0.0
 41
1.0
 50
0.0
 71
     0
 42
0.375
  3
txt
  4

  0
ENDTAB
  0
TABLE
  2
VIEW
  5
B3
100
AcDbSymbolTable
 70
     0
  0
ENDTAB
  0
TABLE
  2
UCS
  5
B4
100
AcDbSymbolTable
 70
     0
  0
ENDTAB
  0
TABLE
  2
APPID
  5
B7
100
AcDbSymbolTable
 70
     1
  0
APPID
  5
B8
100
AcDbSymbolTableRecord
100
AcDbRegAppTableRecord
  2
ACAD
 70
     0
  0
ENDTAB
  0
TABLE
  2
DIMSTYLE
  5
B9
100
AcDbSymbolTable
 70
     1
  0
DIMSTYLE
105
C2
102
{ACAD_XDICTIONARY
360
C3
102
}
100
AcDbSymbolTableRecord
100
AcDbDimStyleTableRecord
  2
STANDARD
 70
     0
  3

  4

  5

  6

  7

 40
1.0
 41
0.18
 42
0.0625
 43
0.38
 44
0.18
 45
0.0
 46
0.0
 47
0.0
 48
0.0
140
0.18
141
0.09
142
0.0
143
25.4
144
1.0
145
0.0
146
1.0
147
0.09
 71
     0
 72
     0
 73
     1
 74
     1
 75
     0
 76
     0
 77
     0
 78
     0
170
     0
171
     2
172
     0
173
     0
174
     0
175
     0
176
     0
177
     0
178
     0
270
     2
271
     4
272
     4
273
     2
274
     2
340
58
275
     0
280
     0
281
     0
282
     0
283
     1
284
     0
285
     0
286
     0
287
     3
288
     0
  0
ENDTAB
  0
TABLE
  2
BLOCK_RECORD
  5
1
100
AcDbSymbolTable
 70
     2
  0
BLOCK_RECORD
  5
2
102
{ACAD_XDICTIONARY
360
A3
102
}
100
AcDbSymbolTableRecord
100
AcDbBlockTableRecord
  2
*MODEL_SPACE
  0
BLOCK_RECORD
  5
A7
102
{ACAD_XDICTIONARY
360
A8
102
}
100
AcDbSymbolTableRecord
100
AcDbBlockTableRecord
  2
*PAPER_SPACE
  0
BLOCK_RECORD
  5
7
100
AcDbSymbolTableRecord
100
AcDbBlockTableRecord
  2
PAU44_F
  0
BLOCK_RECORD
  5
5E
100
AcDbSymbolTableRecord
100
AcDbBlockTableRecord
  2
PAU44_S
  0
ENDTAB
  0
ENDSEC
  0
SECTION
  2
BLOCKS
  0
BLOCK
  5
A5
100
AcDbEntity
  8
0
100
AcDbBlockBegin
  2
*MODEL_SPACE
 70
     0
 10
0.0
 20
0.0
 30
0.0
  3
*MODEL_SPACE
  1

  0
ENDBLK
  5
A6
100
AcDbEntity
  8
0
100
AcDbBlockEnd
  0
BLOCK
  5
AA
100
AcDbEntity
 67
     1
  8
0
100
AcDbBlockBegin
  2
*PAPER_SPACE
 70
     0
 10
0.0
 20
0.0
 30
0.0
  3
*PAPER_SPACE
  1

  0
ENDBLK
  5
AB
100
AcDbEntity
 67
     1
  8
0
100
AcDbBlockEnd
  0
BLOCK
  5
5A
100
AcDbEntity
  8
0
100
AcDbBlockBegin
  2
PAU44_F
 70
     0
 10
0.0
 20
0.0
 30
0.0
  3
PAU44_F
  1

  0
LINE
  5
8
100
AcDbEntity
  8
USP-GEO
100
AcDbLine
 10
0.427130673412071
 20
0.1273815622585916
 30
0.0
 11
3.335369326587947
 21
0.1273815622585952
 31
0.0000000000000004
210
0.0
220
1.0
230
0.0
  0
LINE
  5
A
100
AcDbEntity
  8
USP-GEO
100
AcDbLine
 10
2.856840628542741
 20
1.127381562258598
 30
0.0000000000000003
 11
0.9056593714572809
 21
1.127381562258594
 31
0.0000000000000001
210
0.0
220
1.0
230
0.0
  0
LINE
  5
B
100
AcDbEntity
  8
USP-GEO
100
AcDbLine
 10
0.2875000000000138
 20
-0.0000000000000022
 30
0.0
 11
3.475000000000013
 21
0.0000000000000036
 31
0.0000000000000004
210
0.0
220
1.0
230
0.0
  0
LINE
  5
C
100
AcDbEntity
  8
USP-GEO
100
AcDbLine
 10
3.475000000000012
 20
0.1000000000000036
 30
0.0000000000000004
 11
0.2875000000000138
 21
0.0999999999999974
 31
0.0
210
0.0
220
1.0
230
0.0
  0
LINE
  5
D
100
AcDbEntity
  8
USP-GEO
100
AcDbLine
 10
0.8640927124746315
 20
0.2500000000000018
 30
0.0000000000000001
 11
2.898407287525396
 21
0.2500000000000053
 31
0.0000000000000003
210
0.0
220
1.0
230
0.0
  0
LINE
  5
E
100
AcDbEntity
  8
USP-GEO
100
AcDbLine
 10
2.787500000000012
 20
0.2500000000000053
 30
0.0000000000000003
 11
0.9750000000000147
 21
0.2500000000000018
 31
0.0000000000000001
210
0.0
220
1.0
230
0.0
  0
LINE
  5
F
100
AcDbEntity
  8
USP-GEO
100
AcDbLine
 10
2.787500000000012
 20
0.3247000000000053
 30
0.0000000000000003
 11
0.9750000000000147
 21
0.3247000000000018
 31
0.0000000000000001
210
0.0
220
1.0
230
0.0
  0
LINE
  5
10
100
AcDbEntity
  8
USP-GEO
100
AcDbLine
 10
0.0
 20
5.162499999999996
 30
0.0
 11
0.0000000000000107
 21
0.2582106781186564
 31
0.0
210
0.0
220
1.0
230
0.0
  0
LINE
  5
11
100
AcDbEntity
  8
USP-GEO
100
AcDbLine
 10
0.1000000000000138
 20
0.2582106781186528
 30
0.0
 11
0.100000000000005
 21
5.162500000000001
 31
0.0
210
0.0
220
1.0
230
0.0
  0
LINE
  5
12
100
AcDbEntity
  8
USP-GEO
100
AcDbLine
 10
0.8150020496349323
 20
1.067581562258595
 30
0.0000000000000001
 11
0.9045853069992499
 21
1.067581562258595
 31
0.0000000000000001
210
0.0
220
1.0
230
0.0
  0
LINE
  5
13
100
AcDbEntity
  8
USP-GEO
100
AcDbLine
 10
0.8150020496349306
 20
1.127381562258598
 30
0.0000000000000001
 11
0.9056593714572791
 21
1.127381562258598
 31
0.0000000000000001
210
0.0
220
1.0
230
0.0
  0
LINE
  5
14
100
AcDbEntity
  8
USP-GEO
100
AcDbLine
 10
0.4271306734120728
 20
1.002381562258591
 30
0.0
 11
0.9045853069992464
 21
1.002381562258591
 31
0.0000000000000001
210
0.0
220
1.0
230
0.0
  0
ARC
  5
15
100
AcDbEntity
  8
USP-GEO
100
AcDbCircle
 10
0.8640927124746298
 20
0.150000000000003
 30
0.0000000000000001
 40
0.0999999999999998
100
AcDbArc
 50
90.0
 51
134.9999999999998
  0
LINE
  5
16
100
AcDbEntity
  8
USP-GEO
100
AcDbLine
 10
0.2621306734120754
 20
1.002381562258588
 30
0.0
 11
0.2621306734120772
 21
0.1273815622585952
 31
0.0
210
0.0
220
1.0
230
0.0
  0
LINE
  5
17
100
AcDbEntity
  8
USP-GEO
100
AcDbLine
 10
0.1910500000000006
 20
1.127323215023391
 30
0.0
 11
0.1910500000000006
 21
0.1273815622585952
 31
0.0
210
0.0
220
1.0
230
0.0
  0
LINE
  5
18
100
AcDbEntity
  8
USP-GEO
100
AcDbLine
 10
0.131250000000005
 20
0.1273815622585916
 30
0.0
 11
0.131250000000005
 21
1.064881562258598
 31
0.0
210
0.0
220
1.0
230
0.0
  0
LINE
  5
19
100
AcDbEntity
  8
USP-GEO
100
AcDbLine
 10
0.1910500000000006
 20
0.1273815622585952
 30
0.0
 11
0.1312499999999979
 21
0.1273815622585952
 31
0.0
210
0.0
220
1.0
230
0.0
  0
ARC
  5
1A
100
AcDbEntity
  8
USP-GEO
100
AcDbCircle
 10
0.2000000000000082
 20
0.1999999999999948
 30
0.0
 40
0.1999999999999993
100
AcDbArc
 50
179.9999999999991
 51
270.0
  0
ARC
  5
1B
100
AcDbEntity
  8
USP-GEO
100
AcDbCircle
 10
0.2000000000000224
 20
0.1999999999999988
 30
0.0
 40
0.1000000000000005
100
AcDbArc
 50
180.0000000000002
 51
270.0
  0
LINE
  5
1C
100
AcDbEntity
  8
USP-GEO
100
AcDbLine
 10
0.0000000000000249
 20
0.2582106781186542
 30
0.0
 11
0.1000000000000174
 21
0.2582106781186546
 31
0.0
210
0.0
220
1.0
230
0.0
  0
LINE
  5
1D
100
AcDbEntity
  8
USP-GEO
100
AcDbLine
 10
0.0000000000000178
 20
0.1999999999999975
 30
0.0
 11
0.000000000000016
 21
0.2582106781186511
 31
0.0
210
0.0
220
1.0
230
0.0
  0
LINE
  5
1E
100
AcDbEntity
  8
USP-GEO
100
AcDbLine
 10
0.1000000000000156
 20
0.2582106781186519
 30
0.0
 11
0.1000000000000156
 21
0.1999999999999984
 31
0.0
210
0.0
220
1.0
230
0.0
  0
LINE
  5
1F
100
AcDbEntity
  8
USP-GEO
100
AcDbLine
 10
0.2621306734120719
 20
0.1273815622585952
 30
0.0
 11
0.427130673412071
 21
0.1273815622585952
 31
0.0
210
0.0
220
1.0
230
0.0
  0
LINE
  5
20
100
AcDbEntity
  8
USP-GEO
100
AcDbLine
 10
0.2875000000000174
 20
0.0999999999999966
 30
0.0
 11
0.2875000000000174
 21
-0.0000000000000062
 31
0.0
210
0.0
220
1.0
230
0.0
  0
LINE
  5
21
100
AcDbEntity
  8
USP-GEO
100
AcDbLine
 10
0.2875000000000298
 20
0.0
 30
0.0
 11
0.2000000000000082
 21
0.0
 31
0.0
210
0.0
220
1.0
230
0.0
  0
LINE
  5
22
100
AcDbEntity
  8
USP-GEO
100
AcDbLine
 10
0.2000000000000224
 20
0.1000000000000014
 30
0.0
 11
0.2875000000000298
 21
0.1000000000000014
 31
0.0
210
0.0
220
1.0
230
0.0
  0
ARC
  5
23
100
AcDbEntity
  8
USP-GEO
100
AcDbCircle
 10
0.6312500000000121
 20
0.199999999999998
 30
0.0
 40
0.0999999999999997
100
AcDbArc
 50
269.9999999999981
 51
314.9999999999999
  0
LINE
  5
24
100
AcDbEntity
  8
USP-GEO
100
AcDbLine
 10
0.793382034355977
 20
0.2207106781186572
 30
0.0000000000000001
 11
0.7019606781186667
 21
0.1292893218813429
 31
0.0000000000000001
210
0.0
220
1.0
230
0.0
  0
ARC
  5
25
100
AcDbEntity
  8
USP-GEO
100
AcDbCircle
 10
0.1937500000000032
 20
1.064881562258591
 30
0.0
 40
0.0625
100
AcDbArc
 50
92.47594820149982
 51
179.9999999999934
  0
ARC
  5
26
100
AcDbEntity
  8
USP-GEO
100
AcDbCircle
 10
0.2222999999999953
 20
1.036331562258592
 30
0.0
 40
0.03125
100
AcDbArc
 50
90.0
 51
179.9999999999967
  0
LINE
  5
27
100
AcDbEntity
  8
USP-GEO
100
AcDbLine
 10
0.2621306734120647
 20
1.002381562258588
 30
0.0
 11
0.4271306734120728
 21
1.002381562258588
 31
0.0
210
0.0
220
1.0
230
0.0
  0
LINE
  5
28
100
AcDbEntity
  8
USP-GEO
100
AcDbLine
 10
0.2222999999999953
 20
1.067581562258592
 30
0.0
 11
0.8150020496349323
 21
1.067581562258592
 31
0.0000000000000001
210
0.0
220
1.0
230
0.0
  0
LINE
  5
29
100
AcDbEntity
  8
USP-GEO
100
AcDbLine
 10
0.1937500000000032
 20
1.127381562258594
 30
0.0
 11
0.8150020496349306
 21
1.127381562258594
 31
0.0000000000000001
210
0.0
220
1.0
230
0.0
  0
ARC
  5
2A
100
AcDbEntity
  8
USP-GEO
100
AcDbCircle
 10
0.1937500000000032
 20
1.064881562258591
 30
0.0
 40
0.0625
100
AcDbArc
 50
90.0
 51
92.47594820150631
  0
LINE
  5
2B
100
AcDbEntity
  8
USP-GEO
100
AcDbLine
 10
0.9750000000000147
 20
0.2499999999999947
 30
0.0000000000000001
 11
0.9750000000000147
 21
0.3246999999999982
 31
0.0000000000000001
210
0.0
220
1.0
230
0.0
  0
LINE
  5
2C
100
AcDbEntity
  8
USP-GEO
100
AcDbLine
 10
0.9045853069992464
 20
1.064881562258594
 30
0.0000000000000001
 11
0.9045853069992464
 21
1.002381562258595
 31
0.0000000000000001
210
0.0
220
1.0
230
0.0
  0
LINE
  5
2D
100
AcDbEntity
  8
USP-GEO
100
AcDbLine
 10
0.9045853069992499
 20
1.127323215023391
 30
0.0000000000000001
 11
0.9045853069992499
 21
1.064881562258594
 31
0.0000000000000001
210
0.0
220
1.0
230
0.0
  0
SPLINE
  5
2E
100
AcDbEntity
  8
USP-GEO
100
AcDbSpline
210
-0.0542437945771661
220
0.9985277215730519
230
0.0
 70
    24
 71
     3
 72
     8
 73
     4
 74
     0
 42
0.0000001
 43
0.0000001
 40
0.31964631626086
 40
0.31964631626086
 40
0.31964631626086
 40
0.31964631626086
 40
0.3225368963115234
 40
0.3225368963115234
 40
0.3225368963115234
 40
0.3225368963115234
 10
0.9056593714572809
 20
1.127381562258594
 30
0.0000000000000001
 10
0.9053166738224032
 20
1.127381562258587
 30
0.0000000000000001
 10
0.9049586045843263
 20
1.127362086269641
 30
0.0000000000000001
 10
0.9045853069992482
 20
1.127323215023395
 30
0.0000000000000001
  0
LINE
  5
2F
100
AcDbEntity
  8
USP-GEO
100
AcDbLine
 10
-0.0000000000000071
 20
5.162499999999993
 30
0.0
 11
-0.0000000000000071
 21
5.537499999999998
 31
0.0
210
0.0
220
1.0
230
0.0
  0
LINE
  5
30
100
AcDbEntity
  8
USP-GEO
100
AcDbLine
 10
0.1000000000000032
 20
5.537500000000002
 30
0.0
 11
0.100000000000005
 21
5.162500000000001
 31
0.0
210
0.0
220
1.0
230
0.0
  0
LINE
  5
31
100
AcDbEntity
  8
USP-GEO
100
AcDbLine
 10
0.1000000000000085
 20
5.162500000000001
 30
0.0
 11
-0.0000000000000036
 21
5.162500000000001
 31
0.0
210
0.0
220
1.0
230
0.0
  0
LINE
  5
32
100
AcDbEntity
  8
USP-GEO
100
AcDbLine
 10
-0.0000000000000036
 20
5.537499999999997
 30
0.0
 11
0.100000000000005
 21
5.537499999999997
 31
0.0
210
0.0
220
1.0
230
0.0
  0
LINE
  5
33
100
AcDbEntity
  8
USP-GEO
100
AcDbLine
 10
3.662500000000004
 20
5.162500000000008
 30
0.0000000000000004
 11
3.662500000000017
 21
0.2582106781186599
 31
0.0000000000000004
210
0.0
220
1.0
230
0.0
  0
LINE
  5
34
100
AcDbEntity
  8
USP-GEO
100
AcDbLine
 10
3.762500000000027
 20
0.2582106781186613
 30
0.0000000000000004
 11
3.762500000000017
 21
5.162500000000008
 31
0.0000000000000004
210
0.0
220
1.0
230
0.0
  0
LINE
  5
35
100
AcDbEntity
  8
USP-GEO
100
AcDbLine
 10
3.662500000000015
 20
0.2582106781186608
 30
0.0000000000000004
 11
3.762500000000025
 21
0.2582106781186613
 31
0.0000000000000004
210
0.0
220
1.0
230
0.0
  0
ARC
  5
36
100
AcDbEntity
  8
USP-GEO
100
AcDbCircle
 10
3.562500000000023
 20
0.1999999999999984
 30
0.0000000000000004
 40
0.1999999999999993
100
AcDbArc
 50
270.0
 51
0.0000000000001272
  0
LINE
  5
37
100
AcDbEntity
  8
USP-GEO
100
AcDbLine
 10
3.500369326587941
 20
1.002381562258591
 30
0.0000000000000004
 11
3.500369326587945
 21
0.1273815622585988
 31
0.0000000000000004
210
0.0
220
1.0
230
0.0
  0
LINE
  5
38
100
AcDbEntity
  8
USP-GEO
100
AcDbLine
 10
3.631249999999999
 20
1.064881562258602
 30
0.0000000000000004
 11
3.631250000000003
 21
0.1273815622586059
 31
0.0000000000000004
210
0.0
220
1.0
230
0.0
  0
LINE
  5
39
100
AcDbEntity
  8
USP-GEO
100
AcDbLine
 10
3.571449999999996
 20
0.1273815622585988
 30
0.0000000000000004
 11
3.571449999999996
 21
1.127323215023398
 31
0.0000000000000004
210
0.0
220
1.0
230
0.0
  0
LINE
  5
3A
100
AcDbEntity
  8
USP-GEO
100
AcDbLine
 10
2.969117965644052
 20
0.220710678118663
 30
0.0000000000000003
 11
3.060539321881361
 21
0.1292893218813522
 31
0.0000000000000003
210
0.0
220
1.0
230
0.0
  0
LINE
  5
3B
100
AcDbEntity
  8
USP-GEO
100
AcDbLine
 10
2.787500000000012
 20
0.2500000000000053
 30
0.0000000000000003
 11
2.787500000000012
 21
0.3247000000000053
 31
0.0000000000000003
210
0.0
220
1.0
230
0.0
  0
ARC
  5
3C
100
AcDbEntity
  8
USP-GEO
100
AcDbCircle
 10
2.898407287525394
 20
0.1500000000000066
 30
0.0000000000000003
 40
0.0999999999999998
100
AcDbArc
 50
44.99999999999782
 51
90.0
  0
ARC
  5
3D
100
AcDbEntity
  8
USP-GEO
100
AcDbCircle
 10
3.131250000000004
 20
0.2000000000000024
 30
0.0000000000000003
 40
0.0999999999999997
100
AcDbArc
 50
225.0000000000035
 51
270.000000000001
  0
LINE
  5
3E
100
AcDbEntity
  8
USP-GEO
100
AcDbLine
 10
3.562500000000023
 20
0.0000000000000036
 30
0.0000000000000004
 11
3.475000000000019
 21
0.0000000000000036
 31
0.0000000000000004
210
0.0
220
1.0
230
0.0
  0
LINE
  5
3F
100
AcDbEntity
  8
USP-GEO
100
AcDbLine
 10
3.475000000000015
 20
0.100000000000005
 30
0.0000000000000004
 11
3.562500000000019
 21
0.1000000000000054
 31
0.0000000000000004
210
0.0
220
1.0
230
0.0
  0
LINE
  5
40
100
AcDbEntity
  8
USP-GEO
100
AcDbLine
 10
3.335369326587947
 20
0.1273815622585988
 30
0.0000000000000004
 11
3.500369326587945
 21
0.1273815622585988
 31
0.0000000000000004
210
0.0
220
1.0
230
0.0
  0
LINE
  5
41
100
AcDbEntity
  8
USP-GEO
100
AcDbLine
 10
3.475000000000015
 20
0.0000000000000009
 30
0.0000000000000004
 11
3.475000000000015
 21
0.1000000000000036
 31
0.0000000000000004
210
0.0
220
1.0
230
0.0
  0
LINE
  5
42
100
AcDbEntity
  8
USP-GEO
100
AcDbLine
 10
3.631250000000006
 20
0.1273815622586023
 30
0.0000000000000004
 11
3.57145
 21
0.1273815622586023
 31
0.0000000000000004
210
0.0
220
1.0
230
0.0
  0
LINE
  5
43
100
AcDbEntity
  8
USP-GEO
100
AcDbLine
 10
3.662500000000015
 20
0.2000000000000051
 30
0.0000000000000004
 11
3.662500000000015
 21
0.2582106781186573
 31
0.0000000000000004
210
0.0
220
1.0
230
0.0
  0
ARC
  5
44
100
AcDbEntity
  8
USP-GEO
100
AcDbCircle
 10
3.562500000000019
 20
0.2000000000000042
 30
0.0000000000000004
 40
0.1000000000000005
100
AcDbArc
 50
269.9999999999994
 51
0.0000000000006361
  0
LINE
  5
45
100
AcDbEntity
  8
USP-GEO
100
AcDbLine
 10
3.335369326587946
 20
1.002381562258598
 30
0.0000000000000004
 11
2.857914693000775
 21
1.002381562258598
 31
0.0000000000000003
210
0.0
220
1.0
230
0.0
  0
LINE
  5
46
100
AcDbEntity
  8
USP-GEO
100
AcDbLine
 10
2.947497950365087
 20
1.067581562258599
 30
0.0000000000000003
 11
3.5402
 21
1.067581562258599
 31
0.0000000000000004
210
0.0
220
1.0
230
0.0
  0
LINE
  5
47
100
AcDbEntity
  8
USP-GEO
100
AcDbLine
 10
2.947497950365083
 20
1.127381562258598
 30
0.0000000000000003
 11
3.568749999999999
 21
1.127381562258598
 31
0.0000000000000004
210
0.0
220
1.0
230
0.0
  0
LINE
  5
48
100
AcDbEntity
  8
USP-GEO
100
AcDbLine
 10
2.857914693000772
 20
1.002381562258598
 30
0.0000000000000003
 11
2.857914693000772
 21
1.064881562258602
 31
0.0000000000000003
210
0.0
220
1.0
230
0.0
  0
SPLINE
  5
49
100
AcDbEntity
  8
USP-GEO
100
AcDbSpline
210
0.054243794573873
220
0.9985277215732308
230
0.0
 70
    24
 71
     3
 72
     8
 73
     4
 74
     0
 42
0.0000001
 43
0.0000001
 40
0.1258761791398224
 40
0.1258761791398224
 40
0.1258761791398224
 40
0.1258761791398224
 40
0.1287667591904846
 40
0.1287667591904846
 40
0.1287667591904846
 40
0.1287667591904846
 10
2.857914693000774
 20
1.127323215023402
 30
0.0000000000000003
 10
2.857541395415694
 20
1.127362086269641
 30
0.0000000000000003
 10
2.857183326177611
 20
1.127381562258598
 30
0.0000000000000003
 10
2.856840628542741
 20
1.127381562258598
 30
0.0000000000000003
  0
LINE
  5
4A
100
AcDbEntity
  8
USP-GEO
100
AcDbLine
 10
2.857914693000775
 20
1.064881562258602
 30
0.0000000000000003
 11
2.857914693000775
 21
1.127323215023402
 31
0.0000000000000003
210
0.0
220
1.0
230
0.0
  0
LINE
  5
4B
100
AcDbEntity
  8
USP-GEO
100
AcDbLine
 10
2.857914693000775
 20
1.067581562258595
 30
0.0000000000000003
 11
2.947497950365087
 21
1.067581562258595
 31
0.0000000000000003
210
0.0
220
1.0
230
0.0
  0
LINE
  5
4C
100
AcDbEntity
  8
USP-GEO
100
AcDbLine
 10
2.856840628542741
 20
1.127381562258598
 30
0.0000000000000003
 11
2.947497950365083
 21
1.127381562258598
 31
0.0000000000000003
210
0.0
220
1.0
230
0.0
  0
ARC
  5
4D
100
AcDbEntity
  8
USP-GEO
100
AcDbCircle
 10
3.540199999999998
 20
1.036331562258599
 30
0.0000000000000004
 40
0.03125
100
AcDbArc
 50
359.9999999999967
 51
89.99999999999674
  0
LINE
  5
4E
100
AcDbEntity
  8
USP-GEO
100
AcDbLine
 10
3.335369326587946
 20
1.002381562258591
 30
0.0000000000000004
 11
3.500369326587941
 21
1.002381562258591
 31
0.0000000000000004
210
0.0
220
1.0
230
0.0
  0
ARC
  5
4F
100
AcDbEntity
  8
USP-GEO
100
AcDbCircle
 10
3.568750000000001
 20
1.064881562258602
 30
0.0000000000000004
 40
0.0625
100
AcDbArc
 50
0.0
 51
87.52405179850262
  0
ARC
  5
50
100
AcDbEntity
  8
USP-GEO
100
AcDbCircle
 10
3.568749999999997
 20
1.064881562258602
 30
0.0000000000000004
 40
0.0625
100
AcDbArc
 50
87.52405179850262
 51
90.0
  0
LINE
  5
51
100
AcDbEntity
  8
USP-GEO
100
AcDbLine
 10
3.762500000000022
 20
0.2582106781186582
 30
0.0000000000000004
 11
3.762500000000022
 21
0.1999999999999988
 31
0.0000000000000004
210
0.0
220
1.0
230
0.0
  0
LINE
  5
52
100
AcDbEntity
  8
USP-GEO
100
AcDbLine
 10
3.662500000000004
 20
5.537500000000005
 30
0.0000000000000004
 11
3.762500000000008
 21
5.537500000000005
 31
0.0000000000000004
210
0.0
220
1.0
230
0.0
  0
LINE
  5
53
100
AcDbEntity
  8
USP-GEO
100
AcDbLine
 10
3.762500000000009
 20
5.162500000000004
 30
0.0000000000000004
 11
3.662500000000006
 21
5.162500000000004
 31
0.0000000000000004
210
0.0
220
1.0
230
0.0
  0
LINE
  5
54
100
AcDbEntity
  8
USP-GEO
100
AcDbLine
 10
3.662500000000004
 20
5.162500000000011
 30
0.0000000000000004
 11
3.662500000000004
 21
5.53750000000001
 31
0.0000000000000004
210
0.0
220
1.0
230
0.0
  0
LINE
  5
55
100
AcDbEntity
  8
USP-GEO
100
AcDbLine
 10
3.762500000000006
 20
5.537500000000013
 30
0.0000000000000004
 11
3.762500000000006
 21
5.162500000000009
 31
0.0000000000000004
210
0.0
220
1.0
230
0.0
  0
TEXT
  5
56
100
AcDbEntity
  8
USP-TXT
100
AcDbText
 10
-1.145040995132455
 20
-0.9150386616994907
 30
0.0000000000000011
 40
0.375
  1
PAU44 - FRONT VIEW
100
AcDbText
  0
ENDBLK
  5
5C
100
AcDbEntity
  8
0
100
AcDbBlockEnd
  0
BLOCK
  5
A1
100
AcDbEntity
  8
0
100
AcDbBlockBegin
  2
PAU44_S
 70
     0
 10
0.0
 20
0.0
 30
0.0
  3
PAU44_S
  1

  0
TEXT
  5
5F
100
AcDbEntity
  8
USP-TXT
100
AcDbText
 10
-1.122022073278261
 20
-0.9477455789320206
 30
0.000000000000001
 40
0.375
  1
PAU44 - SIDE VIEW
100
AcDbText
  0
ARC
  5
60
100
AcDbEntity
  8
USP-GEO
100
AcDbCircle
 10
0.0625000000000036
 20
1.064881562258592
 30
0.0000000000000007
 40
0.0625
100
AcDbArc
 50
92.47594820149656
 51
179.9999999999967
  0
LINE
  5
61
100
AcDbEntity
  8
USP-GEO
100
AcDbLine
 10
0.1875000000000035
 20
1.002381562258587
 30
0.0000000000000007
 11
-0.0000000000000089
 21
1.002381562258587
 31
0.0000000000000007
210
0.0
220
1.0
230
0.0
  0
LINE
  5
62
100
AcDbEntity
  8
USP-GEO
100
AcDbLine
 10
0.1874999999999964
 20
0.1273815622585981
 30
0.0000000000000007
 11
0.0000000000000036
 21
0.1273815622585981
 31
0.0000000000000007
210
0.0
220
1.0
230
0.0
  0
LINE
  5
63
100
AcDbEntity
  8
USP-GEO
100
AcDbLine
 10
0.0000000000000036
 20
1.00238156225859
 30
0.0000000000000007
 11
0.0
 21
0.1273815622585981
 31
0.0000000000000007
210
0.0
220
1.0
230
0.0
  0
LINE
  5
64
100
AcDbEntity
  8
USP-GEO
100
AcDbLine
 10
0.0000000000000071
 20
1.002381562258594
 30
0.0000000000000007
 11
0.0000000000000071
 21
1.064881562258596
 31
0.0000000000000007
210
0.0
220
1.0
230
0.0
  0
LINE
  5
65
100
AcDbEntity
  8
USP-GEO
100
AcDbLine
 10
2.889820280756953
 20
5.53749999999999
 30
0.0000000000000005
 11
0.6398202807569522
 21
5.537499999999997
 31
0.0000000000000001
210
0.0
220
1.0
230
0.0
  0
LINE
  5
66
100
AcDbEntity
  8
USP-GEO
100
AcDbLine
 10
3.171070280756925
 20
-0.0000000000000093
 30
0.0000000000000005
 11
0.3585702807569291
 21
0.0000000000000013
 31
0.0
210
0.0
220
1.0
230
0.0
  0
LINE
  5
67
100
AcDbEntity
  8
USP-HID
100
AcDbLine
 10
0.3585702807569344
 20
0.100000000000001
 30
0.0
 11
3.171070280756932
 21
0.0999999999999939
 31
0.0000000000000005
  0
LINE
  5
6A
100
AcDbEntity
  8
USP-GEO
100
AcDbLine
 10
0.2648202807569504
 20
5.162500000000003
 30
0.0
 11
0.2648202807569326
 21
0.2582106781186599
 31
0.0
210
0.0
220
1.0
230
0.0
  0
LINE
  5
6B
100
AcDbEntity
  8
USP-GEO
100
AcDbLine
 10
0.2648202807569273
 20
0.2582106781186568
 30
0.0
 11
0.3585702807569273
 21
0.2582106781186568
 31
0.0
210
0.0
220
1.0
230
0.0
  0
LINE
  5
6C
100
AcDbEntity
  8
USP-GEO
100
AcDbLine
 10
0.3585702807569309
 20
0.2582106781186613
 30
0.0
 11
0.3585702807569309
 21
0.2000000000000006
 31
0.0
210
0.0
220
1.0
230
0.0
  0
LINE
  5
6D
100
AcDbEntity
  8
USP-GEO
100
AcDbLine
 10
0.3585702807569326
 20
0.0000000000000031
 30
0.0
 11
0.2648202807569291
 21
0.0000000000000031
 31
0.0
210
0.0
220
1.0
230
0.0
  0
LINE
  5
6E
100
AcDbEntity
  8
USP-GEO
100
AcDbLine
 10
0.2648202807569291
 20
0.1000000000000014
 30
0.0
 11
0.3585702807569344
 21
0.100000000000001
 31
0.0
210
0.0
220
1.0
230
0.0
  0
LINE
  5
6F
100
AcDbEntity
  8
USP-GEO
100
AcDbLine
 10
0.2648202807569326
 20
0.0
 30
0.0
 11
0.2648202807569326
 21
0.1000000000000023
 31
0.0
210
0.0
220
1.0
230
0.0
  0
LINE
  5
70
100
AcDbEntity
  8
USP-GEO
100
AcDbLine
 10
0.3585702807569291
 20
0.2000000000000006
 30
0.0
 11
0.3585702807569291
 21
0.0000000000000004
 31
0.0
210
0.0
220
1.0
230
0.0
  0
CIRCLE
  5
71
100
AcDbEntity
  8
USP-GEO
100
AcDbCircle
 10
1.064820280756945
 20
2.287500000000004
 30
0.0000000000000001
 40
0.0900000000000001
  0
CIRCLE
  5
72
100
AcDbEntity
  8
USP-GEO
100
AcDbCircle
 10
0.7648202807569469
 20
3.537500000000008
 30
0.0000000000000001
 40
0.0900000000000001
  0
CIRCLE
  5
73
100
AcDbEntity
  8
USP-GEO
100
AcDbCircle
 10
1.764820280756943
 20
2.787500000000004
 30
0.0000000000000003
 40
0.2812500000000001
  0
CIRCLE
  5
74
100
AcDbEntity
  8
USP-GEO
100
AcDbCircle
 10
1.064820280756958
 20
4.787500000000008
 30
0.0000000000000001
 40
0.0900000000000001
  0
LINE
  5
75
100
AcDbEntity
  8
USP-GEO
100
AcDbLine
 10
0.6398202807569504
 20
5.537499999999999
 30
0.0000000000000001
 11
0.2648202807569504
 21
5.162500000000003
 31
0.0
210
0.0
220
1.0
230
0.0
  0
CIRCLE
  5
76
100
AcDbEntity
  8
USP-GEO
100
AcDbCircle
 10
1.764820280756952
 20
4.787500000000004
 30
0.0000000000000003
 40
0.2812500000000001
  0
LINE
  5
77
100
AcDbEntity
  8
USP-GEO
100
AcDbLine
 10
3.264820280756953
 20
5.162499999999988
 30
0.0000000000000006
 11
3.264820280756932
 21
0.2582106781186493
 31
0.0000000000000006
210
0.0
220
1.0
230
0.0
  0
LINE
  5
78
100
AcDbEntity
  8
USP-HID
100
AcDbLine
 10
3.264820280756936
 20
1.127381562258582
 30
0.0000000000000013
 11
0.2648202807569362
 21
1.127381562258594
 31
0.0000000000000007
  0
LINE
  5
79
100
AcDbEntity
  8
USP-HID
100
AcDbLine
 10
0.3585702807569273
 20
0.1273815622585921
 30
0.0000000000000008
 11
3.171070280756929
 21
0.1273815622585808
 31
0.0000000000000013
  0
LINE
  5
7A
100
AcDbEntity
  8
USP-GEO
100
AcDbLine
 10
0.1875000000000035
 20
1.064881562258598
 30
0.0000000000000007
 11
0.1875
 21
0.1273815622586016
 31
0.0000000000000007
210
0.0
220
1.0
230
0.0
  0
LINE
  5
7B
100
AcDbEntity
  8
USP-GEO
100
AcDbLine
 10
0.3585702807569273
 20
0.1273815622585921
 30
0.0000000000000008
 11
0.1874999999999964
 21
0.1273815622585928
 31
0.0000000000000007
210
0.0
220
1.0
230
0.0
  0
SPLINE
  5
7C
100
AcDbEntity
  8
USP-GEO
100
AcDbSpline
210
0.0000000000000002
220
0.0
230
-1.0
 70
     8
 71
     3
 72
    14
 73
    10
 74
     0
 42
0.0000001
 43
0.0000001
 40
0.1422988301464533
 40
0.1422988301464533
 40
0.1422988301464533
 40
0.1422988301464533
 40
0.1542804451179165
 40
0.1542804451179165
 40
0.1662620600893796
 40
0.1662620600893796
 40
0.1781426506373027
 40
0.1781426506373027
 40
0.1900232411852259
 40
0.1900232411852259
 40
0.1900232411852259
 40
0.1900232411852259
 10
0.0910500000000063
 20
1.067581562258593
 30
0.0000000000000007
 10
0.0870636491364643
 20
1.067581562258591
 30
0.0000000000000007
 10
0.0828492150375659
 20
1.066773859651257
 30
0.0000000000000007
 10
0.07514668449274
 20
1.063554179160039
 30
0.0000000000000007
 10
0.0716554864485275
 20
1.061144279399165
 30
0.0000000000000007
 10
0.0661682238949872
 20
1.055630762541862
 30
0.0000000000000007
 10
0.063783235490444
 20
1.052153081577836
 30
0.0000000000000007
 10
0.0605982148203808
 20
1.044485426602114
 30
0.0000000000000007
 10
0.0598000000000099
 20
1.040291759107906
 30
0.0000000000000007
 10
0.0598000000000063
 20
1.036331562258591
 30
0.0000000000000007
  0
LINE
  5
7D
100
AcDbEntity
  8
USP-GEO
100
AcDbLine
 10
0.0598000000000063
 20
1.036331562258591
 30
0.0000000000000007
 11
0.0598000000000063
 21
1.127323215023396
 31
0.0000000000000007
210
0.0
220
1.0
230
0.0
  0
LINE
  5
7E
100
AcDbEntity
  8
USP-GEO
100
AcDbLine
 10
0.0598000000000063
 20
1.036331562258591
 30
0.0000000000000007
 11
0.0598000000000063
 21
1.00238156225859
 31
0.0000000000000007
210
0.0
220
1.0
230
0.0
  0
LINE
  5
7F
100
AcDbEntity
  8
USP-GEO
100
AcDbLine
 10
0.2648202807569362
 20
1.127381562258594
 30
0.0000000000000007
 11
0.1940000000000062
 21
1.127381562258594
 31
0.0000000000000007
210
0.0
220
1.0
230
0.0
  0
LINE
  5
80
100
AcDbEntity
  8
USP-GEO
100
AcDbLine
 10
0.0625000000000071
 20
1.127381562258594
 30
0.0000000000000007
 11
0.1940000000000062
 21
1.127381562258594
 31
0.0000000000000007
210
0.0
220
1.0
230
0.0
  0
SPLINE
  5
81
100
AcDbEntity
  8
USP-GEO
100
AcDbSpline
210
-0.0216050429670034
220
0.9997665838176398
230
0.0
 70
    24
 71
     3
 72
     8
 73
     4
 74
     0
 42
0.0000001
 43
0.0000001
 40
0.1258761791398205
 40
0.1258761791398205
 40
0.1258761791398205
 40
0.1258761791398205
 40
0.1287667591904833
 40
0.1287667591904833
 40
0.1287667591904833
 40
0.1287667591904833
 10
0.0598000000000063
 20
1.127323215023396
 30
0.0000000000000007
 10
0.0606989573558501
 20
1.127362086269639
 30
0.0000000000000007
 10
0.061599476818202
 20
1.12738156225859
 30
0.0000000000000007
 10
0.0625000000000071
 20
1.127381562258596
 30
0.0000000000000007
  0
LINE
  5
82
100
AcDbEntity
  8
USP-GEO
100
AcDbLine
 10
0.0910500000000063
 20
1.067581562258595
 30
0.0000000000000007
 11
0.1875
 21
1.067581562258595
 31
0.0000000000000007
210
0.0
220
1.0
230
0.0
  0
LINE
  5
83
100
AcDbEntity
  8
USP-GEO
100
AcDbLine
 10
0.1875
 20
1.127323215023396
 30
0.0000000000000007
 11
0.1875
 21
1.064881562258598
 31
0.0000000000000007
210
0.0
220
1.0
230
0.0
  0
LINE
  5
84
100
AcDbEntity
  8
USP-GEO
100
AcDbLine
 10
0.1940000000000062
 20
1.127323215023391
 30
0.0000000000000007
 11
0.1875000000000035
 21
1.127323215023391
 31
0.0000000000000007
210
0.0
220
1.0
230
0.0
  0
LINE
  5
85
100
AcDbEntity
  8
USP-GEO
100
AcDbLine
 10
0.1940000000000133
 20
1.127381562258594
 30
0.0000000000000007
 11
0.1940000000000133
 21
1.127323215023394
 31
0.0000000000000007
210
0.0
220
1.0
230
0.0
  0
LINE
  5
86
100
AcDbEntity
  8
USP-GEO
100
AcDbLine
 10
3.500000000000003
 20
1.00238156225858
 30
0.0000000000000013
 11
3.5
 21
0.1273815622585803
 31
0.0000000000000013
210
0.0
220
1.0
230
0.0
  0
LINE
  5
87
100
AcDbEntity
  8
USP-GEO
100
AcDbLine
 10
3.31250000000001
 20
0.1273815622585803
 30
0.0000000000000013
 11
3.31250000000001
 21
1.064881562258587
 31
0.0000000000000013
210
0.0
220
1.0
230
0.0
  0
LINE
  5
88
100
AcDbEntity
  8
USP-GEO
100
AcDbLine
 10
3.312500000000003
 20
0.1273815622585803
 30
0.0000000000000013
 11
3.171070280756929
 21
0.1273815622585808
 31
0.0000000000000013
210
0.0
220
1.0
230
0.0
  0
LINE
  5
89
100
AcDbEntity
  8
USP-GEO
100
AcDbLine
 10
3.171070280756932
 20
0.2582106781186488
 30
0.0000000000000005
 11
3.264820280756929
 21
0.2582106781186484
 31
0.0000000000000006
210
0.0
220
1.0
230
0.0
  0
LINE
  5
8A
100
AcDbEntity
  8
USP-GEO
100
AcDbLine
 10
3.264820280756932
 20
-0.0000000000000093
 30
0.0000000000000006
 11
3.171070280756932
 21
-0.0000000000000084
 31
0.0000000000000005
210
0.0
220
1.0
230
0.0
  0
LINE
  5
8B
100
AcDbEntity
  8
USP-GEO
100
AcDbLine
 10
3.171070280756932
 20
0.0999999999999939
 30
0.0000000000000005
 11
3.264820280756936
 21
0.099999999999993
 31
0.0000000000000006
210
0.0
220
1.0
230
0.0
  0
LINE
  5
8C
100
AcDbEntity
  8
USP-GEO
100
AcDbLine
 10
3.171070280756932
 20
0.1999999999999904
 30
0.0000000000000005
 11
3.171070280756932
 21
0.2582106781186439
 31
0.0000000000000005
210
0.0
220
1.0
230
0.0
  0
LINE
  5
8D
100
AcDbEntity
  8
USP-GEO
100
AcDbLine
 10
3.171070280756929
 20
-0.0000000000000115
 30
0.0000000000000005
 11
3.171070280756929
 21
0.1999999999999904
 31
0.0000000000000005
210
0.0
220
1.0
230
0.0
  0
LINE
  5
8E
100
AcDbEntity
  8
USP-GEO
100
AcDbLine
 10
3.312500000000007
 20
0.1273815622585857
 30
0.0000000000000013
 11
3.5
 21
0.1273815622585857
 31
0.0000000000000013
210
0.0
220
1.0
230
0.0
  0
LINE
  5
8F
100
AcDbEntity
  8
USP-GEO
100
AcDbLine
 10
3.264820280756932
 20
0.0999999999999895
 30
0.0000000000000006
 11
3.264820280756932
 21
-0.0000000000000133
 31
0.0000000000000006
210
0.0
220
1.0
230
0.0
  0
LINE
  5
90
100
AcDbEntity
  8
USP-GEO
100
AcDbLine
 10
3.440200000000007
 20
1.036331562258584
 30
0.0000000000000013
 11
3.440200000000007
 21
1.127323215023384
 31
0.0000000000000013
210
0.0
220
1.0
230
0.0
  0
SPLINE
  5
91
100
AcDbEntity
  8
USP-GEO
100
AcDbSpline
210
0.0000000000000002
220
0.0
230
-1.0
 70
     8
 71
     3
 72
    14
 73
    10
 74
     0
 42
0.0000001
 43
0.0000001
 40
0.0950116943416629
 40
0.0950116943416629
 40
0.0950116943416629
 40
0.0950116943416629
 40
0.1068922848895874
 40
0.1068922848895874
 40
0.1187728754375119
 40
0.1187728754375119
 40
0.1307544904089738
 40
0.1307544904089738
 40
0.1427361053804357
 40
0.1427361053804357
 40
0.1427361053804357
 40
0.1427361053804357
 10
3.440200000000007
 20
1.036331562258584
 30
0.0000000000000013
 10
3.440200000000015
 20
1.040291759107894
 30
0.0000000000000013
 10
3.439401785179633
 20
1.0444854266021
 30
0.0000000000000013
 10
3.43621676450958
 20
1.052153081577825
 30
0.0000000000000013
 10
3.433831776105026
 20
1.055630762541859
 30
0.0000000000000013
 10
3.42834451355149
 20
1.061144279399151
 30
0.0000000000000013
 10
3.424853315507277
 20
1.063554179160024
 30
0.0000000000000013
 10
3.417150784962437
 20
1.066773859651252
 30
0.0000000000000013
 10
3.412936350863546
 20
1.067581562258581
 30
0.0000000000000013
 10
3.408950000000011
 20
1.067581562258584
 30
0.0000000000000013
  0
LINE
  5
92
100
AcDbEntity
  8
USP-GEO
100
AcDbLine
 10
3.500000000000003
 20
1.064881562258583
 30
0.0000000000000013
 11
3.500000000000003
 21
1.002381562258583
 31
0.0000000000000013
210
0.0
220
1.0
230
0.0
  0
LINE
  5
93
100
AcDbEntity
  8
USP-GEO
100
AcDbLine
 10
3.31250000000001
 20
1.002381562258578
 30
0.0000000000000013
 11
3.500000000000021
 21
1.002381562258578
 31
0.0000000000000013
210
0.0
220
1.0
230
0.0
  0
LINE
  5
94
100
AcDbEntity
  8
USP-GEO
100
AcDbLine
 10
3.440200000000007
 20
1.00238156225858
 30
0.0000000000000013
 11
3.440200000000007
 21
1.036331562258584
 31
0.0000000000000013
210
0.0
220
1.0
230
0.0
  0
LINE
  5
95
100
AcDbEntity
  8
USP-GEO
100
AcDbLine
 10
3.306000000000004
 20
1.127381562258587
 30
0.0000000000000013
 11
3.43750000000001
 21
1.127381562258587
 31
0.0000000000000013
210
0.0
220
1.0
230
0.0
  0
LINE
  5
96
100
AcDbEntity
  8
USP-GEO
100
AcDbLine
 10
3.306000000000008
 20
1.127323215023382
 30
0.0000000000000013
 11
3.306000000000008
 21
1.127381562258582
 31
0.0000000000000013
210
0.0
220
1.0
230
0.0
  0
LINE
  5
97
100
AcDbEntity
  8
USP-GEO
100
AcDbLine
 10
3.31250000000001
 20
1.127323215023378
 30
0.0000000000000013
 11
3.306000000000008
 21
1.127323215023378
 31
0.0000000000000013
210
0.0
220
1.0
230
0.0
  0
LINE
  5
98
100
AcDbEntity
  8
USP-GEO
100
AcDbLine
 10
3.31250000000001
 20
1.064881562258587
 30
0.0000000000000013
 11
3.31250000000001
 21
1.12732321502338
 31
0.0000000000000013
210
0.0
220
1.0
230
0.0
  0
LINE
  5
99
100
AcDbEntity
  8
USP-GEO
100
AcDbLine
 10
3.31250000000001
 20
1.067581562258584
 30
0.0000000000000013
 11
3.408950000000011
 21
1.067581562258584
 31
0.0000000000000013
210
0.0
220
1.0
230
0.0
  0
LINE
  5
9A
100
AcDbEntity
  8
USP-GEO
100
AcDbLine
 10
3.306000000000008
 20
1.127381562258582
 30
0.0000000000000013
 11
3.264820280756936
 21
1.127381562258582
 31
0.0000000000000013
210
0.0
220
1.0
230
0.0
  0
ARC
  5
9B
100
AcDbEntity
  8
USP-GEO
100
AcDbCircle
 10
3.437500000000007
 20
1.06488156225858
 30
0.0000000000000013
 40
0.0625
100
AcDbArc
 50
0.0000000000032569
 51
87.52405179849855
  0
SPLINE
  5
9C
100
AcDbEntity
  8
USP-GEO
100
AcDbSpline
210
0.0216050429670318
220
0.9997665838176391
230
0.0
 70
    24
 71
     3
 72
     8
 73
     4
 74
     0
 42
0.0000001
 43
0.0000001
 40
0.31964631626086
 40
0.31964631626086
 40
0.31964631626086
 40
0.31964631626086
 40
0.3225368963115234
 40
0.3225368963115234
 40
0.3225368963115234
 40
0.3225368963115234
 10
3.43750000000001
 20
1.127381562258583
 30
0.0000000000000013
 10
3.438400523181815
 20
1.127381562258576
 30
0.0000000000000013
 10
3.43930104264416
 20
1.12736208626963
 30
0.0000000000000013
 10
3.440200000000007
 20
1.127323215023384
 30
0.0000000000000013
  0
LINE
  5
9D
100
AcDbEntity
  8
USP-GEO
100
AcDbLine
 10
3.264820280756953
 20
5.162499999999987
 30
0.0000000000000006
 11
2.88982028075695
 21
5.537499999999992
 31
0.0000000000000005
210
0.0
220
1.0
230
0.0
  0
CIRCLE
  5
9E
100
AcDbEntity
  8
USP-GEO
100
AcDbCircle
 10
2.764820280756937
 20
2.287500000000002
 30
0.0000000000000005
 40
0.0900000000000001
  0
CIRCLE
  5
9F
100
AcDbEntity
  8
USP-GEO
100
AcDbCircle
 10
2.464820280756947
 20
3.5375
 30
0.0000000000000004
 40
0.0900000000000001
  0
CIRCLE
  5
A0
100
AcDbEntity
  8
USP-GEO
100
AcDbCircle
 10
2.764820280756946
 20
4.787499999999999
 30
0.0000000000000005
 40
0.0900000000000001
  0
ENDBLK
  5
A2
100
AcDbEntity
  8
0
100
AcDbBlockEnd
  0
ENDSEC
  0
SECTION
  2
ENTITIES
  0
INSERT
  5
3
100
AcDbEntity
  8
USP
100
AcDbBlockReference
  2
PAU44_F
 10
1.145473301074116
 20
0.9480202161806998
 30
-0.0000000000000011
  0
INSERT
  5
5D
100
AcDbEntity
  8
USP
100
AcDbBlockReference
  2
PAU44_S
 10
9.038873360861011
 20
0.9480202161807074
 30
-0.000000000000001
  0
ENDSEC
  0
SECTION
  2
OBJECTS
  0
DICTIONARY
  5
BE
102
{ACAD_XDICTIONARY
360
BF
102
}
100
AcDbDictionary
  3
ACAD_GROUP
350
BB
  3
ACAD_MLINESTYLE
350
BC
  0
DICTIONARY
  5
B0
100
AcDbDictionary
280
     1
  0
DICTIONARY
  5
B2
100
AcDbDictionary
280
     1
  0
DICTIONARY
  5
6
100
AcDbDictionary
280
     1
  0
DICTIONARY
  5
59
100
AcDbDictionary
280
     1
  0
DICTIONARY
  5
C3
100
AcDbDictionary
280
     1
  0
DICTIONARY
  5
A3
100
AcDbDictionary
280
     1
  3
ACAD_LAYOUTSELFREF
360
A4
  0
DICTIONARY
  5
A8
100
AcDbDictionary
280
     1
  3
ACAD_LAYOUTSELFREF
360
A9
  0
DICTIONARY
  5
BF
100
AcDbDictionary
280
     1
  3
ACAD_XREC_ROUNDTRIP
360
C0
  0
DICTIONARY
  5
BB
102
{ACAD_REACTORS
330
BE
102
}
100
AcDbDictionary
  0
DICTIONARY
  5
BC
102
{ACAD_XDICTIONARY
360
BD
102
}
102
{ACAD_REACTORS
330
BE
102
}
100
AcDbDictionary
  3
STANDARD
350
C1
  0
XRECORD
  5
A4
102
{ACAD_REACTORS
330
A3
102
}
100
AcDbXrecord
340
2
  0
XRECORD
  5
A9
102
{ACAD_REACTORS
330
A8
102
}
100
AcDbXrecord
340
A9
  0
XRECORD
  5
C0
102
{ACAD_REACTORS
330
BF
102
}
100
AcDbXrecord
102
EXTNAMES
  1
ACDBVARIABLEDICTIONARY
  2
AcDbVariableDictionary
  0
DICTIONARY
  5
BD
100
AcDbDictionary
280
     1
  0
MLINESTYLE
  5
C1
102
{ACAD_REACTORS
330
BC
102
}
100
AcDbMlineStyle
  2
STANDARD
 70
     0
  3

 62
   256
 51
90.0
 52
90.0
 71
     2
 49
0.5
 62
   256
  6
BYLAYER
 49
-0.5
 62
   256
  6
BYLAYER
  0
ENDSEC
  0
EOF
