  0
SECTION
  2
HEADER
  9
$ACADVER
  1
AC1014
  9
$ACADMAINTVER
 70
     9
  9
$DWGCODEPAGE
  3
ANSI_1252
  9
$INSBASE
 10
0.0
 20
0.0
 30
0.0
  9
$EXTMIN
 10
0.0016822572353874
 20
0.0011267523945548
 30
0.0
  9
$EXTMAX
 10
22.35627645562439
 20
39.58446442581713
 30
0.0
  9
$LIMMIN
 10
0.0
 20
0.0
  9
$LIMMAX
 10
12.0
 20
9.0
  9
$ORTHOMODE
 70
     0
  9
$REGENMODE
 70
     1
  9
$FILLMODE
 70
     1
  9
$QTEXTMODE
 70
     0
  9
$MIRRTEXT
 70
     0
  9
$DRAGMODE
 70
     2
  9
$LTSCALE
 40
1.5
  9
$OSMODE
 70
    37
  9
$ATTMODE
 70
     1
  9
$TEXTSIZE
 40
0.25
  9
$TRACEWID
 40
0.05
  9
$TEXTSTYLE
  7
STANDARD
  9
$CLAYER
  8
0
  9
$CELTYPE
  6
BYLAYER
  9
$CECOLOR
 62
   256
  9
$CELTSCALE
 40
1.0
  9
$DELOBJ
 70
     1
  9
$DISPSILH
 70
     1
  9
$DIMSCALE
 40
6.0
  9
$DIMASZ
 40
0.125
  9
$DIMEXO
 40
0.0625
  9
$DIMDLI
 40
0.37890625
  9
$DIMRND
 40
0.0
  9
$DIMDLE
 40
0.0
  9
$DIMEXE
 40
0.09375
  9
$DIMTP
 40
0.0
  9
$DIMTM
 40
0.0
  9
$DIMTXT
 40
0.109375
  9
$DIMCEN
 40
0.0
  9
$DIMTSZ
 40
0.0
  9
$DIMTOL
 70
     0
  9
$DIMLIM
 70
     0
  9
$DIMTIH
 70
     1
  9
$DIMTOH
 70
     1
  9
$DIMSE1
 70
     0
  9
$DIMSE2
 70
     0
  9
$DIMTAD
 70
     0
  9
$DIMZIN
 70
     8
  9
$DIMBLK
  1

  9
$DIMASO
 70
     1
  9
$DIMSHO
 70
     1
  9
$DIMPOST
  1

  9
$DIMAPOST
  1

  9
$DIMALT
 70
     0
  9
$DIMALTD
 70
     2
  9
$DIMALTF
 40
25.4
  9
$DIMLFAC
 40
1.0
  9
$DIMTOFL
 70
     0
  9
$DIMTVP
 40
0.0
  9
$DIMTIX
 70
     0
  9
$DIMSOXD
 70
     0
  9
$DIMSAH
 70
     0
  9
$DIMBLK1
  1

  9
$DIMBLK2
  1

  9
$DIMSTYLE
  2
STANDARD
  9
$DIMCLRD
 70
     0
  9
$DIMCLRE
 70
     0
  9
$DIMCLRT
 70
   256
  9
$DIMTFAC
 40
1.0
  9
$DIMGAP
 40
0.08984375
  9
$DIMJUST
 70
     0
  9
$DIMSD1
 70
     0
  9
$DIMSD2
 70
     0
  9
$DIMTOLJ
 70
     1
  9
$DIMTZIN
 70
     0
  9
$DIMALTZ
 70
     0
  9
$DIMALTTZ
 70
     0
  9
$DIMFIT
 70
     3
  9
$DIMUPT
 70
     1
  9
$DIMUNIT
 70
     7
  9
$DIMDEC
 70
     4
  9
$DIMTDEC
 70
     4
  9
$DIMALTU
 70
     2
  9
$DIMALTTD
 70
     2
  9
$DIMTXSTY
  7
STANDARD
  9
$DIMAUNIT
 70
     0
  9
$LUNITS
 70
     5
  9
$LUPREC
 70
     6
  9
$SKETCHINC
 40
0.1
  9
$FILLETRAD
 40
0.0
  9
$AUNITS
 70
     0
  9
$AUPREC
 70
     1
  9
$MENU
  1
CUSTOM
  9
$ELEVATION
 40
0.0
  9
$PELEVATION
 40
0.0
  9
$THICKNESS
 40
0.0
  9
$LIMCHECK
 70
     0
  9
$BLIPMODE
 70
     0
  9
$CHAMFERA
 40
0.0
  9
$CHAMFERB
 40
0.0
  9
$CHAMFERC
 40
0.0
  9
$CHAMFERD
 40
0.0
  9
$SKPOLY
 70
     0
  9
$TDCREATE
 40
2451263.663231366
  9
$TDUPDATE
 40
2452759.746316551
  9
$TDINDWG
 40
0.1190609375
  9
$TDUSRTIMER
 40
0.1190609375
  9
$USRTIMER
 70
     1
  9
$ANGBASE
 50
0.0
  9
$ANGDIR
 70
     0
  9
$PDMODE
 70
     0
  9
$PDSIZE
 40
0.0
  9
$PLINEWID
 40
0.0
  9
$COORDS
 70
     1
  9
$SPLFRAME
 70
     0
  9
$SPLINETYPE
 70
     6
  9
$SPLINESEGS
 70
     8
  9
$ATTDIA
 70
     0
  9
$ATTREQ
 70
     1
  9
$HANDLING
 70
     1
  9
$HANDSEED
  5
A2
  9
$SURFTAB1
 70
     6
  9
$SURFTAB2
 70
     6
  9
$SURFTYPE
 70
     6
  9
$SURFU
 70
     6
  9
$SURFV
 70
     6
  9
$UCSNAME
  2

  9
$UCSORG
 10
0.0
 20
0.0
 30
0.0
  9
$UCSXDIR
 10
1.0
 20
0.0
 30
0.0
  9
$UCSYDIR
 10
0.0
 20
1.0
 30
0.0
  9
$PUCSNAME
  2

  9
$PUCSORG
 10
0.0
 20
0.0
 30
0.0
  9
$PUCSXDIR
 10
1.0
 20
0.0
 30
0.0
  9
$PUCSYDIR
 10
0.0
 20
1.0
 30
0.0
  9
$USERI1
 70
     0
  9
$USERI2
 70
     0
  9
$USERI3
 70
     0
  9
$USERI4
 70
     0
  9
$USERI5
 70
     0
  9
$USERR1
 40
0.0
  9
$USERR2
 40
0.0
  9
$USERR3
 40
0.0
  9
$USERR4
 40
0.0
  9
$USERR5
 40
0.0
  9
$WORLDVIEW
 70
     1
  9
$SHADEDGE
 70
     3
  9
$SHADEDIF
 70
    70
  9
$TILEMODE
 70
     1
  9
$MAXACTVP
 70
    16
  9
$PINSBASE
 10
0.0
 20
0.0
 30
0.0
  9
$PLIMCHECK
 70
     0
  9
$PEXTMIN
 10
1.000000000000000E+20
 20
1.000000000000000E+20
 30
1.000000000000000E+20
  9
$PEXTMAX
 10
-1.000000000000000E+20
 20
-1.000000000000000E+20
 30
-1.000000000000000E+20
  9
$PLIMMIN
 10
0.0
 20
0.0
  9
$PLIMMAX
 10
12.0
 20
9.0
  9
$UNITMODE
 70
     0
  9
$VISRETAIN
 70
     0
  9
$PLINEGEN
 70
     0
  9
$PSLTSCALE
 70
     0
  9
$TREEDEPTH
 70
  3020
  9
$PICKSTYLE
 70
     1
  9
$CMLSTYLE
  2
STANDARD
  9
$CMLJUST
 70
     0
  9
$CMLSCALE
 40
1.0
  9
$PROXYGRAPHICS
 70
     1
  9
$MEASUREMENT
 70
     0
  0
ENDSEC
  0
SECTION
  2
CLASSES
  0
CLASS
  1
ACDBDICTIONARYWDFLT
  2
AcDbDictionaryWithDefault
  3
AutoCAD 2000
 90
        0
280
     0
281
     0
  0
CLASS
  1
ACDBPLACEHOLDER
  2
AcDbPlaceHolder
  3
AutoCAD 2000
 90
        0
280
     0
281
     0
  0
CLASS
  1
LAYOUT
  2
AcDbLayout
  3
AutoCAD 2000
 90
        0
280
     0
281
     0
  0
CLASS
  1
DICTIONARYVAR
  2
AcDbDictionaryVar
  3
"AutoCAD"
 90
        0
280
     0
281
     0
  0
CLASS
  1
LONG_TRANSACTION
  2
AcDbLongTransaction
  3
AutoCAD 2000
 90
        0
280
     0
281
     0
  0
CLASS
  1
LWPOLYLINE
  2
AcDbPolyline
  3
"AutoCAD"
 90
        0
280
     0
281
     1
  0
CLASS
  1
HATCH
  2
AcDbHatch
  3
"ACAD_SEDONA"
 90
        0
280
     0
281
     1
  0
CLASS
  1
XRECORD
  2
AcDbXrecord
  3
"<Built In>"
 90
        0
280
     0
281
     0
  0
CLASS
  1
LONG_TRANSACTION
  2
AcDbLongTransaction
  3
AutoCAD 2000
 90
        0
280
     0
281
     0
  0
CLASS
  1
LWPOLYLINE
  2
AcDbPolyline
  3
"AutoCAD"
 90
        0
280
     0
281
     1
  0
CLASS
  1
HATCH
  2
AcDbHatch
  3
"ACAD_SEDONA"
 90
        0
280
     0
281
     1
  0
CLASS
  1
XRECORD
  2
AcDbXrecord
  3
"<Built In>"
 90
        0
280
     0
281
     0
  0
ENDSEC
  0
SECTION
  2
TABLES
  0
TABLE
  2
VPORT
  5
84
100
AcDbSymbolTable
 70
     1
  0
VPORT
  5
9E
100
AcDbSymbolTableRecord
100
AcDbViewportTableRecord
  2
*ACTIVE
 70
     0
 10
0.0
 20
0.0
 11
1.0
 21
1.0
 12
-11.91669843132226
 22
30.5513653126208
 13
0.0
 23
0.0
 14
1.0
 24
1.0
 15
0.0
 25
0.0
 16
0.0
 26
0.0
 36
1.0
 17
23.09603071721725
 27
-10.27010416511325
 37
-10.44050274849355
 40
40.85167756889769
 41
1.457627118644067
 42
50.0
 43
10.55307667737539
 44
10.55307667737539
 50
0.0
 51
0.0
 71
     0
 72
   100
 73
     1
 74
     1
 75
     0
 76
     0
 77
     0
 78
     0
  0
ENDTAB
  0
TABLE
  2
LTYPE
  5
7F
100
AcDbSymbolTable
 70
     1
  0
LTYPE
  5
80
100
AcDbSymbolTableRecord
100
AcDbLinetypeTableRecord
  2
BYBLOCK
 70
     0
  3

 72
    65
 73
     0
 40
0.0
  0
LTYPE
  5
81
100
AcDbSymbolTableRecord
100
AcDbLinetypeTableRecord
  2
BYLAYER
 70
     0
  3

 72
    65
 73
     0
 40
0.0
  0
LTYPE
  5
5
100
AcDbSymbolTableRecord
100
AcDbLinetypeTableRecord
  2
CONTINUOUS
 70
     0
  3
Solid line
 72
    65
 73
     0
 40
0.0
  0
ENDTAB
  0
TABLE
  2
LAYER
  5
7D
100
AcDbSymbolTable
 70
     4
  0
LAYER
  5
3A
100
AcDbSymbolTableRecord
100
AcDbLayerTableRecord
  2
0
 70
     0
 62
     7
  6
CONTINUOUS
  0
LAYER
  5
8
100
AcDbSymbolTableRecord
100
AcDbLayerTableRecord
  2
USP-GEO
 70
     0
 62
     7
  6
CONTINUOUS
  0
LAYER
  5
37
100
AcDbSymbolTableRecord
100
AcDbLayerTableRecord
  2
USP-TXT
 70
     0
 62
     7
  6
CONTINUOUS
  0
LAYER
  5
4
100
AcDbSymbolTableRecord
100
AcDbLayerTableRecord
  2
USP
 70
     0
 62
     7
  6
CONTINUOUS
  0
ENDTAB
  0
TABLE
  2
STYLE
  5
7E
100
AcDbSymbolTable
 70
     1
  0
STYLE
  5
38
100
AcDbSymbolTableRecord
100
AcDbTextStyleTableRecord
  2
STANDARD
 70
     0
 40
0.0
 41
1.0
 50
0.0
 71
     0
 42
0.25
  3
txt
  4

  0
ENDTAB
  0
TABLE
  2
VIEW
  5
82
100
AcDbSymbolTable
 70
     0
  0
ENDTAB
  0
TABLE
  2
UCS
  5
83
100
AcDbSymbolTable
 70
     0
  0
ENDTAB
  0
TABLE
  2
APPID
  5
86
100
AcDbSymbolTable
 70
     1
  0
APPID
  5
87
100
AcDbSymbolTableRecord
100
AcDbRegAppTableRecord
  2
ACAD
 70
     0
  0
ENDTAB
  0
TABLE
  2
DIMSTYLE
  5
88
100
AcDbSymbolTable
 70
     1
  0
DIMSTYLE
105
90
100
AcDbSymbolTableRecord
100
AcDbDimStyleTableRecord
  2
STANDARD
 70
     0
  3

  4

  5

  6

  7

 40
1.0
 41
0.18
 42
0.0625
 43
0.38
 44
0.18
 45
0.0
 46
0.0
 47
0.0
 48
0.0
140
0.18
141
0.09
142
0.0
143
25.4
144
1.0
145
0.0
146
1.0
147
0.09
 71
     0
 72
     0
 73
     1
 74
     1
 75
     0
 76
     0
 77
     0
 78
     0
170
     0
171
     2
172
     0
173
     0
174
     0
175
     0
176
     0
177
     0
178
     0
270
     2
271
     4
272
     4
273
     2
274
     2
340
38
275
     0
280
     0
281
     0
282
     0
283
     1
284
     0
285
     0
286
     0
287
     3
288
     0
  0
ENDTAB
  0
TABLE
  2
BLOCK_RECORD
  5
1
100
AcDbSymbolTable
 70
     3
  0
BLOCK_RECORD
  5
2
102
{ACAD_XDICTIONARY
360
74
102
}
100
AcDbSymbolTableRecord
100
AcDbBlockTableRecord
  2
*MODEL_SPACE
  0
BLOCK_RECORD
  5
78
102
{ACAD_XDICTIONARY
360
79
102
}
100
AcDbSymbolTableRecord
100
AcDbBlockTableRecord
  2
*PAPER_SPACE
  0
BLOCK_RECORD
  5
6
100
AcDbSymbolTableRecord
100
AcDbBlockTableRecord
  2
PAHD42_F
  0
BLOCK_RECORD
  5
3D
100
AcDbSymbolTableRecord
100
AcDbBlockTableRecord
  2
PAHD42_T
  0
BLOCK_RECORD
  5
59
100
AcDbSymbolTableRecord
100
AcDbBlockTableRecord
  2
PAHD42_S
  0
ENDTAB
  0
ENDSEC
  0
SECTION
  2
BLOCKS
  0
BLOCK
  5
76
100
AcDbEntity
  8
0
100
AcDbBlockBegin
  2
*MODEL_SPACE
 70
     0
 10
0.0
 20
0.0
 30
0.0
  3
*MODEL_SPACE
  1

  0
ENDBLK
  5
77
100
AcDbEntity
  8
0
100
AcDbBlockEnd
  0
BLOCK
  5
7B
100
AcDbEntity
 67
     1
  8
0
100
AcDbBlockBegin
  2
*PAPER_SPACE
 70
     0
 10
0.0
 20
0.0
 30
0.0
  3
*PAPER_SPACE
  1

  0
ENDBLK
  5
7C
100
AcDbEntity
 67
     1
  8
0
100
AcDbBlockEnd
  0
BLOCK
  5
39
100
AcDbEntity
  8
0
100
AcDbBlockBegin
  2
PAHD42_F
 70
     0
 10
0.0
 20
0.0
 30
0.0
  3
PAHD42_F
  1

  0
LINE
  5
7
100
AcDbEntity
  8
USP-GEO
100
AcDbLine
 10
0.0000000000000133
 20
8.405948662032992
 30
0.0
 11
0.0000000000000595
 21
25.03094866203303
 31
0.0
  0
LINE
  5
9
100
AcDbEntity
  8
USP-GEO
100
AcDbLine
 10
2.062500000000063
 20
25.03094866203302
 30
0.0
 11
2.062500000000037
 21
8.405948662032992
 31
0.0
  0
LINE
  5
A
100
AcDbEntity
  8
USP-GEO
100
AcDbLine
 10
0.0000000000000027
 20
1.320992048943652
 30
0.0
 11
0.000000000000016
 21
8.405948662032992
 31
0.0
  0
LINE
  5
B
100
AcDbEntity
  8
USP-GEO
100
AcDbLine
 10
2.062500000000036
 20
8.405948662032992
 30
0.0
 11
2.06250000000003
 21
1.320992048943652
 31
0.0
  0
LINE
  5
C
100
AcDbEntity
  8
USP-GEO
100
AcDbLine
 10
2.062500000000029
 20
0.3322315121943311
 30
0.0
 11
1.280999999999998
 21
0.3322315121943347
 31
0.0
  0
LINE
  5
D
100
AcDbEntity
  8
USP-GEO
100
AcDbLine
 10
0.0000000000000044
 20
1.223110807943699
 30
0.0
 11
2.062500000000039
 21
1.223110807943695
 31
0.0
  0
LINE
  5
E
100
AcDbEntity
  8
USP-GEO
100
AcDbLine
 10
2.062500000000039
 20
1.320992048943652
 30
0.0
 11
0.0000000000000053
 21
1.320992048943656
 31
0.0
  0
LINE
  5
F
100
AcDbEntity
  8
USP-GEO
100
AcDbLine
 10
0.0
 20
0.3322315121943382
 30
0.0
 11
0.0000000000000044
 21
1.223110807943699
 31
0.0
  0
ELLIPSE
  5
10
100
AcDbEntity
  8
USP-GEO
100
AcDbEllipse
 10
1.031000000000004
 20
0.8214512162457708
 30
0.0
 11
-0.25
 21
0.0000000000000004
 31
0.0
210
0.0
220
0.0
230
1.0
 40
0.4226182617406989
 41
3.141592653589749
 42
6.283185307179589
  0
ELLIPSE
  5
11
100
AcDbEntity
  8
USP-GEO
100
AcDbEllipse
 10
1.031000000000006
 20
0.8214512162457779
 30
0.0
 11
-0.25
 21
0.0000000000000004
 31
0.0
210
0.0
220
0.0
230
1.0
 40
0.906307787036648
 41
0.0000000000000018
 42
3.141592653589749
  0
ELLIPSE
  5
12
100
AcDbEntity
  8
USP-GEO
100
AcDbEllipse
 10
1.030999999999998
 20
0.3322315121943382
 30
0.0
 11
0.0000000000000017
 21
0.3322315121943378
 31
0.0
210
0.0
220
0.0
230
1.0
 40
0.7524873193057112
 41
1.5707963267949
 42
4.712388980384703
  0
LINE
  5
13
100
AcDbEntity
  8
USP-GEO
100
AcDbLine
 10
0.7810000000000006
 20
0.3322315121943347
 30
0.0
 11
0.0
 21
0.3322315121943382
 31
0.0
  0
LINE
  5
14
100
AcDbEntity
  8
USP-GEO
100
AcDbLine
 10
0.7809999999999997
 20
0.3322315121943347
 30
0.0
 11
0.781000000000006
 21
0.8214512162457708
 31
0.0
  0
LINE
  5
15
100
AcDbEntity
  8
USP-GEO
100
AcDbLine
 10
1.281000000000007
 20
0.8214512162457708
 30
0.0
 11
1.281
 21
0.3322315121943311
 31
0.0
  0
ELLIPSE
  5
16
100
AcDbEntity
  8
USP-GEO
100
AcDbEllipse
 10
1.031000000000004
 20
1.381735929582804
 30
0.0
 11
-0.25
 21
0.0000000000000008
 31
0.0
210
0.0
220
0.0
230
1.0
 40
0.4226182617407039
 41
3.588301861421284
 42
5.836476099348139
  0
ELLIPSE
  5
17
100
AcDbEntity
  8
USP-GEO
100
AcDbEllipse
 10
1.030999999999999
 20
1.427378701850803
 30
0.0
 11
-0.2254684013337584
 21
0.0000000000000004
 31
0.0
210
0.0
220
0.0
230
1.0
 40
0.9063077870366502
 41
3.141592653589746
 42
6.283185307179605
  0
LINE
  5
18
100
AcDbEntity
  8
USP-GEO
100
AcDbLine
 10
0.0000000000000044
 20
1.223110807943699
 30
0.0
 11
0.0000000000000044
 21
1.320992048943656
 31
0.0
  0
LINE
  5
19
100
AcDbEntity
  8
USP-GEO
100
AcDbLine
 10
0.8055315986662403
 20
1.320992048943652
 30
0.0
 11
0.8055315986662403
 21
1.427378701850796
 31
0.0
  0
LINE
  5
1A
100
AcDbEntity
  8
USP-GEO
100
AcDbLine
 10
1.256468401333763
 20
1.427378701850796
 30
0.0
 11
1.256468401333763
 21
1.320992048943656
 31
0.0
  0
LINE
  5
1B
100
AcDbEntity
  8
USP-GEO
100
AcDbLine
 10
2.062500000000026
 20
0.3322315121943347
 30
0.0
 11
2.062500000000039
 21
1.223110807943695
 31
0.0
  0
LINE
  5
1C
100
AcDbEntity
  8
USP-GEO
100
AcDbLine
 10
2.062500000000039
 20
1.223110807943695
 30
0.0
 11
2.062500000000039
 21
1.320992048943652
 31
0.0
  0
CIRCLE
  5
1D
100
AcDbEntity
  8
USP-GEO
100
AcDbCircle
 10
1.781250000000015
 20
8.780948662033035
 30
0.0
 40
0.09
  0
LINE
  5
1E
100
AcDbEntity
  8
USP-GEO
100
AcDbLine
 10
0.000000000000016
 20
8.405948662032995
 30
0.0
 11
2.062500000000037
 21
8.405948662032992
 31
0.0
  0
CIRCLE
  5
1F
100
AcDbEntity
  8
USP-GEO
100
AcDbCircle
 10
0.281250000000016
 20
8.780948662033038
 30
0.0
 40
0.09
  0
CIRCLE
  5
20
100
AcDbEntity
  8
USP-GEO
100
AcDbCircle
 10
1.781250000000036
 20
16.28094866203305
 30
0.0
 40
0.09
  0
CIRCLE
  5
21
100
AcDbEntity
  8
USP-GEO
100
AcDbCircle
 10
1.781250000000031
 20
13.28094866203305
 30
0.0
 40
0.09
  0
CIRCLE
  5
22
100
AcDbEntity
  8
USP-GEO
100
AcDbCircle
 10
1.781250000000033
 20
14.78094866203304
 30
0.0
 40
0.09
  0
CIRCLE
  5
23
100
AcDbEntity
  8
USP-GEO
100
AcDbCircle
 10
1.781250000000033
 20
11.78094866203303
 30
0.0
 40
0.09
  0
CIRCLE
  5
24
100
AcDbEntity
  8
USP-GEO
100
AcDbCircle
 10
0.2812500000000293
 20
12.53094866203302
 30
0.0
 40
0.09
  0
CIRCLE
  5
25
100
AcDbEntity
  8
USP-GEO
100
AcDbCircle
 10
1.048566803953409
 20
15.15559314660883
 30
0.0
 40
0.28
  0
CIRCLE
  5
26
100
AcDbEntity
  8
USP-GEO
100
AcDbCircle
 10
0.2812500000000311
 20
14.03094866203305
 30
0.0
 40
0.09
  0
CIRCLE
  5
27
100
AcDbEntity
  8
USP-GEO
100
AcDbCircle
 10
0.2812500000000337
 20
15.53094866203305
 30
0.0
 40
0.09
  0
CIRCLE
  5
28
100
AcDbEntity
  8
USP-GEO
100
AcDbCircle
 10
1.781250000000037
 20
19.28094866203305
 30
0.0
 40
0.09
  0
CIRCLE
  5
29
100
AcDbEntity
  8
USP-GEO
100
AcDbCircle
 10
1.781250000000042
 20
20.78094866203305
 30
0.0
 40
0.09
  0
CIRCLE
  5
2A
100
AcDbEntity
  8
USP-GEO
100
AcDbCircle
 10
1.781250000000044
 20
22.28094866203304
 30
0.0
 40
0.09
  0
CIRCLE
  5
2B
100
AcDbEntity
  8
USP-GEO
100
AcDbCircle
 10
1.781250000000037
 20
17.78094866203305
 30
0.0
 40
0.09
  0
CIRCLE
  5
2C
100
AcDbEntity
  8
USP-GEO
100
AcDbCircle
 10
1.031250000000039
 20
19.65594866203305
 30
0.0
 40
0.28
  0
CIRCLE
  5
2D
100
AcDbEntity
  8
USP-GEO
100
AcDbCircle
 10
0.2812500000000373
 20
17.03094866203305
 30
0.0
 40
0.09
  0
CIRCLE
  5
2E
100
AcDbEntity
  8
USP-GEO
100
AcDbCircle
 10
0.2812500000000364
 20
18.53094866203305
 30
0.0
 40
0.09
  0
CIRCLE
  5
2F
100
AcDbEntity
  8
USP-GEO
100
AcDbCircle
 10
0.2812500000000408
 20
20.03094866203305
 30
0.0
 40
0.09
  0
CIRCLE
  5
30
100
AcDbEntity
  8
USP-GEO
100
AcDbCircle
 10
0.2812500000000417
 20
21.53094866203305
 30
0.0
 40
0.09
  0
CIRCLE
  5
31
100
AcDbEntity
  8
USP-GEO
100
AcDbCircle
 10
1.781250000000044
 20
23.78094866203305
 30
0.0
 40
0.09
  0
LINE
  5
32
100
AcDbEntity
  8
USP-GEO
100
AcDbLine
 10
0.0000000000000595
 20
25.03094866203302
 30
0.0
 11
2.06250000000006
 21
25.03094866203302
 31
0.0
  0
CIRCLE
  5
33
100
AcDbEntity
  8
USP-GEO
100
AcDbCircle
 10
1.031250000000045
 20
24.15594866203304
 30
0.0
 40
0.28
  0
CIRCLE
  5
34
100
AcDbEntity
  8
USP-GEO
100
AcDbCircle
 10
0.2812500000000497
 20
24.53094866203306
 30
0.0
 40
0.09
  0
CIRCLE
  5
35
100
AcDbEntity
  8
USP-GEO
100
AcDbCircle
 10
0.2812500000000435
 20
23.03094866203305
 30
0.0
 40
0.09
  0
TEXT
  5
36
100
AcDbEntity
  8
USP-TXT
100
AcDbText
 10
-3.909912414044594
 20
-2.900356442901303
 30
0.0
 40
0.5
  1
PAHD42 - FRONT VIEW
 72
     1
 11
0.8400875859554037
 21
-2.900356442901303
 31
0.0
100
AcDbText
  0
ENDBLK
  5
3B
100
AcDbEntity
  8
0
100
AcDbBlockEnd
  0
BLOCK
  5
56
100
AcDbEntity
  8
0
100
AcDbBlockBegin
  2
PAHD42_T
 70
     0
 10
0.0
 20
0.0
 30
0.0
  3
PAHD42_T
  1

  0
TEXT
  5
3E
100
AcDbEntity
  8
USP-TXT
100
AcDbText
 10
-3.409912414044596
 20
-2.811140706151292
 30
0.0
 40
0.5
  1
PAHD42 - TOP VIEW
 72
     1
 11
0.8400875859554037
 21
-2.811140706151292
 31
0.0
100
AcDbText
  0
LINE
  5
3F
100
AcDbEntity
  8
USP-GEO
100
AcDbLine
 10
2.062500000000032
 20
5.55616813657236
 30
0.0
 11
2.062500000000024
 21
1.858258346341237
 31
0.0
  0
LINE
  5
40
100
AcDbEntity
  8
USP-GEO
100
AcDbLine
 10
-0.0000000000000044
 20
1.858258346341237
 30
0.0
 11
0.0000000000000124
 21
5.556168136572352
 31
0.0
  0
LINE
  5
41
100
AcDbEntity
  8
USP-GEO
100
AcDbLine
 10
2.062500000000024
 20
1.858258346341237
 30
0.0
 11
1.256468401333754
 21
1.858258346341237
 31
0.0
  0
LINE
  5
42
100
AcDbEntity
  8
USP-GEO
100
AcDbLine
 10
0.0
 20
0.0
 30
0.0
 11
2.062500000000035
 21
0.0
 31
0.0
  0
LINE
  5
43
100
AcDbEntity
  8
USP-GEO
100
AcDbLine
 10
2.062500000000035
 20
0.0456427722679962
 30
0.0
 11
0.0
 21
0.0456427722679962
 31
0.0
  0
LINE
  5
44
100
AcDbEntity
  8
USP-GEO
100
AcDbLine
 10
0.8055315986662421
 20
0.9070045463532423
 30
0.0
 11
0.8055315986662359
 21
1.858258346341223
 31
0.0
  0
LINE
  5
45
100
AcDbEntity
  8
USP-GEO
100
AcDbLine
 10
1.256468401333759
 20
1.858258346341223
 30
0.0
 11
1.256468401333765
 21
0.9070045463532494
 31
0.0
  0
LINE
  5
46
100
AcDbEntity
  8
USP-GEO
100
AcDbLine
 10
-0.0000000000000009
 20
0.0456427722679962
 30
0.0
 11
-0.0000000000000053
 21
1.85825834634123
 31
0.0
  0
ELLIPSE
  5
47
100
AcDbEntity
  8
USP-GEO
100
AcDbEllipse
 10
1.031
 20
0.9070045463532423
 30
0.0
 11
-0.2254684013337633
 21
-0.0000000000000003
 31
0.0
210
0.0
220
0.0
230
1.0
 40
0.90630778703665
 41
-0.0000000000000015
 42
3.141592653589808
  0
ELLIPSE
  5
48
100
AcDbEntity
  8
USP-GEO
100
AcDbEllipse
 10
1.031000000000002
 20
0.8613617740852532
 30
0.0
 11
-0.25
 21
-0.0000000000000012
 31
0.0
210
0.0
220
0.0
230
1.0
 40
0.4226182617407035
 41
3.588301861421222
 42
5.836476099348143
  0
LINE
  5
49
100
AcDbEntity
  8
USP-GEO
100
AcDbLine
 10
0.0
 20
0.0
 30
0.0
 11
0.0
 21
0.0456427722679962
 31
0.0
  0
ELLIPSE
  5
4A
100
AcDbEntity
  8
USP-GEO
100
AcDbEllipse
 10
1.030999999999995
 20
1.910496815073187
 30
0.0
 11
-0.25
 21
-0.0000000000000012
 31
0.0
210
0.0
220
0.0
230
1.0
 40
0.4836895252959442
 41
0.44670920783148
 42
2.694883445758324
  0
ELLIPSE
  5
4B
100
AcDbEntity
  8
USP-GEO
100
AcDbEllipse
 10
1.030999999999995
 20
2.302007521168981
 30
0.0
 11
-0.2254684013337584
 21
-0.0000000000000003
 31
0.0
210
0.0
220
0.0
230
1.0
 40
0.4226182617406988
 41
3.141592653589738
 42
6.283185307179602
  0
ELLIPSE
  5
4C
100
AcDbEntity
  8
USP-GEO
100
AcDbEllipse
 10
1.030999999999998
 20
2.399888762168934
 30
0.0
 11
-0.25
 21
-0.0000000000000012
 31
0.0
210
0.0
220
0.0
230
1.0
 40
0.906307787036648
 41
0.4467092078314671
 42
2.694883445758323
  0
LINE
  5
4D
100
AcDbEntity
  8
USP-GEO
100
AcDbLine
 10
0.8055315986662376
 20
1.858258346341237
 30
0.0
 11
-0.0000000000000036
 21
1.858258346341237
 31
0.0
  0
LINE
  5
4E
100
AcDbEntity
  8
USP-GEO
100
AcDbLine
 10
0.805531598666235
 20
1.85825834634123
 30
0.0
 11
0.8055315986662359
 21
2.302007521168988
 31
0.0
  0
LINE
  5
4F
100
AcDbEntity
  8
USP-GEO
100
AcDbLine
 10
1.256468401333759
 20
2.302007521168988
 30
0.0
 11
1.256468401333758
 21
1.858258346341237
 31
0.0
  0
LINE
  5
50
100
AcDbEntity
  8
USP-GEO
100
AcDbLine
 10
2.062500000000024
 20
1.858258346341237
 30
0.0
 11
2.062500000000035
 21
0.0456427722679962
 31
0.0
  0
LINE
  5
51
100
AcDbEntity
  8
USP-GEO
100
AcDbLine
 10
2.062500000000035
 20
0.0
 30
0.0
 11
2.062500000000035
 21
0.0456427722679962
 31
0.0
  0
LINE
  5
52
100
AcDbEntity
  8
USP-GEO
100
AcDbLine
 10
2.06250000000006
 20
5.664168136572328
 30
0.0
 11
0.0000000000000586
 21
5.664168136572328
 31
0.0
  0
LINE
  5
53
100
AcDbEntity
  8
USP-GEO
100
AcDbLine
 10
0.0000000000000568
 20
5.556168136572331
 30
0.0
 11
2.062500000000059
 21
5.556168136572331
 31
0.0
  0
LINE
  5
54
100
AcDbEntity
  8
USP-GEO
100
AcDbLine
 10
0.0000000000000586
 20
5.664168136572328
 30
0.0
 11
0.0000000000000586
 21
5.556168136572331
 31
0.0
  0
LINE
  5
55
100
AcDbEntity
  8
USP-GEO
100
AcDbLine
 10
2.06250000000006
 20
5.664168136572328
 30
0.0
 11
2.06250000000006
 21
5.556168136572331
 31
0.0
  0
ENDBLK
  5
57
100
AcDbEntity
  8
0
100
AcDbBlockEnd
  0
BLOCK
  5
72
100
AcDbEntity
  8
0
100
AcDbBlockBegin
  2
PAHD42_S
 70
     0
 10
0.0
 20
0.0
 30
0.0
  3
PAHD42_S
  1

  0
LINE
  5
5A
100
AcDbEntity
  8
USP-GEO
100
AcDbLine
 10
5.556168136572338
 20
25.03094866203301
 30
0.0
 11
5.556168136572352
 21
8.405948662032987
 31
0.0
  0
LINE
  5
5B
100
AcDbEntity
  8
USP-GEO
100
AcDbLine
 10
5.664168136572357
 20
8.36030588976499
 30
0.0
 11
5.664168136572335
 21
25.03094866203301
 31
0.0
  0
LINE
  5
5C
100
AcDbEntity
  8
USP-GEO
100
AcDbLine
 10
5.55616813657236
 20
8.405948662032987
 30
0.0
 11
1.85825834634123
 21
0.4757555254622794
 31
0.0
  0
LINE
  5
5D
100
AcDbEntity
  8
USP-GEO
100
AcDbLine
 10
1.910496815073194
 20
0.3322315121943298
 30
0.0
 11
5.654049377572313
 21
8.36030588976499
 31
0.0
  0
LINE
  5
5E
100
AcDbEntity
  8
USP-GEO
100
AcDbLine
 10
1.910496815073191
 20
0.3322315121943262
 30
0.0
 11
0.0
 21
1.22311080794369
 31
0.0
  0
LINE
  5
5F
100
AcDbEntity
  8
USP-GEO
100
AcDbLine
 10
1.85825834634123
 20
0.4757555254622794
 30
0.0
 11
0.0456427722679962
 21
1.320992048943647
 31
0.0
  0
LINE
  5
60
100
AcDbEntity
  8
USP-GEO
100
AcDbLine
 10
0.0
 20
1.22311080794369
 30
0.0
 11
0.0456427722679944
 21
1.320992048943647
 31
0.0
  0
LINE
  5
61
100
AcDbEntity
  8
USP-GEO
100
AcDbLine
 10
2.03141919639717
 20
0.0
 30
0.0
 11
1.910496815073187
 21
0.3322315121943369
 31
0.0
  0
LINE
  5
62
100
AcDbEntity
  8
USP-GEO
100
AcDbLine
 10
1.789574433749198
 20
0.6644630243886738
 30
0.0
 11
2.173311815409768
 21
1.487390495017976
 31
0.0
  0
LINE
  5
63
100
AcDbEntity
  8
USP-GEO
100
AcDbLine
 10
0.7557072086500761
 20
0.5948742694866134
 30
0.0
 11
2.03141919639717
 21
0.0
 31
0.0
  0
LINE
  5
64
100
AcDbEntity
  8
USP-GEO
100
AcDbLine
 10
0.9670163395204269
 20
1.048028163004939
 30
0.0
 11
1.789574433749201
 21
0.6644630243886774
 31
0.0
  0
ARC
  5
65
100
AcDbEntity
  8
USP-GEO
100
AcDbCircle
 10
0.8613617740852514
 20
0.8214512162457765
 30
0.0
 40
0.25
100
AcDbArc
 50
155.0000000000029
 51
244.9999999999999
  0
LINE
  5
66
100
AcDbEntity
  8
USP-GEO
100
AcDbLine
 10
0.8613617740852497
 20
0.8214512162457658
 30
0.0
 11
0.7557072086500761
 21
0.5948742694866134
 31
0.0
  0
ARC
  5
67
100
AcDbEntity
  8
USP-GEO
100
AcDbCircle
 10
0.8613617740852514
 20
0.8214512162457765
 30
0.0
 40
0.25
100
AcDbArc
 50
65.0000000000003
 51
129.4054477216262
  0
LINE
  5
68
100
AcDbEntity
  8
USP-GEO
100
AcDbLine
 10
0.9670163395204269
 20
1.048028163004939
 30
0.0
 11
0.9070045463532441
 21
0.9193324572457228
 31
0.0
  0
LINE
  5
69
100
AcDbEntity
  8
USP-GEO
100
AcDbLine
 10
1.858258346341223
 20
0.4757555254622865
 30
0.0
 11
1.789574433749198
 21
0.6644630243886738
 31
0.0
  0
LINE
  5
6A
100
AcDbEntity
  8
USP-GEO
100
AcDbLine
 10
2.03141919639717
 20
0.0
 30
0.0
 11
2.626465708928094
 21
1.276081364147621
 31
0.0
  0
ARC
  5
6B
100
AcDbEntity
  8
USP-GEO
100
AcDbCircle
 10
2.399888762168934
 20
1.381735929582806
 30
0.0
 40
0.25
100
AcDbArc
 50
90.59455227837595
 51
155.000000000002
  0
LINE
  5
6C
100
AcDbEntity
  8
USP-GEO
100
AcDbLine
 10
2.302007521168977
 20
1.427378701850795
 30
0.0
 11
2.173311815409771
 21
1.487390495017976
 31
0.0
  0
LINE
  5
6D
100
AcDbEntity
  8
USP-GEO
100
AcDbLine
 10
2.626465708928094
 20
1.276081364147621
 30
0.0
 11
2.399888762168927
 21
1.381735929582802
 31
0.0
  0
ARC
  5
6E
100
AcDbEntity
  8
USP-GEO
100
AcDbCircle
 10
2.399888762168934
 20
1.381735929582806
 30
0.0
 40
0.25
100
AcDbArc
 50
334.9999999999975
 51
64.99999999999883
  0
LINE
  5
6F
100
AcDbEntity
  8
USP-GEO
100
AcDbLine
 10
5.654049377572313
 20
8.36030588976499
 30
0.0
 11
5.664168136572349
 21
8.36030588976499
 31
0.0
  0
LINE
  5
70
100
AcDbEntity
  8
USP-GEO
100
AcDbLine
 10
5.664168136572335
 20
25.03094866203301
 30
0.0
 11
5.556168136572338
 21
25.03094866203301
 31
0.0
  0
TEXT
  5
71
100
AcDbEntity
  8
USP-TXT
100
AcDbText
 10
-0.8910024440341537
 20
-2.900356442901308
 30
0.0
 40
0.5
  1
PAHD42 - SIDE VIEW
 72
     1
 11
3.525664222632514
 21
-2.900356442901308
 31
0.0
100
AcDbText
  0
ENDBLK
  5
73
100
AcDbEntity
  8
0
100
AcDbBlockEnd
  0
ENDSEC
  0
SECTION
  2
ENTITIES
  0
INSERT
  5
3
100
AcDbEntity
  8
USP
100
AcDbBlockReference
  2
PAHD42_F
 10
3.911594671279981
 20
2.901483195295858
 30
0.0
  0
INSERT
  5
3C
100
AcDbEntity
  8
USP
100
AcDbBlockReference
  2
PAHD42_T
 10
3.911594671280038
 20
33.9202962892448
 30
0.0
  0
INSERT
  5
58
100
AcDbEntity
  8
USP
100
AcDbBlockReference
  2
PAHD42_S
 10
14.4139455663252
 20
2.901483195295864
 30
0.0
  0
ENDSEC
  0
SECTION
  2
OBJECTS
  0
DICTIONARY
  5
8C
102
{ACAD_XDICTIONARY
360
8D
102
}
100
AcDbDictionary
  3
ACAD_GROUP
350
8A
  3
ACAD_MLINESTYLE
350
8B
  0
DICTIONARY
  5
74
100
AcDbDictionary
280
     1
  3
ACAD_LAYOUTSELFREF
360
75
  0
DICTIONARY
  5
79
100
AcDbDictionary
280
     1
  3
ACAD_LAYOUTSELFREF
360
7A
  0
DICTIONARY
  5
8D
100
AcDbDictionary
280
     1
  3
ACAD_XREC_ROUNDTRIP
360
8E
  0
DICTIONARY
  5
8A
102
{ACAD_REACTORS
330
8C
102
}
100
AcDbDictionary
  0
DICTIONARY
  5
8B
102
{ACAD_REACTORS
330
8C
102
}
100
AcDbDictionary
  3
STANDARD
350
8F
  0
XRECORD
  5
75
102
{ACAD_REACTORS
330
74
102
}
100
AcDbXrecord
340
18
  0
XRECORD
  5
7A
102
{ACAD_REACTORS
330
79
102
}
100
AcDbXrecord
340
15
  0
XRECORD
  5
8E
102
{ACAD_REACTORS
330
8D
102
}
100
AcDbXrecord
102
EXTNAMES
  1
ACDBVARIABLEDICTIONARY
  2
AcDbVariableDictionary
  0
MLINESTYLE
  5
8F
102
{ACAD_REACTORS
330
8B
102
}
100
AcDbMlineStyle
  2
STANDARD
 70
     0
  3

 62
     0
 51
90.0
 52
90.0
 71
     2
 49
0.5
 62
   256
  6
BYLAYER
 49
-0.5
 62
   256
  6
BYLAYER
  0
ENDSEC
  0
EOF
