  0
SECTION
  2
HEADER
  9
$ACADVER
  1
AC1014
  9
$ACADMAINTVER
 70
     9
  9
$DWGCODEPAGE
  3
ANSI_1252
  9
$INSBASE
 10
0.0
 20
0.0
 30
0.0
  9
$EXTMIN
 10
0.0025363603776042
 20
0.0019582949218488
 30
0.0
  9
$EXTMAX
 10
25.64033827586987
 20
36.73392849901387
 30
0.0
  9
$LIMMIN
 10
0.0
 20
0.0
  9
$LIMMAX
 10
83.11779814095341
 20
64.17430403580545
  9
$ORTHOMODE
 70
     0
  9
$REGENMODE
 70
     1
  9
$FILLMODE
 70
     1
  9
$QTEXTMODE
 70
     0
  9
$MIRRTEXT
 70
     0
  9
$DRAGMODE
 70
     2
  9
$LTSCALE
 40
1.0
  9
$OSMODE
 70
    37
  9
$ATTMODE
 70
     1
  9
$TEXTSIZE
 40
1.5
  9
$TRACEWID
 40
0.05
  9
$TEXTSTYLE
  7
STANDARD
  9
$CLAYER
  8
0
  9
$CELTYPE
  6
BYLAYER
  9
$CECOLOR
 62
   256
  9
$CELTSCALE
 40
1.0
  9
$DELOBJ
 70
     1
  9
$DISPSILH
 70
     0
  9
$DIMSCALE
 40
4.25
  9
$DIMASZ
 40
0.18
  9
$DIMEXO
 40
0.09
  9
$DIMDLI
 40
0.38
  9
$DIMRND
 40
0.0
  9
$DIMDLE
 40
0.0
  9
$DIMEXE
 40
0.125
  9
$DIMTP
 40
0.0
  9
$DIMTM
 40
0.0
  9
$DIMTXT
 40
0.125
  9
$DIMCEN
 40
0.09
  9
$DIMTSZ
 40
0.0
  9
$DIMTOL
 70
     0
  9
$DIMLIM
 70
     0
  9
$DIMTIH
 70
     1
  9
$DIMTOH
 70
     1
  9
$DIMSE1
 70
     0
  9
$DIMSE2
 70
     0
  9
$DIMTAD
 70
     0
  9
$DIMZIN
 70
     0
  9
$DIMBLK
  1

  9
$DIMASO
 70
     0
  9
$DIMSHO
 70
     0
  9
$DIMPOST
  1

  9
$DIMAPOST
  1

  9
$DIMALT
 70
     0
  9
$DIMALTD
 70
     2
  9
$DIMALTF
 40
25.4
  9
$DIMLFAC
 40
1.0
  9
$DIMTOFL
 70
     0
  9
$DIMTVP
 40
0.0
  9
$DIMTIX
 70
     0
  9
$DIMSOXD
 70
     0
  9
$DIMSAH
 70
     0
  9
$DIMBLK1
  1

  9
$DIMBLK2
  1

  9
$DIMSTYLE
  2
STANDARD
  9
$DIMCLRD
 70
     0
  9
$DIMCLRE
 70
     0
  9
$DIMCLRT
 70
     0
  9
$DIMTFAC
 40
1.0
  9
$DIMGAP
 40
0.09
  9
$DIMJUST
 70
     0
  9
$DIMSD1
 70
     0
  9
$DIMSD2
 70
     0
  9
$DIMTOLJ
 70
     1
  9
$DIMTZIN
 70
     0
  9
$DIMALTZ
 70
     0
  9
$DIMALTTZ
 70
     0
  9
$DIMFIT
 70
     3
  9
$DIMUPT
 70
     0
  9
$DIMUNIT
 70
     2
  9
$DIMDEC
 70
     4
  9
$DIMTDEC
 70
     4
  9
$DIMALTU
 70
     2
  9
$DIMALTTD
 70
     2
  9
$DIMTXSTY
  7
STANDARD
  9
$DIMAUNIT
 70
     0
  9
$LUNITS
 70
     5
  9
$LUPREC
 70
     6
  9
$SKETCHINC
 40
0.1
  9
$FILLETRAD
 40
0.09375
  9
$AUNITS
 70
     0
  9
$AUPREC
 70
     1
  9
$MENU
  1
CUSTOM
  9
$ELEVATION
 40
0.0
  9
$PELEVATION
 40
0.0
  9
$THICKNESS
 40
0.0
  9
$LIMCHECK
 70
     0
  9
$BLIPMODE
 70
     0
  9
$CHAMFERA
 40
0.0
  9
$CHAMFERB
 40
0.0
  9
$CHAMFERC
 40
0.0
  9
$CHAMFERD
 40
0.0
  9
$SKPOLY
 70
     0
  9
$TDCREATE
 40
2447916.488776389
  9
$TDUPDATE
 40
2452759.746308229
  9
$TDINDWG
 40
0.0894888542
  9
$TDUSRTIMER
 40
0.0894888542
  9
$USRTIMER
 70
     1
  9
$ANGBASE
 50
0.0
  9
$ANGDIR
 70
     0
  9
$PDMODE
 70
     0
  9
$PDSIZE
 40
0.0
  9
$PLINEWID
 40
0.0
  9
$COORDS
 70
     1
  9
$SPLFRAME
 70
     0
  9
$SPLINETYPE
 70
     6
  9
$SPLINESEGS
 70
     8
  9
$ATTDIA
 70
     0
  9
$ATTREQ
 70
     1
  9
$HANDLING
 70
     1
  9
$HANDSEED
  5
78
  9
$SURFTAB1
 70
     6
  9
$SURFTAB2
 70
     6
  9
$SURFTYPE
 70
     6
  9
$SURFU
 70
     6
  9
$SURFV
 70
     6
  9
$UCSNAME
  2

  9
$UCSORG
 10
0.0
 20
0.0
 30
0.0
  9
$UCSXDIR
 10
1.0
 20
0.0
 30
0.0
  9
$UCSYDIR
 10
0.0
 20
1.0
 30
0.0
  9
$PUCSNAME
  2

  9
$PUCSORG
 10
0.0
 20
0.0
 30
0.0
  9
$PUCSXDIR
 10
1.0
 20
0.0
 30
0.0
  9
$PUCSYDIR
 10
0.0
 20
1.0
 30
0.0
  9
$USERI1
 70
     0
  9
$USERI2
 70
     0
  9
$USERI3
 70
     0
  9
$USERI4
 70
     0
  9
$USERI5
 70
     0
  9
$USERR1
 40
0.0
  9
$USERR2
 40
0.0
  9
$USERR3
 40
0.0
  9
$USERR4
 40
0.0
  9
$USERR5
 40
0.0
  9
$WORLDVIEW
 70
     1
  9
$SHADEDGE
 70
     3
  9
$SHADEDIF
 70
    70
  9
$TILEMODE
 70
     1
  9
$MAXACTVP
 70
    16
  9
$PINSBASE
 10
0.0
 20
0.0
 30
0.0
  9
$PLIMCHECK
 70
     0
  9
$PEXTMIN
 10
1.000000000000000E+20
 20
1.000000000000000E+20
 30
1.000000000000000E+20
  9
$PEXTMAX
 10
-1.000000000000000E+20
 20
-1.000000000000000E+20
 30
-1.000000000000000E+20
  9
$PLIMMIN
 10
0.0
 20
0.0
  9
$PLIMMAX
 10
12.0
 20
9.0
  9
$UNITMODE
 70
     0
  9
$VISRETAIN
 70
     0
  9
$PLINEGEN
 70
     0
  9
$PSLTSCALE
 70
     0
  9
$TREEDEPTH
 70
  3020
  9
$PICKSTYLE
 70
     1
  9
$CMLSTYLE
  2
STANDARD
  9
$CMLJUST
 70
     0
  9
$CMLSCALE
 40
1.0
  9
$PROXYGRAPHICS
 70
     1
  9
$MEASUREMENT
 70
     0
  0
ENDSEC
  0
SECTION
  2
CLASSES
  0
CLASS
  1
ACDBDICTIONARYWDFLT
  2
AcDbDictionaryWithDefault
  3
AutoCAD 2000
 90
        0
280
     1
281
     0
  0
CLASS
  1
ACDBPLACEHOLDER
  2
AcDbPlaceHolder
  3
AutoCAD 2000
 90
        0
280
     1
281
     0
  0
CLASS
  1
LAYOUT
  2
AcDbLayout
  3
AutoCAD 2000
 90
        0
280
     1
281
     0
  0
CLASS
  1
LONG_TRANSACTION
  2
AcDbLongTransaction
  3
AutoCAD 2000
 90
        0
280
     1
281
     0
  0
CLASS
  1
LWPOLYLINE
  2
AcDbPolyline
  3
"AutoCAD"
 90
        0
280
     1
281
     1
  0
CLASS
  1
HATCH
  2
AcDbHatch
  3
"ACAD_SEDONA"
 90
        0
280
     1
281
     1
  0
CLASS
  1
XRECORD
  2
AcDbXrecord
  3
"<Built In>"
 90
        0
280
     0
281
     0
  0
CLASS
  1
LONG_TRANSACTION
  2
AcDbLongTransaction
  3
AutoCAD 2000
 90
        0
280
     1
281
     0
  0
CLASS
  1
LWPOLYLINE
  2
AcDbPolyline
  3
"AutoCAD"
 90
        0
280
     1
281
     1
  0
CLASS
  1
HATCH
  2
AcDbHatch
  3
"ACAD_SEDONA"
 90
        0
280
     1
281
     1
  0
CLASS
  1
XRECORD
  2
AcDbXrecord
  3
"<Built In>"
 90
        0
280
     0
281
     0
  0
CLASS
  1
LONG_TRANSACTION
  2
AcDbLongTransaction
  3
AutoCAD 2000
 90
        0
280
     1
281
     0
  0
CLASS
  1
LWPOLYLINE
  2
AcDbPolyline
  3
"AutoCAD"
 90
        0
280
     1
281
     1
  0
CLASS
  1
HATCH
  2
AcDbHatch
  3
"ACAD_SEDONA"
 90
        0
280
     1
281
     1
  0
CLASS
  1
XRECORD
  2
AcDbXrecord
  3
"<Built In>"
 90
        0
280
     0
281
     0
  0
CLASS
  1
DICTIONARYVAR
  2
AcDbDictionaryVar
  3
"AutoCAD"
 90
        0
280
     0
281
     0
  0
CLASS
  1
LONG_TRANSACTION
  2
AcDbLongTransaction
  3
AutoCAD 2000
 90
        0
280
     0
281
     0
  0
CLASS
  1
LWPOLYLINE
  2
AcDbPolyline
  3
"AutoCAD"
 90
        0
280
     0
281
     1
  0
CLASS
  1
HATCH
  2
AcDbHatch
  3
"ACAD_SEDONA"
 90
        0
280
     0
281
     1
  0
CLASS
  1
XRECORD
  2
AcDbXrecord
  3
"<Built In>"
 90
        0
280
     0
281
     0
  0
CLASS
  1
LONG_TRANSACTION
  2
AcDbLongTransaction
  3
AutoCAD 2000
 90
        0
280
     0
281
     0
  0
CLASS
  1
LWPOLYLINE
  2
AcDbPolyline
  3
"AutoCAD"
 90
        0
280
     0
281
     1
  0
CLASS
  1
HATCH
  2
AcDbHatch
  3
"ACAD_SEDONA"
 90
        0
280
     0
281
     1
  0
CLASS
  1
XRECORD
  2
AcDbXrecord
  3
"<Built In>"
 90
        0
280
     0
281
     0
  0
ENDSEC
  0
SECTION
  2
TABLES
  0
TABLE
  2
VPORT
  5
5A
100
AcDbSymbolTable
 70
     1
  0
VPORT
  5
74
100
AcDbSymbolTableRecord
100
AcDbViewportTableRecord
  2
*ACTIVE
 70
     0
 10
0.0
 20
0.0
 11
1.0
 21
1.0
 12
12.82393997786259
 22
18.82172430138891
 13
0.0
 23
0.0
 14
1.0
 24
1.0
 15
1.25
 25
1.25
 16
0.0
 26
0.0
 36
1.0
 17
0.0
 27
0.0
 37
0.0
 40
37.91095129306254
 41
1.457627118644067
 42
50.0
 43
0.0
 44
0.0
 50
0.0
 51
0.0
 71
     0
 72
   100
 73
     1
 74
     0
 75
     0
 76
     0
 77
     0
 78
     0
  0
ENDTAB
  0
TABLE
  2
LTYPE
  5
55
100
AcDbSymbolTable
 70
     2
  0
LTYPE
  5
56
100
AcDbSymbolTableRecord
100
AcDbLinetypeTableRecord
  2
BYBLOCK
 70
     0
  3

 72
    65
 73
     0
 40
0.0
  0
LTYPE
  5
57
100
AcDbSymbolTableRecord
100
AcDbLinetypeTableRecord
  2
BYLAYER
 70
     0
  3

 72
    65
 73
     0
 40
0.0
  0
LTYPE
  5
5
100
AcDbSymbolTableRecord
100
AcDbLinetypeTableRecord
  2
CONTINUOUS
 70
     0
  3
Solid line
 72
    65
 73
     0
 40
0.0
  0
LTYPE
  5
15
100
AcDbSymbolTableRecord
100
AcDbLinetypeTableRecord
  2
HIDDEN
 70
     0
  3
Hidden __ __ __ __ __ __ __ __ __ __ __ __ __ _
 72
    65
 73
     2
 40
0.375
 49
0.25
 74
     0
 49
-0.125
 74
     0
  0
ENDTAB
  0
TABLE
  2
LAYER
  5
53
100
AcDbSymbolTable
 70
     5
  0
LAYER
  5
37
100
AcDbSymbolTableRecord
100
AcDbLayerTableRecord
  2
0
 70
     0
 62
     7
  6
CONTINUOUS
  0
LAYER
  5
14
100
AcDbSymbolTableRecord
100
AcDbLayerTableRecord
  2
USP-HID
 70
     0
 62
     7
  6
HIDDEN
  0
LAYER
  5
8
100
AcDbSymbolTableRecord
100
AcDbLayerTableRecord
  2
USP-GEO
 70
     0
 62
     7
  6
CONTINUOUS
  0
LAYER
  5
C
100
AcDbSymbolTableRecord
100
AcDbLayerTableRecord
  2
USP-TXT
 70
     0
 62
     7
  6
CONTINUOUS
  0
LAYER
  5
4
100
AcDbSymbolTableRecord
100
AcDbLayerTableRecord
  2
USP
 70
     0
 62
     7
  6
CONTINUOUS
  0
ENDTAB
  0
TABLE
  2
STYLE
  5
54
100
AcDbSymbolTable
 70
     1
  0
STYLE
  5
D
100
AcDbSymbolTableRecord
100
AcDbTextStyleTableRecord
  2
STANDARD
 70
     0
 40
0.0
 41
1.0
 50
0.0
 71
     0
 42
1.5
  3
txt
  4

  0
ENDTAB
  0
TABLE
  2
VIEW
  5
58
100
AcDbSymbolTable
 70
     0
  0
ENDTAB
  0
TABLE
  2
UCS
  5
59
100
AcDbSymbolTable
 70
     0
  0
ENDTAB
  0
TABLE
  2
APPID
  5
5C
100
AcDbSymbolTable
 70
     1
  0
APPID
  5
5D
100
AcDbSymbolTableRecord
100
AcDbRegAppTableRecord
  2
ACAD
 70
     0
  0
ENDTAB
  0
TABLE
  2
DIMSTYLE
  5
5E
100
AcDbSymbolTable
 70
     1
  0
DIMSTYLE
105
66
100
AcDbSymbolTableRecord
100
AcDbDimStyleTableRecord
  2
STANDARD
 70
     0
  3

  4

  5

  6

  7

 40
1.0
 41
0.18
 42
0.0625
 43
0.38
 44
0.18
 45
0.0
 46
0.0
 47
0.0
 48
0.0
140
0.18
141
0.09
142
0.0
143
25.4
144
1.0
145
0.0
146
1.0
147
0.09
 71
     0
 72
     0
 73
     1
 74
     1
 75
     0
 76
     0
 77
     0
 78
     0
170
     0
171
     2
172
     0
173
     0
174
     0
175
     0
176
     0
177
     0
178
     0
270
     2
271
     4
272
     4
273
     2
274
     2
340
D
275
     0
280
     0
281
     0
282
     0
283
     1
284
     0
285
     0
286
     0
287
     3
288
     0
  0
ENDTAB
  0
TABLE
  2
BLOCK_RECORD
  5
1
100
AcDbSymbolTable
 70
     2
  0
BLOCK_RECORD
  5
2
102
{ACAD_XDICTIONARY
360
4A
102
}
100
AcDbSymbolTableRecord
100
AcDbBlockTableRecord
  2
*MODEL_SPACE
  0
BLOCK_RECORD
  5
4E
102
{ACAD_XDICTIONARY
360
4F
102
}
100
AcDbSymbolTableRecord
100
AcDbBlockTableRecord
  2
*PAPER_SPACE
  0
BLOCK_RECORD
  5
6
100
AcDbSymbolTableRecord
100
AcDbBlockTableRecord
  2
PA35_F
  0
BLOCK_RECORD
  5
3A
100
AcDbSymbolTableRecord
100
AcDbBlockTableRecord
  2
PA35_S
  0
ENDTAB
  0
ENDSEC
  0
SECTION
  2
BLOCKS
  0
BLOCK
  5
4C
100
AcDbEntity
  8
0
100
AcDbBlockBegin
  2
*MODEL_SPACE
 70
     0
 10
0.0
 20
0.0
 30
0.0
  3
*MODEL_SPACE
  1

  0
ENDBLK
  5
4D
100
AcDbEntity
  8
0
100
AcDbBlockEnd
  0
BLOCK
  5
51
100
AcDbEntity
 67
     1
  8
0
100
AcDbBlockBegin
  2
*PAPER_SPACE
 70
     0
 10
0.0
 20
0.0
 30
0.0
  3
*PAPER_SPACE
  1

  0
ENDBLK
  5
52
100
AcDbEntity
 67
     1
  8
0
100
AcDbBlockEnd
  0
BLOCK
  5
36
100
AcDbEntity
  8
0
100
AcDbBlockBegin
  2
PA35_F
 70
     0
 10
0.0
 20
0.0
 30
0.0
  3
PA35_F
  1

  0
CIRCLE
  5
7
100
AcDbEntity
  8
USP-GEO
100
AcDbCircle
 10
1.641736185943556
 20
31.99999999999998
 30
0.0
 40
0.09
  0
LINE
  5
9
100
AcDbEntity
  8
USP-GEO
100
AcDbLine
 10
-0.1395138140564431
 20
2.374999999999985
 30
0.0
 11
-0.1395138140564414
 21
35.37499999999998
 31
0.0
  0
LINE
  5
A
100
AcDbEntity
  8
USP-GEO
100
AcDbLine
 10
1.922986185943556
 20
2.374999999999985
 30
0.0
 11
1.92298618594356
 21
35.37499999999998
 31
0.0
  0
TEXT
  5
B
100
AcDbEntity
  8
USP-TXT
100
AcDbText
 10
-5.648763814056396
 20
-1.356970204092021
 30
0.0
 40
0.7695
  1
PA35 - FRONT VIEW
 72
     1
 11
0.8919861859436007
 21
-1.356970204092021
 31
0.0
100
AcDbText
  0
LINE
  5
E
100
AcDbEntity
  8
USP-GEO
100
AcDbLine
 10
1.829263158759995
 20
2.283498705304797
 30
0.0
 11
1.780473235265648
 21
0.2499999999999858
 31
0.0
  0
LINE
  5
F
100
AcDbEntity
  8
USP-GEO
100
AcDbLine
 10
-0.0457907868728893
 20
2.28349870530479
 30
0.0
 11
0.002999136621479
 21
0.2499999999999858
 31
0.0
  0
ARC
  5
10
100
AcDbEntity
  8
USP-GEO
100
AcDbCircle
 10
0.8919861859435794
 20
1.424999999999997
 30
0.0
 40
0.2499999999999858
100
AcDbArc
 50
0.0
 51
180.0
  0
LINE
  5
11
100
AcDbEntity
  8
USP-GEO
100
AcDbLine
 10
0.002999136621479
 20
0.2499999999999858
 30
0.0
 11
1.780473235265648
 21
0.2499999999999858
 31
0.0
  0
ARC
  5
12
100
AcDbEntity
  8
USP-GEO
100
AcDbCircle
 10
0.8919861859436007
 20
0.2499999999999858
 30
0.0
 40
0.2499999999999858
100
AcDbArc
 50
180.0
 51
0.0
  0
LINE
  5
13
100
AcDbEntity
  8
USP-HID
100
AcDbLine
 10
-0.0000000000000004
 20
0.3749999999999858
 30
0.0
 11
1.783472371887114
 21
0.3749999999999858
 31
0.0
  0
LINE
  5
16
100
AcDbEntity
  8
USP-GEO
100
AcDbLine
 10
0.6419861859435936
 20
1.424999999999997
 30
0.0
 11
0.6419861859435865
 21
0.2499999999999858
 31
0.0
  0
LINE
  5
17
100
AcDbEntity
  8
USP-GEO
100
AcDbLine
 10
1.141986185943593
 20
1.424999999999997
 30
0.0
 11
1.141986185943586
 21
0.2499999999999858
 31
0.0
  0
ARC
  5
18
100
AcDbEntity
  8
USP-GEO
100
AcDbCircle
 10
-0.1395138140564573
 20
2.281249999999978
 30
0.0
 40
0.09375
100
AcDbArc
 50
1.374439264754778
 51
89.99999999999959
  0
ARC
  5
19
100
AcDbEntity
  8
USP-GEO
100
AcDbCircle
 10
1.922986185943564
 20
2.281249999999985
 30
0.0
 40
0.09375
100
AcDbArc
 50
90.0
 51
178.6255607352456
  0
CIRCLE
  5
1A
100
AcDbEntity
  8
USP-GEO
100
AcDbCircle
 10
0.1417361859435569
 20
16.24999999999998
 30
0.0
 40
0.09
  0
CIRCLE
  5
1B
100
AcDbEntity
  8
USP-GEO
100
AcDbCircle
 10
0.1417361859435569
 20
17.74999999999998
 30
0.0
 40
0.09
  0
CIRCLE
  5
1C
100
AcDbEntity
  8
USP-GEO
100
AcDbCircle
 10
0.1417361859435569
 20
19.24999999999998
 30
0.0
 40
0.09
  0
CIRCLE
  5
1D
100
AcDbEntity
  8
USP-GEO
100
AcDbCircle
 10
1.641736185943556
 20
16.99999999999998
 30
0.0
 40
0.09
  0
CIRCLE
  5
1E
100
AcDbEntity
  8
USP-GEO
100
AcDbCircle
 10
1.641736185943556
 20
18.49999999999998
 30
0.0
 40
0.09
  0
CIRCLE
  5
1F
100
AcDbEntity
  8
USP-GEO
100
AcDbCircle
 10
0.8917361859435569
 20
20.37500000000004
 30
0.0
 40
0.28
  0
CIRCLE
  5
20
100
AcDbEntity
  8
USP-GEO
100
AcDbCircle
 10
0.1417361859435569
 20
20.74999999999998
 30
0.0
 40
0.09
  0
CIRCLE
  5
21
100
AcDbEntity
  8
USP-GEO
100
AcDbCircle
 10
1.641736185943556
 20
19.99999999999998
 30
0.0
 40
0.09
  0
CIRCLE
  5
22
100
AcDbEntity
  8
USP-GEO
100
AcDbCircle
 10
1.641736185943556
 20
21.49999999999998
 30
0.0
 40
0.09
  0
CIRCLE
  5
23
100
AcDbEntity
  8
USP-GEO
100
AcDbCircle
 10
1.641736185943556
 20
24.49999999999998
 30
0.0
 40
0.09
  0
CIRCLE
  5
24
100
AcDbEntity
  8
USP-GEO
100
AcDbCircle
 10
0.1417361859435569
 20
22.24999999999998
 30
0.0
 40
0.09
  0
CIRCLE
  5
25
100
AcDbEntity
  8
USP-GEO
100
AcDbCircle
 10
0.1417361859435569
 20
23.74999999999998
 30
0.0
 40
0.09
  0
CIRCLE
  5
26
100
AcDbEntity
  8
USP-GEO
100
AcDbCircle
 10
1.641736185943556
 20
22.99999999999998
 30
0.0
 40
0.09
  0
CIRCLE
  5
27
100
AcDbEntity
  8
USP-GEO
100
AcDbCircle
 10
0.8917361859435569
 20
24.87500000000004
 30
0.0
 40
0.28
  0
CIRCLE
  5
28
100
AcDbEntity
  8
USP-GEO
100
AcDbCircle
 10
0.1417361859435569
 20
25.24999999999998
 30
0.0
 40
0.09
  0
CIRCLE
  5
29
100
AcDbEntity
  8
USP-GEO
100
AcDbCircle
 10
0.1417361859435569
 20
26.74999999999998
 30
0.0
 40
0.09
  0
CIRCLE
  5
2A
100
AcDbEntity
  8
USP-GEO
100
AcDbCircle
 10
1.641736185943556
 20
25.99999999999998
 30
0.0
 40
0.09
  0
CIRCLE
  5
2B
100
AcDbEntity
  8
USP-GEO
100
AcDbCircle
 10
0.8917361859435569
 20
29.37500000000004
 30
0.0
 40
0.28
  0
CIRCLE
  5
2C
100
AcDbEntity
  8
USP-GEO
100
AcDbCircle
 10
0.1417361859435569
 20
28.24999999999998
 30
0.0
 40
0.09
  0
CIRCLE
  5
2D
100
AcDbEntity
  8
USP-GEO
100
AcDbCircle
 10
1.641736185943556
 20
27.49999999999998
 30
0.0
 40
0.09
  0
CIRCLE
  5
2E
100
AcDbEntity
  8
USP-GEO
100
AcDbCircle
 10
1.641736185943556
 20
28.99999999999998
 30
0.0
 40
0.09
  0
CIRCLE
  5
2F
100
AcDbEntity
  8
USP-GEO
100
AcDbCircle
 10
0.1417361859435569
 20
29.74999999999998
 30
0.0
 40
0.09
  0
CIRCLE
  5
30
100
AcDbEntity
  8
USP-GEO
100
AcDbCircle
 10
0.1417361859435586
 20
31.24999999999998
 30
0.0
 40
0.09
  0
CIRCLE
  5
31
100
AcDbEntity
  8
USP-GEO
100
AcDbCircle
 10
1.641736185943556
 20
30.49999999999998
 30
0.0
 40
0.09
  0
CIRCLE
  5
32
100
AcDbEntity
  8
USP-GEO
100
AcDbCircle
 10
0.8917361859435569
 20
33.87500000000004
 30
0.0
 40
0.28
  0
CIRCLE
  5
33
100
AcDbEntity
  8
USP-GEO
100
AcDbCircle
 10
0.1417361859435586
 20
32.74999999999998
 30
0.0
 40
0.09
  0
CIRCLE
  5
34
100
AcDbEntity
  8
USP-GEO
100
AcDbCircle
 10
1.641736185943556
 20
33.49999999999998
 30
0.0
 40
0.09
  0
LINE
  5
35
100
AcDbEntity
  8
USP-GEO
100
AcDbLine
 10
-0.1395138140564414
 20
35.37499999999998
 30
0.0
 11
1.92298618594356
 21
35.37499999999998
 31
0.0
  0
ENDBLK
  5
38
100
AcDbEntity
  8
0
100
AcDbBlockEnd
  0
BLOCK
  5
48
100
AcDbEntity
  8
0
100
AcDbBlockBegin
  2
PA35_S
 70
     0
 10
0.0
 20
0.0
 30
0.0
  3
PA35_S
  1

  0
LINE
  5
3B
100
AcDbEntity
  8
USP-GEO
100
AcDbLine
 10
0.3749999999997708
 20
35.375
 30
0.0
 11
0.3749999999997779
 21
0.375
 31
0.0
  0
LINE
  5
3C
100
AcDbEntity
  8
USP-GEO
100
AcDbLine
 10
0.2499999999997779
 20
35.375
 30
0.0
 11
0.2499999999997779
 21
0.25
 31
0.0
  0
TEXT
  5
3D
100
AcDbEntity
  8
USP-TXT
100
AcDbText
 10
-4.840250000000219
 20
-1.356970204092021
 30
0.0
 40
0.7695
  1
PA35 - SIDE VIEW
 72
     1
 11
1.187499999999777
 21
-1.356970204092021
 31
0.0
100
AcDbText
  0
ARC
  5
3E
100
AcDbEntity
  8
USP-GEO
100
AcDbCircle
 10
0.5999878962063132
 20
1.171067554916405
 30
0.0
 40
0.8020019533090829
100
AcDbArc
 50
115.8739545108647
 51
138.4271628818795
  0
LINE
  5
3F
100
AcDbEntity
  8
USP-GEO
100
AcDbLine
 10
0.2499999999997779
 20
0.25
 30
0.0
 11
2.374999999999777
 21
0.25
 31
0.0
  0
LINE
  5
40
100
AcDbEntity
  8
USP-GEO
100
AcDbLine
 10
0.3749999999997779
 20
0.375
 30
0.0
 11
2.374999999999777
 21
0.375
 31
0.0
  0
LINE
  5
41
100
AcDbEntity
  8
USP-GEO
100
AcDbLine
 10
0.2971659524523087
 20
0.0
 30
0.0
 11
1.898598412166327
 21
0.0
 31
0.0
  0
LINE
  5
42
100
AcDbEntity
  8
USP-GEO
100
AcDbLine
 10
-0.0000000000002238
 20
1.70325329083684
 30
0.0
 11
-0.0000000000002238
 21
0.25
 31
0.0
  0
ARC
  5
43
100
AcDbEntity
  8
USP-GEO
100
AcDbCircle
 10
0.1639738262215769
 20
0.1445517443498687
 30
0.0
 40
0.1965587680170354
100
AcDbArc
 50
146.5350081269795
 51
312.6579298630276
  0
ARC
  5
44
100
AcDbEntity
  8
USP-GEO
100
AcDbCircle
 10
1.642967951121461
 20
0.2518744837872404
 30
0.0
 40
0.3588700157398741
100
AcDbArc
 50
315.4240307765669
 51
359.7007259078984
  0
LINE
  5
45
100
AcDbEntity
  8
USP-GEO
100
AcDbLine
 10
2.374999999999777
 20
0.375
 30
0.0
 11
2.374999999999777
 21
0.25
 31
0.0
  0
LINE
  5
46
100
AcDbEntity
  8
USP-GEO
100
AcDbLine
 10
0.3749999999997779
 20
2.375
 30
0.0
 11
0.2499999999997779
 21
2.375
 31
0.0
  0
LINE
  5
47
100
AcDbEntity
  8
USP-GEO
100
AcDbLine
 10
0.2499999999997779
 20
35.375
 30
0.0
 11
0.3749999999997779
 21
35.375
 31
0.0
  0
ENDBLK
  5
49
100
AcDbEntity
  8
0
100
AcDbBlockEnd
  0
ENDSEC
  0
SECTION
  2
ENTITIES
  0
INSERT
  5
3
100
AcDbEntity
  8
USP
100
AcDbBlockReference
  2
PA35_F
 10
5.651300174434
 20
1.358928499013887
 30
0.0
  0
INSERT
  5
39
100
AcDbEntity
  8
USP
100
AcDbBlockReference
  2
PA35_S
 10
18.42508827587009
 20
1.358928499013871
 30
0.0
  0
ENDSEC
  0
SECTION
  2
OBJECTS
  0
DICTIONARY
  5
62
102
{ACAD_XDICTIONARY
360
63
102
}
100
AcDbDictionary
  3
ACAD_GROUP
350
60
  3
ACAD_MLINESTYLE
350
61
  0
DICTIONARY
  5
4A
100
AcDbDictionary
280
     1
  3
ACAD_LAYOUTSELFREF
360
4B
  0
DICTIONARY
  5
4F
100
AcDbDictionary
280
     1
  3
ACAD_LAYOUTSELFREF
360
50
  0
DICTIONARY
  5
63
100
AcDbDictionary
280
     1
  3
ACAD_XREC_ROUNDTRIP
360
64
  0
DICTIONARY
  5
60
102
{ACAD_REACTORS
330
62
102
}
100
AcDbDictionary
  0
DICTIONARY
  5
61
102
{ACAD_REACTORS
330
62
102
}
100
AcDbDictionary
  3
STANDARD
350
65
  0
XRECORD
  5
4B
102
{ACAD_REACTORS
330
4A
102
}
100
AcDbXrecord
340
2
  0
XRECORD
  5
50
102
{ACAD_REACTORS
330
4F
102
}
100
AcDbXrecord
340
4F
  0
XRECORD
  5
64
102
{ACAD_REACTORS
330
63
102
}
100
AcDbXrecord
102
EXTNAMES
  1
ACDBVARIABLEDICTIONARY
  2
AcDbVariableDictionary
  0
MLINESTYLE
  5
65
102
{ACAD_REACTORS
330
61
102
}
100
AcDbMlineStyle
  2
STANDARD
 70
     0
  3

 62
     0
 51
90.0
 52
90.0
 71
     2
 49
0.5
 62
   256
  6
BYLAYER
 49
-0.5
 62
   256
  6
BYLAYER
  0
ENDSEC
  0
EOF
