  0
SECTION
  2
HEADER
  9
$ACADVER
  1
AC1014
  9
$ACADMAINTVER
 70
     9
  9
$DWGCODEPAGE
  3
ANSI_1252
  9
$INSBASE
 10
0.0
 20
0.0
 30
0.0
  9
$EXTMIN
 10
0.0005945343545619
 20
0.0009499193703562
 30
-0.0000000000000009
  9
$EXTMAX
 10
19.48210232850034
 20
31.12746559737255
 30
0.0000000000000028
  9
$LIMMIN
 10
0.0
 20
0.0
  9
$LIMMAX
 10
12.0
 20
9.0
  9
$ORTHOMODE
 70
     0
  9
$REGENMODE
 70
     1
  9
$FILLMODE
 70
     1
  9
$QTEXTMODE
 70
     0
  9
$MIRRTEXT
 70
     1
  9
$DRAGMODE
 70
     2
  9
$LTSCALE
 40
1.0
  9
$OSMODE
 70
    37
  9
$ATTMODE
 70
     1
  9
$TEXTSIZE
 40
0.5
  9
$TRACEWID
 40
0.05
  9
$TEXTSTYLE
  7
STANDARD
  9
$CLAYER
  8
0
  9
$CELTYPE
  6
BYLAYER
  9
$CECOLOR
 62
   256
  9
$CELTSCALE
 40
1.0
  9
$DELOBJ
 70
     1
  9
$DISPSILH
 70
     0
  9
$DIMSCALE
 40
1.0
  9
$DIMASZ
 40
0.18
  9
$DIMEXO
 40
0.0625
  9
$DIMDLI
 40
0.38
  9
$DIMRND
 40
0.0
  9
$DIMDLE
 40
0.0
  9
$DIMEXE
 40
0.18
  9
$DIMTP
 40
0.0
  9
$DIMTM
 40
0.0
  9
$DIMTXT
 40
0.18
  9
$DIMCEN
 40
0.09
  9
$DIMTSZ
 40
0.0
  9
$DIMTOL
 70
     0
  9
$DIMLIM
 70
     0
  9
$DIMTIH
 70
     1
  9
$DIMTOH
 70
     1
  9
$DIMSE1
 70
     0
  9
$DIMSE2
 70
     0
  9
$DIMTAD
 70
     0
  9
$DIMZIN
 70
     0
  9
$DIMBLK
  1

  9
$DIMASO
 70
     1
  9
$DIMSHO
 70
     1
  9
$DIMPOST
  1

  9
$DIMAPOST
  1

  9
$DIMALT
 70
     0
  9
$DIMALTD
 70
     2
  9
$DIMALTF
 40
25.4
  9
$DIMLFAC
 40
1.0
  9
$DIMTOFL
 70
     0
  9
$DIMTVP
 40
0.0
  9
$DIMTIX
 70
     0
  9
$DIMSOXD
 70
     0
  9
$DIMSAH
 70
     0
  9
$DIMBLK1
  1

  9
$DIMBLK2
  1

  9
$DIMSTYLE
  2
STANDARD
  9
$DIMCLRD
 70
     0
  9
$DIMCLRE
 70
     0
  9
$DIMCLRT
 70
     0
  9
$DIMTFAC
 40
1.0
  9
$DIMGAP
 40
0.09
  9
$DIMJUST
 70
     0
  9
$DIMSD1
 70
     0
  9
$DIMSD2
 70
     0
  9
$DIMTOLJ
 70
     1
  9
$DIMTZIN
 70
     0
  9
$DIMALTZ
 70
     0
  9
$DIMALTTZ
 70
     0
  9
$DIMFIT
 70
     3
  9
$DIMUPT
 70
     0
  9
$DIMUNIT
 70
     2
  9
$DIMDEC
 70
     4
  9
$DIMTDEC
 70
     4
  9
$DIMALTU
 70
     2
  9
$DIMALTTD
 70
     2
  9
$DIMTXSTY
  7
STANDARD
  9
$DIMAUNIT
 70
     0
  9
$LUNITS
 70
     2
  9
$LUPREC
 70
     4
  9
$SKETCHINC
 40
0.1
  9
$FILLETRAD
 40
0.5
  9
$AUNITS
 70
     0
  9
$AUPREC
 70
     0
  9
$MENU
  1
.
  9
$ELEVATION
 40
0.0
  9
$PELEVATION
 40
0.0
  9
$THICKNESS
 40
0.0
  9
$LIMCHECK
 70
     0
  9
$BLIPMODE
 70
     0
  9
$CHAMFERA
 40
0.5
  9
$CHAMFERB
 40
0.5
  9
$CHAMFERC
 40
1.0
  9
$CHAMFERD
 40
0.0
  9
$SKPOLY
 70
     0
  9
$TDCREATE
 40
2451675.885797453
  9
$TDUPDATE
 40
2452759.746279109
  9
$TDINDWG
 40
0.0227658102
  9
$TDUSRTIMER
 40
0.0227575926
  9
$USRTIMER
 70
     1
  9
$ANGBASE
 50
0.0
  9
$ANGDIR
 70
     0
  9
$PDMODE
 70
     0
  9
$PDSIZE
 40
0.0
  9
$PLINEWID
 40
0.0
  9
$COORDS
 70
     1
  9
$SPLFRAME
 70
     0
  9
$SPLINETYPE
 70
     6
  9
$SPLINESEGS
 70
     8
  9
$ATTDIA
 70
     0
  9
$ATTREQ
 70
     1
  9
$HANDLING
 70
     1
  9
$HANDSEED
  5
D1
  9
$SURFTAB1
 70
     6
  9
$SURFTAB2
 70
     6
  9
$SURFTYPE
 70
     6
  9
$SURFU
 70
     6
  9
$SURFV
 70
     6
  9
$UCSNAME
  2

  9
$UCSORG
 10
0.0
 20
0.0
 30
0.0
  9
$UCSXDIR
 10
1.0
 20
0.0
 30
0.0
  9
$UCSYDIR
 10
0.0
 20
1.0
 30
0.0
  9
$PUCSNAME
  2

  9
$PUCSORG
 10
0.0
 20
0.0
 30
0.0
  9
$PUCSXDIR
 10
1.0
 20
0.0
 30
0.0
  9
$PUCSYDIR
 10
0.0
 20
1.0
 30
0.0
  9
$USERI1
 70
     0
  9
$USERI2
 70
     0
  9
$USERI3
 70
     0
  9
$USERI4
 70
     0
  9
$USERI5
 70
     0
  9
$USERR1
 40
0.0
  9
$USERR2
 40
0.0
  9
$USERR3
 40
0.0
  9
$USERR4
 40
0.0
  9
$USERR5
 40
0.0
  9
$WORLDVIEW
 70
     1
  9
$SHADEDGE
 70
     3
  9
$SHADEDIF
 70
    70
  9
$TILEMODE
 70
     1
  9
$MAXACTVP
 70
    48
  9
$PINSBASE
 10
0.0
 20
0.0
 30
0.0
  9
$PLIMCHECK
 70
     0
  9
$PEXTMIN
 10
1.000000000000000E+20
 20
1.000000000000000E+20
 30
1.000000000000000E+20
  9
$PEXTMAX
 10
-1.000000000000000E+20
 20
-1.000000000000000E+20
 30
-1.000000000000000E+20
  9
$PLIMMIN
 10
0.0
 20
0.0
  9
$PLIMMAX
 10
12.0
 20
9.0
  9
$UNITMODE
 70
     0
  9
$VISRETAIN
 70
     1
  9
$PLINEGEN
 70
     0
  9
$PSLTSCALE
 70
     1
  9
$TREEDEPTH
 70
  3020
  9
$PICKSTYLE
 70
     1
  9
$CMLSTYLE
  2
STANDARD
  9
$CMLJUST
 70
     0
  9
$CMLSCALE
 40
1.0
  9
$PROXYGRAPHICS
 70
     1
  9
$MEASUREMENT
 70
     0
  0
ENDSEC
  0
SECTION
  2
CLASSES
  0
CLASS
  1
ACDBDICTIONARYWDFLT
  2
AcDbDictionaryWithDefault
  3
AutoCAD 2000
 90
        0
280
     1
281
     0
  0
CLASS
  1
ACDBPLACEHOLDER
  2
AcDbPlaceHolder
  3
AutoCAD 2000
 90
        0
280
     1
281
     0
  0
CLASS
  1
LAYOUT
  2
AcDbLayout
  3
AutoCAD 2000
 90
        0
280
     1
281
     0
  0
CLASS
  1
LONG_TRANSACTION
  2
AcDbLongTransaction
  3
AutoCAD 2000
 90
        0
280
     1
281
     0
  0
CLASS
  1
LWPOLYLINE
  2
AcDbPolyline
  3
"AutoCAD"
 90
        0
280
     1
281
     1
  0
CLASS
  1
HATCH
  2
AcDbHatch
  3
"ACAD_SEDONA"
 90
        0
280
     1
281
     1
  0
CLASS
  1
XRECORD
  2
AcDbXrecord
  3
"<Built In>"
 90
        0
280
     0
281
     0
  0
CLASS
  1
LONG_TRANSACTION
  2
AcDbLongTransaction
  3
AutoCAD 2000
 90
        0
280
     1
281
     0
  0
CLASS
  1
LWPOLYLINE
  2
AcDbPolyline
  3
"AutoCAD"
 90
        0
280
     1
281
     1
  0
CLASS
  1
HATCH
  2
AcDbHatch
  3
"ACAD_SEDONA"
 90
        0
280
     1
281
     1
  0
CLASS
  1
XRECORD
  2
AcDbXrecord
  3
"<Built In>"
 90
        0
280
     0
281
     0
  0
CLASS
  1
LONG_TRANSACTION
  2
AcDbLongTransaction
  3
AutoCAD 2000
 90
        0
280
     1
281
     0
  0
CLASS
  1
LWPOLYLINE
  2
AcDbPolyline
  3
"AutoCAD"
 90
        0
280
     1
281
     1
  0
CLASS
  1
HATCH
  2
AcDbHatch
  3
"ACAD_SEDONA"
 90
        0
280
     1
281
     1
  0
CLASS
  1
XRECORD
  2
AcDbXrecord
  3
"<Built In>"
 90
        0
280
     0
281
     0
  0
CLASS
  1
DICTIONARYVAR
  2
AcDbDictionaryVar
  3
"AutoCAD"
 90
        0
280
     0
281
     0
  0
CLASS
  1
LONG_TRANSACTION
  2
AcDbLongTransaction
  3
AutoCAD 2000
 90
        0
280
     0
281
     0
  0
CLASS
  1
LWPOLYLINE
  2
AcDbPolyline
  3
"AutoCAD"
 90
        0
280
     0
281
     1
  0
CLASS
  1
HATCH
  2
AcDbHatch
  3
"ACAD_SEDONA"
 90
        0
280
     0
281
     1
  0
CLASS
  1
XRECORD
  2
AcDbXrecord
  3
"<Built In>"
 90
        0
280
     0
281
     0
  0
CLASS
  1
LONG_TRANSACTION
  2
AcDbLongTransaction
  3
AutoCAD 2000
 90
        0
280
     0
281
     0
  0
CLASS
  1
LWPOLYLINE
  2
AcDbPolyline
  3
"AutoCAD"
 90
        0
280
     0
281
     1
  0
CLASS
  1
HATCH
  2
AcDbHatch
  3
"ACAD_SEDONA"
 90
        0
280
     0
281
     1
  0
CLASS
  1
XRECORD
  2
AcDbXrecord
  3
"<Built In>"
 90
        0
280
     0
281
     0
  0
ENDSEC
  0
SECTION
  2
TABLES
  0
TABLE
  2
VPORT
  5
B1
100
AcDbSymbolTable
 70
     1
  0
VPORT
  5
CD
100
AcDbSymbolTableRecord
100
AcDbViewportTableRecord
  2
*ACTIVE
 70
     0
 10
0.0
 20
0.0
 11
1.0
 21
1.0
 12
9.741794483559525
 22
15.94828344396215
 13
0.0
 23
0.0
 14
0.5
 24
0.5
 15
0.5
 25
0.5
 16
0.0
 26
0.0
 36
1.0
 17
0.0
 27
0.0
 37
0.0
 40
32.12394575917189
 41
1.457627118644067
 42
50.0
 43
0.0
 44
0.0
 50
0.0
 51
0.0
 71
     0
 72
   100
 73
     1
 74
     3
 75
     0
 76
     0
 77
     0
 78
     0
  0
ENDTAB
  0
TABLE
  2
LTYPE
  5
AA
100
AcDbSymbolTable
 70
     2
  0
LTYPE
  5
AB
102
{ACAD_XDICTIONARY
360
AC
102
}
100
AcDbSymbolTableRecord
100
AcDbLinetypeTableRecord
  2
BYBLOCK
 70
     0
  3

 72
    65
 73
     0
 40
0.0
  0
LTYPE
  5
AD
102
{ACAD_XDICTIONARY
360
AE
102
}
100
AcDbSymbolTableRecord
100
AcDbLinetypeTableRecord
  2
BYLAYER
 70
     0
  3

 72
    65
 73
     0
 40
0.0
  0
LTYPE
  5
5
102
{ACAD_XDICTIONARY
360
6
102
}
100
AcDbSymbolTableRecord
100
AcDbLinetypeTableRecord
  2
CONTINUOUS
 70
     0
  3
Solid line
 72
    65
 73
     0
 40
0.0
  0
LTYPE
  5
6E
100
AcDbSymbolTableRecord
100
AcDbLinetypeTableRecord
  2
HIDDEN
 70
     0
  3
Hidden __ __ __ __ __ __ __ __ __ __ __ __ __ _
 72
    65
 73
     2
 40
0.375
 49
0.25
 74
     0
 49
-0.125
 74
     0
  0
ENDTAB
  0
TABLE
  2
LAYER
  5
A8
100
AcDbSymbolTable
 70
     5
  0
LAYER
  5
51
100
AcDbSymbolTableRecord
100
AcDbLayerTableRecord
  2
0
 70
     0
 62
     7
  6
CONTINUOUS
  0
LAYER
  5
6D
100
AcDbSymbolTableRecord
100
AcDbLayerTableRecord
  2
USP-HID
 70
     0
 62
     7
  6
HIDDEN
  0
LAYER
  5
9
100
AcDbSymbolTableRecord
100
AcDbLayerTableRecord
  2
USP-GEO
 70
     0
 62
     7
  6
CONTINUOUS
  0
LAYER
  5
1E
100
AcDbSymbolTableRecord
100
AcDbLayerTableRecord
  2
USP-TXT
 70
     0
 62
     7
  6
CONTINUOUS
  0
LAYER
  5
4
100
AcDbSymbolTableRecord
100
AcDbLayerTableRecord
  2
USP
 70
     0
 62
     7
  6
CONTINUOUS
  0
ENDTAB
  0
TABLE
  2
STYLE
  5
A9
100
AcDbSymbolTable
 70
     1
  0
STYLE
  5
1F
102
{ACAD_XDICTIONARY
360
20
102
}
100
AcDbSymbolTableRecord
100
AcDbTextStyleTableRecord
  2
STANDARD
 70
     0
 40
0.0
 41
1.0
 50
0.0
 71
     0
 42
0.5
  3
txt
  4

  0
ENDTAB
  0
TABLE
  2
VIEW
  5
AF
100
AcDbSymbolTable
 70
     0
  0
ENDTAB
  0
TABLE
  2
UCS
  5
B0
100
AcDbSymbolTable
 70
     0
  0
ENDTAB
  0
TABLE
  2
APPID
  5
B3
100
AcDbSymbolTable
 70
     1
  0
APPID
  5
B4
100
AcDbSymbolTableRecord
100
AcDbRegAppTableRecord
  2
ACAD
 70
     0
  0
ENDTAB
  0
TABLE
  2
DIMSTYLE
  5
B5
100
AcDbSymbolTable
 70
     1
  0
DIMSTYLE
105
BE
102
{ACAD_XDICTIONARY
360
BF
102
}
100
AcDbSymbolTableRecord
100
AcDbDimStyleTableRecord
  2
STANDARD
 70
     0
  3

  4

  5

  6

  7

 40
1.0
 41
0.18
 42
0.0625
 43
0.38
 44
0.18
 45
0.0
 46
0.0
 47
0.0
 48
0.0
140
0.18
141
0.09
142
0.0
143
25.4
144
1.0
145
0.0
146
1.0
147
0.09
 71
     0
 72
     0
 73
     1
 74
     1
 75
     0
 76
     0
 77
     0
 78
     0
170
     0
171
     2
172
     0
173
     0
174
     0
175
     0
176
     0
177
     0
178
     0
270
     2
271
     4
272
     4
273
     2
274
     2
340
1F
275
     0
280
     0
281
     0
282
     0
283
     1
284
     0
285
     0
286
     0
287
     3
288
     0
  0
ENDTAB
  0
TABLE
  2
BLOCK_RECORD
  5
1
100
AcDbSymbolTable
 70
     2
  0
BLOCK_RECORD
  5
2
102
{ACAD_XDICTIONARY
360
9F
102
}
100
AcDbSymbolTableRecord
100
AcDbBlockTableRecord
  2
*MODEL_SPACE
  0
BLOCK_RECORD
  5
A3
102
{ACAD_XDICTIONARY
360
A4
102
}
100
AcDbSymbolTableRecord
100
AcDbBlockTableRecord
  2
*PAPER_SPACE
  0
BLOCK_RECORD
  5
7
100
AcDbSymbolTableRecord
100
AcDbBlockTableRecord
  2
MTW30C_F
  0
BLOCK_RECORD
  5
54
100
AcDbSymbolTableRecord
100
AcDbBlockTableRecord
  2
MTW30C_S
  0
ENDTAB
  0
ENDSEC
  0
SECTION
  2
BLOCKS
  0
BLOCK
  5
A1
100
AcDbEntity
  8
0
100
AcDbBlockBegin
  2
*MODEL_SPACE
 70
     0
 10
0.0
 20
0.0
 30
0.0
  3
*MODEL_SPACE
  1

  0
ENDBLK
  5
A2
100
AcDbEntity
  8
0
100
AcDbBlockEnd
  0
BLOCK
  5
A6
100
AcDbEntity
 67
     1
  8
0
100
AcDbBlockBegin
  2
*PAPER_SPACE
 70
     0
 10
0.0
 20
0.0
 30
0.0
  3
*PAPER_SPACE
  1

  0
ENDBLK
  5
A7
100
AcDbEntity
 67
     1
  8
0
100
AcDbBlockEnd
  0
BLOCK
  5
50
100
AcDbEntity
  8
0
100
AcDbBlockBegin
  2
MTW30C_F
 70
     0
 10
0.0
 20
0.0
 30
0.0
  3
MTW30C_F
  1

  0
ARC
  5
8
100
AcDbEntity
  8
USP-GEO
100
AcDbCircle
 10
1.250000000000017
 20
10.03750000000003
 30
-0.0000000000000012
 40
0.0625
100
AcDbArc
 50
89.99999999999756
 51
180.0
  0
ARC
  5
A
100
AcDbEntity
  8
USP-GEO
100
AcDbCircle
 10
0.0000000000000195
 20
10.03750000000003
 30
-0.0000000000000012
 40
0.0625
100
AcDbArc
 50
0.0
 51
89.9999999999992
  0
LINE
  5
B
100
AcDbEntity
  8
USP-GEO
100
AcDbLine
 10
0.0
 20
0.1767766952966525
 30
0.0
 11
0.0000000000000213
 21
9.900000000000041
 31
-0.0000000000000012
210
1.0
220
-0.0000000000000002
230
0.0
  0
LINE
  5
C
100
AcDbEntity
  8
USP-GEO
100
AcDbLine
 10
1.250000000000046
 20
9.900000000000041
 30
-0.0000000000000012
 11
1.24999999999995
 21
0.1767766952966383
 31
0.0
210
1.0
220
-0.0000000000000002
230
0.0
  0
CIRCLE
  5
D
100
AcDbEntity
  8
USP-GEO
100
AcDbCircle
 10
1.000000000000017
 20
5.687500000000007
 30
-0.0000000000000007
 40
0.078
  0
CIRCLE
  5
E
100
AcDbEntity
  8
USP-GEO
100
AcDbCircle
 10
1.000000000000017
 20
7.687500000000008
 30
-0.0000000000000009
 40
0.078
  0
CIRCLE
  5
F
100
AcDbEntity
  8
USP-GEO
100
AcDbCircle
 10
1.000000000000019
 20
9.687500000000008
 30
-0.0000000000000012
 40
0.078
  0
CIRCLE
  5
10
100
AcDbEntity
  8
USP-GEO
100
AcDbCircle
 10
0.2500000000000195
 20
5.312500000000007
 30
-0.0000000000000007
 40
0.078
  0
CIRCLE
  5
11
100
AcDbEntity
  8
USP-GEO
100
AcDbCircle
 10
0.3750000000000142
 20
4.3125
 30
-0.0000000000000005
 40
0.078
  0
CIRCLE
  5
12
100
AcDbEntity
  8
USP-GEO
100
AcDbCircle
 10
0.8750000000000142
 20
4.687500000000007
 30
-0.0000000000000006
 40
0.078
  0
CIRCLE
  5
13
100
AcDbEntity
  8
USP-GEO
100
AcDbCircle
 10
0.3750000000000178
 20
6.312500000000008
 30
-0.0000000000000008
 40
0.078
  0
CIRCLE
  5
14
100
AcDbEntity
  8
USP-GEO
100
AcDbCircle
 10
0.8750000000000195
 20
6.687500000000008
 30
-0.0000000000000008
 40
0.078
  0
CIRCLE
  5
15
100
AcDbEntity
  8
USP-GEO
100
AcDbCircle
 10
0.2500000000000178
 20
7.312500000000008
 30
-0.0000000000000009
 40
0.078
  0
CIRCLE
  5
16
100
AcDbEntity
  8
USP-GEO
100
AcDbCircle
 10
0.3750000000000178
 20
8.312500000000008
 30
-0.000000000000001
 40
0.078
  0
CIRCLE
  5
17
100
AcDbEntity
  8
USP-GEO
100
AcDbCircle
 10
0.2500000000000213
 20
9.312500000000008
 30
-0.0000000000000011
 40
0.078
  0
ARC
  5
18
100
AcDbEntity
  8
USP-GEO
100
AcDbCircle
 10
0.0000000000000178
 20
9.962500000000042
 30
-0.0000000000000012
 40
0.0625
100
AcDbArc
 50
270.0000000000041
 51
0.0
  0
LINE
  5
19
100
AcDbEntity
  8
USP-GEO
100
AcDbLine
 10
0.0625000000000196
 20
9.962500000000041
 30
-0.0000000000000012
 11
0.0625000000000196
 21
10.03750000000003
 31
-0.0000000000000012
210
1.0
220
-0.0000000000000002
230
0.0
  0
CIRCLE
  5
1A
100
AcDbEntity
  8
USP-GEO
100
AcDbCircle
 10
0.8750000000000213
 20
8.687500000000008
 30
-0.0000000000000011
 40
0.078
  0
ARC
  5
1B
100
AcDbEntity
  8
USP-GEO
100
AcDbCircle
 10
1.250000000000017
 20
9.96250000000005
 30
-0.0000000000000012
 40
0.0625
100
AcDbArc
 50
180.0000000000032
 51
270.0000000000268
  0
LINE
  5
1C
100
AcDbEntity
  8
USP-GEO
100
AcDbLine
 10
1.187500000000019
 20
10.03750000000003
 30
-0.0000000000000012
 11
1.187500000000019
 21
9.962500000000041
 31
-0.0000000000000012
210
1.0
220
-0.0000000000000002
230
0.0
  0
TEXT
  5
1D
100
AcDbEntity
  8
USP-TXT
100
AcDbText
 10
-4.166666666666634
 20
-1.126515678002178
 30
0.0
 40
0.5
  1
MTW30C - FRONT VIEW
 72
     1
 11
0.6250000000000302
 21
-1.126515678002178
 31
0.0
100
AcDbText
  0
LINE
  5
21
100
AcDbEntity
  8
USP-GEO
100
AcDbLine
 10
1.073223304703375
 20
0.0
 30
0.0
 11
0.1767766952966845
 21
0.0
 31
0.0
210
1.0
220
-0.0000000000000002
230
0.0
  0
CIRCLE
  5
22
100
AcDbEntity
  8
USP-GEO
100
AcDbCircle
 10
1.000000000000012
 20
1.689058016070363
 30
-0.0000000000000002
 40
0.078
  0
CIRCLE
  5
23
100
AcDbEntity
  8
USP-GEO
100
AcDbCircle
 10
1.000000000000014
 20
3.6875
 30
-0.0000000000000005
 40
0.078
  0
CIRCLE
  5
24
100
AcDbEntity
  8
USP-GEO
100
AcDbCircle
 10
0.8750000000000177
 20
0.6890580160703639
 30
-0.0000000000000001
 40
0.078
  0
LINE
  5
25
100
AcDbEntity
  8
USP-GEO
100
AcDbLine
 10
0.1767766952966845
 20
0.0
 30
0.0
 11
0.0000000000000018
 21
0.1767766952966525
 31
0.0
210
1.0
220
-0.0000000000000002
230
0.0
  0
CIRCLE
  5
26
100
AcDbEntity
  8
USP-GEO
100
AcDbCircle
 10
0.3750000000000178
 20
0.3140580160703639
 30
0.0
 40
0.078
  0
CIRCLE
  5
27
100
AcDbEntity
  8
USP-GEO
100
AcDbCircle
 10
0.3750000000000178
 20
2.314058016070362
 30
-0.0000000000000003
 40
0.078
  0
CIRCLE
  5
28
100
AcDbEntity
  8
USP-GEO
100
AcDbCircle
 10
0.250000000000016
 20
1.314058016070378
 30
-0.0000000000000002
 40
0.078
  0
CIRCLE
  5
29
100
AcDbEntity
  8
USP-GEO
100
AcDbCircle
 10
0.625000000000016
 20
1.501558016070363
 30
-0.0000000000000002
 40
0.15625
  0
CIRCLE
  5
2A
100
AcDbEntity
  8
USP-GEO
100
AcDbCircle
 10
0.2500000000000178
 20
3.3125
 30
-0.0000000000000004
 40
0.078
  0
CIRCLE
  5
2B
100
AcDbEntity
  8
USP-GEO
100
AcDbCircle
 10
0.8750000000000159
 20
2.689058016070376
 30
-0.0000000000000003
 40
0.078
  0
LINE
  5
2C
100
AcDbEntity
  8
USP-GEO
100
AcDbLine
 10
1.250000000000015
 20
0.1767766952966383
 30
0.0
 11
1.073223304703391
 21
-0.0000000000000142
 31
0.0
210
1.0
220
-0.0000000000000002
230
0.0
  0
CIRCLE
  5
2D
100
AcDbEntity
  8
USP-GEO
100
AcDbCircle
 10
1.000000000000033
 20
11.6875
 30
-0.0000000000000014
 40
0.078
  0
LINE
  5
2E
100
AcDbEntity
  8
USP-GEO
100
AcDbLine
 10
0.1487715061416193
 20
13.97410710399513
 30
-0.0000000000000017
 11
1.388730338931209
 21
15.98534538363553
 31
-0.000000000000002
210
1.0
220
-0.0000000000000002
230
0.0
  0
LINE
  5
2F
100
AcDbEntity
  8
USP-GEO
100
AcDbLine
 10
0.0000000000000195
 20
10.10000000000003
 30
-0.0000000000000012
 11
-0.0000000000000089
 21
13.4493118570239
 31
-0.0000000000000016
210
1.0
220
-0.0000000000000002
230
0.0
  0
CIRCLE
  5
30
100
AcDbEntity
  8
USP-GEO
100
AcDbCircle
 10
0.3750000000000337
 20
10.3125
 30
-0.0000000000000013
 40
0.078
  0
CIRCLE
  5
31
100
AcDbEntity
  8
USP-GEO
100
AcDbCircle
 10
0.2500000000000337
 20
11.3125
 30
-0.0000000000000014
 40
0.078
  0
CIRCLE
  5
32
100
AcDbEntity
  8
USP-GEO
100
AcDbCircle
 10
0.8750000000000337
 20
10.6875
 30
-0.0000000000000013
 40
0.078
  0
CIRCLE
  5
33
100
AcDbEntity
  8
USP-GEO
100
AcDbCircle
 10
0.3750000000000337
 20
12.31250000000001
 30
-0.0000000000000015
 40
0.078
  0
ARC
  5
34
100
AcDbEntity
  8
USP-GEO
100
AcDbCircle
 10
0.9999999999999911
 20
13.44931185702391
 30
-0.0000000000000016
 40
1.0
100
AcDbArc
 50
148.345539596282
 51
180.0
  0
LINE
  5
35
100
AcDbEntity
  8
USP-GEO
100
AcDbLine
 10
1.406250000000049
 20
29.82322330470342
 30
-0.0000000000000037
 11
1.406250000000047
 21
20.09999999999996
 31
-0.0000000000000025
210
1.0
220
-0.0000000000000002
230
0.0
  0
LINE
  5
36
100
AcDbEntity
  8
USP-GEO
100
AcDbLine
 10
1.46605000000005
 20
29.82322330470342
 30
-0.0000000000000037
 11
1.466050000000048
 21
20.09999999999997
 31
-0.0000000000000025
210
1.0
220
-0.0000000000000002
230
0.0
  0
LINE
  5
37
100
AcDbEntity
  8
USP-GEO
100
AcDbLine
 10
1.406250000000047
 20
16.55068814297607
 30
-0.000000000000002
 11
1.406250000000047
 21
16.02589289600485
 31
-0.000000000000002
210
1.0
220
-0.0000000000000002
230
0.0
  0
LINE
  5
38
100
AcDbEntity
  8
USP-GEO
100
AcDbLine
 10
1.46605000000005
 20
16.55068814297607
 30
-0.000000000000002
 11
1.46605000000005
 21
16.02589289600485
 31
-0.000000000000002
210
1.0
220
-0.0000000000000002
230
0.0
  0
LINE
  5
39
100
AcDbEntity
  8
USP-GEO
100
AcDbLine
 10
1.249999999999989
 20
13.44931185702385
 30
-0.0000000000000016
 11
1.250000000000046
 21
10.10000000000003
 31
-0.0000000000000012
210
1.0
220
-0.0000000000000002
230
0.0
  0
LINE
  5
3A
100
AcDbEntity
  8
USP-GEO
100
AcDbLine
 10
1.466050000000047
 20
16.02589289600486
 30
-0.000000000000002
 11
1.466050000000047
 21
14.04603737213331
 31
-0.0000000000000017
210
1.0
220
-0.0000000000000002
230
0.0
  0
LINE
  5
3B
100
AcDbEntity
  8
USP-GEO
100
AcDbLine
 10
1.406250000000051
 20
16.02589289600486
 30
-0.000000000000002
 11
1.406250000000049
 21
13.98623737213332
 31
-0.0000000000000017
210
1.0
220
-0.0000000000000002
230
0.0
  0
ARC
  5
3C
100
AcDbEntity
  8
USP-GEO
100
AcDbCircle
 10
2.249999999999989
 20
13.44931185702385
 30
-0.0000000000000016
 40
1.0
100
AcDbArc
 50
148.3455395962817
 51
180.0
  0
ARC
  5
3D
100
AcDbEntity
  8
USP-GEO
100
AcDbCircle
 10
1.406250000000047
 20
14.04603737213332
 30
-0.0000000000000017
 40
0.0598
100
AcDbArc
 50
269.9999999999982
 51
359.9999999999941
  0
LINE
  5
3E
100
AcDbEntity
  8
USP-GEO
100
AcDbLine
 10
1.406250000000047
 20
13.98623737213332
 30
-0.0000000000000017
 11
1.39877150614161
 21
13.97410710399508
 31
-0.0000000000000017
210
1.0
220
-0.0000000000000002
230
0.0
  0
ARC
  5
3F
100
AcDbEntity
  8
USP-GEO
100
AcDbCircle
 10
1.439633802863941
 20
15.95396262786665
 30
-0.000000000000002
 40
0.0598
100
AcDbArc
 50
89.99999999999827
 51
123.9353827527102
  0
ARC
  5
40
100
AcDbEntity
  8
USP-GEO
100
AcDbCircle
 10
1.439633802863943
 20
15.95396262786665
 30
-0.000000000000002
 40
0.0598
100
AcDbArc
 50
123.9353827527114
 51
148.3455395962821
  0
LINE
  5
41
100
AcDbEntity
  8
USP-GEO
100
AcDbLine
 10
1.439633802863943
 20
16.01376262786665
 30
-0.000000000000002
 11
1.466050000000018
 21
16.01376262786665
 31
-0.000000000000002
210
1.0
220
-0.0000000000000002
230
0.0
  0
LINE
  5
42
100
AcDbEntity
  8
USP-GEO
100
AcDbLine
 10
1.406250000000049
 20
19.89999999999997
 30
-0.0000000000000024
 11
1.406250000000047
 21
16.55068814297607
 31
-0.000000000000002
210
1.0
220
-0.0000000000000002
230
0.0
  0
LINE
  5
43
100
AcDbEntity
  8
USP-GEO
100
AcDbLine
 10
1.46605000000005
 20
19.89999999999997
 30
-0.0000000000000024
 11
1.46605000000005
 21
16.55068814297607
 31
-0.000000000000002
210
1.0
220
-0.0000000000000002
230
0.0
  0
LINE
  5
44
100
AcDbEntity
  8
USP-GEO
100
AcDbLine
 10
1.406250000000049
 20
20.03749999999997
 30
-0.0000000000000025
 11
1.406250000000049
 21
19.96249999999997
 31
-0.0000000000000024
210
1.0
220
-0.0000000000000002
230
0.0
  0
LINE
  5
45
100
AcDbEntity
  8
USP-GEO
100
AcDbLine
 10
1.46605000000005
 20
19.96249999999997
 30
-0.0000000000000024
 11
1.46605000000005
 21
20.03749999999997
 31
-0.0000000000000025
210
1.0
220
-0.0000000000000002
230
0.0
  0
LINE
  5
46
100
AcDbEntity
  8
USP-GEO
100
AcDbLine
 10
1.466050000000047
 20
20.09999999999997
 30
-0.0000000000000025
 11
1.406250000000049
 21
20.09999999999997
 31
-0.0000000000000025
210
1.0
220
-0.0000000000000002
230
0.0
  0
LINE
  5
47
100
AcDbEntity
  8
USP-GEO
100
AcDbLine
 10
1.406250000000049
 20
20.09999999999996
 30
-0.0000000000000025
 11
1.406250000000049
 21
20.03749999999997
 31
-0.0000000000000025
210
1.0
220
-0.0000000000000002
230
0.0
  0
LINE
  5
48
100
AcDbEntity
  8
USP-GEO
100
AcDbLine
 10
1.46605000000005
 20
20.03749999999997
 30
-0.0000000000000025
 11
1.46605000000005
 21
20.09999999999996
 31
-0.0000000000000025
210
1.0
220
-0.0000000000000002
230
0.0
  0
LINE
  5
49
100
AcDbEntity
  8
USP-GEO
100
AcDbLine
 10
1.46605000000005
 20
19.89999999999997
 30
-0.0000000000000024
 11
1.406250000000049
 21
19.89999999999997
 31
-0.0000000000000024
210
1.0
220
-0.0000000000000002
230
0.0
  0
LINE
  5
4A
100
AcDbEntity
  8
USP-GEO
100
AcDbLine
 10
1.406250000000049
 20
19.96249999999997
 30
-0.0000000000000024
 11
1.406250000000049
 21
19.89999999999998
 31
-0.0000000000000024
210
1.0
220
-0.0000000000000002
230
0.0
  0
LINE
  5
4B
100
AcDbEntity
  8
USP-GEO
100
AcDbLine
 10
1.466050000000048
 20
19.89999999999998
 30
-0.0000000000000024
 11
1.466050000000048
 21
19.96249999999997
 31
-0.0000000000000024
210
1.0
220
-0.0000000000000002
230
0.0
  0
LINE
  5
4C
100
AcDbEntity
  8
USP-GEO
100
AcDbLine
 10
1.406250000000051
 20
30.00000000000002
 30
-0.0000000000000037
 11
1.406250000000051
 21
29.82322330470341
 31
-0.0000000000000037
210
1.0
220
-0.0000000000000002
230
0.0
  0
LINE
  5
4D
100
AcDbEntity
  8
USP-GEO
100
AcDbLine
 10
1.46605000000005
 20
29.82322330470341
 30
-0.0000000000000037
 11
1.46605000000005
 21
30.00000000000002
 31
-0.0000000000000037
210
1.0
220
-0.0000000000000002
230
0.0
  0
LINE
  5
4E
100
AcDbEntity
  8
USP-GEO
100
AcDbLine
 10
1.466050000000052
 20
30.0
 30
-0.0000000000000037
 11
1.406250000000051
 21
30.0
 31
-0.0000000000000037
210
1.0
220
-0.0000000000000002
230
0.0
  0
LINE
  5
4F
100
AcDbEntity
  8
USP-GEO
100
AcDbLine
 10
1.46605000000005
 20
29.82322328311482
 30
-0.0000000000000028
 11
1.406250000000049
 21
29.82322328311482
 31
-0.0000000000000028
  0
ENDBLK
  5
52
100
AcDbEntity
  8
0
100
AcDbBlockEnd
  0
BLOCK
  5
9D
100
AcDbEntity
  8
0
100
AcDbBlockBegin
  2
MTW30C_S
 70
     0
 10
0.0
 20
0.0
 30
0.0
  3
MTW30C_S
  1

  0
TEXT
  5
55
100
AcDbEntity
  8
USP-TXT
100
AcDbText
 10
-3.833333333333317
 20
-1.12651565641358
 30
0.0000000000000028
 40
0.5
  1
MTW30C - SIDE VIEW
 72
     1
 11
0.6250000000000178
 21
-1.12651565641358
 31
0.0000000000000028
100
AcDbText
  0
LINE
  5
56
100
AcDbEntity
  8
USP-GEO
100
AcDbLine
 10
1.40625
 20
10.10000000000004
 30
0.0
 11
1.40625
 21
10.03750000000004
 31
0.0
  0
LINE
  5
57
100
AcDbEntity
  8
USP-GEO
100
AcDbLine
 10
1.466049999999999
 20
10.03750000000003
 30
0.0
 11
1.466049999999999
 21
10.10000000000003
 31
0.0
  0
LINE
  5
58
100
AcDbEntity
  8
USP-GEO
100
AcDbLine
 10
1.40625
 20
9.900000000000055
 30
0.0
 11
1.40625
 21
0.1767766952966525
 31
0.0
  0
LINE
  5
59
100
AcDbEntity
  8
USP-GEO
100
AcDbLine
 10
1.466049999999999
 20
9.900000000000048
 30
0.0
 11
1.466049999999995
 21
0.1767766952966525
 31
0.0
  0
LINE
  5
5A
100
AcDbEntity
  8
USP-GEO
100
AcDbLine
 10
1.466050000000002
 20
0.0000000000000142
 30
0.0
 11
1.40625
 21
0.0000000000000142
 31
0.0
  0
LINE
  5
5B
100
AcDbEntity
  8
USP-GEO
100
AcDbLine
 10
1.466049999999995
 20
0.1767766952966525
 30
0.0
 11
1.40625
 21
0.1767766952966525
 31
0.0
  0
LINE
  5
5C
100
AcDbEntity
  8
USP-GEO
100
AcDbLine
 10
1.40625
 20
0.1767766952966525
 30
0.0
 11
1.40625
 21
0.0
 31
0.0
  0
LINE
  5
5D
100
AcDbEntity
  8
USP-GEO
100
AcDbLine
 10
1.466049999999995
 20
0.1767766952966525
 30
0.0
 11
1.466049999999995
 21
-0.0000000000000071
 31
0.0
  0
LINE
  5
5E
100
AcDbEntity
  8
USP-GEO
100
AcDbLine
 10
1.40625
 20
9.962500000000055
 30
0.0
 11
1.40625
 21
9.900000000000055
 31
0.0
  0
LINE
  5
5F
100
AcDbEntity
  8
USP-GEO
100
AcDbLine
 10
1.466049999999999
 20
9.900000000000048
 30
0.0
 11
1.466049999999999
 21
9.962500000000055
 31
0.0
  0
LINE
  5
60
100
AcDbEntity
  8
USP-GEO
100
AcDbLine
 10
1.40625
 20
10.03750000000004
 30
0.0
 11
1.40625
 21
9.962500000000055
 31
0.0
  0
LINE
  5
61
100
AcDbEntity
  8
USP-GEO
100
AcDbLine
 10
1.466049999999999
 20
10.03750000000003
 30
0.0
 11
1.466049999999999
 21
9.962500000000055
 31
0.0
  0
LINE
  5
62
100
AcDbEntity
  8
USP-GEO
100
AcDbLine
 10
1.466049999999999
 20
9.900000000000048
 30
0.0
 11
1.40625
 21
9.900000000000048
 31
0.0
  0
LINE
  5
63
100
AcDbEntity
  8
USP-GEO
100
AcDbLine
 10
1.250000000000003
 20
29.82322330470335
 30
0.0
 11
1.25
 21
20.09999999999998
 31
0.0
  0
LINE
  5
64
100
AcDbEntity
  8
USP-GEO
100
AcDbLine
 10
0.0000000000000036
 20
29.82322330470343
 30
0.0
 11
0.0
 21
20.09999999999998
 31
0.0
  0
ARC
  5
65
100
AcDbEntity
  8
USP-GEO
100
AcDbCircle
 10
2.25
 20
16.55068814297609
 30
0.0
 40
1.0
100
AcDbArc
 50
180.0
 51
211.6544604037181
  0
ARC
  5
66
100
AcDbEntity
  8
USP-GEO
100
AcDbCircle
 10
1.0
 20
16.55068814297609
 30
0.0
 40
1.0
100
AcDbArc
 50
180.0
 51
211.6544604037174
  0
LINE
  5
67
100
AcDbEntity
  8
USP-GEO
100
AcDbLine
 10
1.40625
 20
13.44931185702386
 30
0.0
 11
1.40625
 21
10.10000000000004
 31
0.0
  0
LINE
  5
68
100
AcDbEntity
  8
USP-GEO
100
AcDbLine
 10
1.466050000000002
 20
13.44931185702386
 30
0.0
 11
1.466050000000002
 21
10.10000000000004
 31
0.0
  0
LINE
  5
69
100
AcDbEntity
  8
USP-GEO
100
AcDbLine
 10
1.466050000000002
 20
10.10000000000004
 30
0.0
 11
1.40625
 21
10.10000000000004
 31
0.0
  0
LINE
  5
6A
100
AcDbEntity
  8
USP-GEO
100
AcDbLine
 10
0.148771506141621
 20
16.02589289600486
 30
0.0
 11
1.369382395126216
 21
14.04603737213333
 31
0.0
  0
LINE
  5
6B
100
AcDbEntity
  8
USP-GEO
100
AcDbLine
 10
1.466049999999999
 20
13.98623737213333
 30
0.0
 11
1.466050000000002
 21
16.00357675595879
 31
0.0
  0
LINE
  5
6C
100
AcDbEntity
  8
USP-HID
100
AcDbLine
 10
1.40625
 20
13.98623737213333
 30
0.0
 11
1.406250000000007
 21
16.01376262786665
 31
0.0
  0
LINE
  5
6F
100
AcDbEntity
  8
USP-GEO
100
AcDbLine
 10
1.40625
 20
13.97410710399509
 30
0.0
 11
1.40625
 21
13.44931185702386
 31
0.0
  0
LINE
  5
70
100
AcDbEntity
  8
USP-GEO
100
AcDbLine
 10
1.466050000000002
 20
13.44931185702386
 30
0.0
 11
1.466050000000002
 21
13.97410710399509
 31
0.0
  0
LINE
  5
71
100
AcDbEntity
  8
USP-GEO
100
AcDbLine
 10
1.40625
 20
13.98623737213333
 30
0.0
 11
1.40625
 21
13.97410710399509
 31
0.0
  0
LINE
  5
72
100
AcDbEntity
  8
USP-GEO
100
AcDbLine
 10
1.466050000000002
 20
13.97410710399509
 30
0.0
 11
1.466050000000002
 21
13.98623737213333
 31
0.0
  0
LINE
  5
73
100
AcDbEntity
  8
USP-GEO
100
AcDbLine
 10
1.369382395126205
 20
14.04603737213332
 30
0.0
 11
1.406249999999985
 21
13.98623737213333
 31
0.0
  0
LINE
  5
74
100
AcDbEntity
  8
USP-GEO
100
AcDbLine
 10
1.466049999999999
 20
13.98623737213333
 30
0.0
 11
1.40625
 21
13.98623737213333
 31
0.0
  0
SPLINE
  5
75
100
AcDbEntity
  8
USP-GEO
100
AcDbSpline
210
0.0
220
0.0
230
1.0
 70
     8
 71
     3
 72
    14
 73
    10
 74
     0
 42
0.0000001
 43
0.0000001
 40
0.056081910929909
 40
0.056081910929909
 40
0.056081910929909
 40
0.056081910929909
 40
0.060580482673938
 40
0.060580482673938
 40
0.0751819597935266
 40
0.0751819597935266
 40
0.0897834369131152
 40
0.0897834369131152
 40
0.0919140398685073
 40
0.0919140398685073
 40
0.0919140398685073
 40
0.0919140398685073
 10
1.455864128092137
 20
16.01376262786666
 30
0.0
 10
1.45675525966444
 20
16.01376262786666
 30
0.0
 10
1.457573952305658
 20
16.01371784581871
 30
0.0
 10
1.460701342905558
 20
16.01335057879834
 30
0.0
 10
1.462703392443216
 20
16.01254220487038
 30
0.0
 10
1.465295151034659
 20
16.00952584837566
 30
0.0
 10
1.465899503716471
 20
16.00730591852389
 30
0.0
 10
1.46604125778883
 20
16.00436020385807
 30
0.0
 10
1.466050000000002
 20
16.00397394798449
 30
0.0
 10
1.466050000000002
 20
16.00357675595879
 30
0.0
  0
LINE
  5
76
100
AcDbEntity
  8
USP-GEO
100
AcDbLine
 10
1.455864128092137
 20
16.01376262786666
 30
0.0
 11
1.40625
 21
16.01376262786666
 31
0.0
  0
LINE
  5
77
100
AcDbEntity
  8
USP-GEO
100
AcDbLine
 10
1.398771506141621
 20
16.02589289600486
 30
0.0
 11
1.406250000000021
 21
16.01376262786667
 31
0.0
  0
LINE
  5
78
100
AcDbEntity
  8
USP-GEO
100
AcDbLine
 10
0.0
 20
19.89999999999999
 30
0.0
 11
0.0
 21
16.55068814297609
 31
0.0
  0
LINE
  5
79
100
AcDbEntity
  8
USP-GEO
100
AcDbLine
 10
1.25
 20
19.89999999999999
 30
0.0
 11
1.25
 21
16.55068814297609
 31
0.0
  0
CIRCLE
  5
7A
100
AcDbEntity
  8
USP-GEO
100
AcDbCircle
 10
0.3750000000000142
 20
17.68750000000001
 30
0.0
 40
0.078
  0
CIRCLE
  5
7B
100
AcDbEntity
  8
USP-GEO
100
AcDbCircle
 10
0.2500000000000142
 20
18.68750000000001
 30
0.0
 40
0.078
  0
CIRCLE
  5
7C
100
AcDbEntity
  8
USP-GEO
100
AcDbCircle
 10
1.000000000000014
 20
18.31250000000001
 30
0.0
 40
0.078
  0
CIRCLE
  5
7D
100
AcDbEntity
  8
USP-GEO
100
AcDbCircle
 10
0.8750000000000142
 20
19.31250000000001
 30
0.0
 40
0.078
  0
CIRCLE
  5
7E
100
AcDbEntity
  8
USP-GEO
100
AcDbCircle
 10
0.3750000000000178
 20
19.68750000000001
 30
0.0
 40
0.078
  0
CIRCLE
  5
7F
100
AcDbEntity
  8
USP-GEO
100
AcDbCircle
 10
0.3750000000000035
 20
21.68750000000001
 30
0.0
 40
0.078
  0
LINE
  5
80
100
AcDbEntity
  8
USP-GEO
100
AcDbLine
 10
0.0625
 20
19.96249999999999
 30
0.0
 11
0.0625
 21
20.03749999999997
 31
0.0
  0
ARC
  5
81
100
AcDbEntity
  8
USP-GEO
100
AcDbCircle
 10
0.0000000000000036
 20
20.03749999999997
 30
0.0
 40
0.0625
100
AcDbArc
 50
0.0000000000015903
 51
90.0
  0
ARC
  5
82
100
AcDbEntity
  8
USP-GEO
100
AcDbCircle
 10
0.0000000000000036
 20
19.96249999999999
 30
0.0
 40
0.0625
100
AcDbArc
 50
270.0
 51
359.9999999999967
  0
CIRCLE
  5
83
100
AcDbEntity
  8
USP-GEO
100
AcDbCircle
 10
0.2500000000000035
 20
20.68750000000001
 30
0.0
 40
0.078
  0
CIRCLE
  5
84
100
AcDbEntity
  8
USP-GEO
100
AcDbCircle
 10
1.000000000000003
 20
20.31250000000001
 30
0.0
 40
0.078
  0
LINE
  5
85
100
AcDbEntity
  8
USP-GEO
100
AcDbLine
 10
1.1875
 20
19.96249999999999
 30
0.0
 11
1.1875
 21
20.03749999999997
 31
0.0
  0
ARC
  5
86
100
AcDbEntity
  8
USP-GEO
100
AcDbCircle
 10
1.250000000000003
 20
20.03749999999997
 30
0.0
 40
0.0625
100
AcDbArc
 50
89.99999999999756
 51
180.0000000000016
  0
ARC
  5
87
100
AcDbEntity
  8
USP-GEO
100
AcDbCircle
 10
1.250000000000003
 20
19.96249999999999
 30
0.0
 40
0.0625
100
AcDbArc
 50
179.9999999999983
 51
269.9999999999983
  0
CIRCLE
  5
88
100
AcDbEntity
  8
USP-GEO
100
AcDbCircle
 10
1.000000000000003
 20
22.31250000000001
 30
0.0
 40
0.078
  0
CIRCLE
  5
89
100
AcDbEntity
  8
USP-GEO
100
AcDbCircle
 10
0.8750000000000035
 20
21.31250000000001
 30
0.0
 40
0.078
  0
CIRCLE
  5
8A
100
AcDbEntity
  8
USP-GEO
100
AcDbCircle
 10
0.2500000000000035
 20
28.68750000000001
 30
0.0
 40
0.078
  0
CIRCLE
  5
8B
100
AcDbEntity
  8
USP-GEO
100
AcDbCircle
 10
0.3750000000000035
 20
25.68750000000001
 30
0.0
 40
0.078
  0
CIRCLE
  5
8C
100
AcDbEntity
  8
USP-GEO
100
AcDbCircle
 10
0.3750000000000035
 20
23.68750000000001
 30
0.0
 40
0.078
  0
CIRCLE
  5
8D
100
AcDbEntity
  8
USP-GEO
100
AcDbCircle
 10
0.2500000000000035
 20
22.68750000000001
 30
0.0
 40
0.078
  0
CIRCLE
  5
8E
100
AcDbEntity
  8
USP-GEO
100
AcDbCircle
 10
0.2500000000000035
 20
24.68750000000001
 30
0.0
 40
0.078
  0
CIRCLE
  5
8F
100
AcDbEntity
  8
USP-GEO
100
AcDbCircle
 10
0.8750000000000035
 20
23.31250000000001
 30
0.0
 40
0.078
  0
CIRCLE
  5
90
100
AcDbEntity
  8
USP-GEO
100
AcDbCircle
 10
1.000000000000003
 20
24.31250000000002
 30
0.0
 40
0.078
  0
CIRCLE
  5
91
100
AcDbEntity
  8
USP-GEO
100
AcDbCircle
 10
0.8750000000000035
 20
25.31250000000001
 30
0.0
 40
0.078
  0
CIRCLE
  5
92
100
AcDbEntity
  8
USP-GEO
100
AcDbCircle
 10
0.3750000000000035
 20
27.68750000000001
 30
0.0
 40
0.078
  0
CIRCLE
  5
93
100
AcDbEntity
  8
USP-GEO
100
AcDbCircle
 10
0.2500000000000035
 20
26.68750000000001
 30
0.0
 40
0.078
  0
CIRCLE
  5
94
100
AcDbEntity
  8
USP-GEO
100
AcDbCircle
 10
1.000000000000003
 20
26.31250000000001
 30
0.0
 40
0.078
  0
CIRCLE
  5
95
100
AcDbEntity
  8
USP-GEO
100
AcDbCircle
 10
1.000000000000003
 20
28.31250000000001
 30
0.0
 40
0.078
  0
CIRCLE
  5
96
100
AcDbEntity
  8
USP-GEO
100
AcDbCircle
 10
0.8750000000000035
 20
27.31250000000001
 30
0.0
 40
0.078
  0
CIRCLE
  5
97
100
AcDbEntity
  8
USP-GEO
100
AcDbCircle
 10
0.6250000000000036
 20
28.50000000000001
 30
0.0
 40
0.15625
  0
CIRCLE
  5
98
100
AcDbEntity
  8
USP-GEO
100
AcDbCircle
 10
0.3750000000000035
 20
29.68750000000001
 30
0.0
 40
0.078
  0
LINE
  5
99
100
AcDbEntity
  8
USP-GEO
100
AcDbLine
 10
1.073223304703365
 20
30.00000000000001
 30
0.0
 11
0.1767766952966703
 21
30.00000000000001
 31
0.0
  0
LINE
  5
9A
100
AcDbEntity
  8
USP-GEO
100
AcDbLine
 10
0.0000000000000178
 20
29.82322330470342
 30
0.0
 11
0.1767766952966561
 21
30.00000000000003
 31
0.0
  0
CIRCLE
  5
9B
100
AcDbEntity
  8
USP-GEO
100
AcDbCircle
 10
0.8750000000000035
 20
29.31250000000001
 30
0.0
 40
0.078
  0
LINE
  5
9C
100
AcDbEntity
  8
USP-GEO
100
AcDbLine
 10
1.250000000000017
 20
29.82322330470336
 30
0.0
 11
1.073223304703365
 21
30.00000000000001
 31
0.0
  0
ENDBLK
  5
9E
100
AcDbEntity
  8
0
100
AcDbBlockEnd
  0
ENDSEC
  0
SECTION
  2
ENTITIES
  0
INSERT
  5
3
100
AcDbEntity
  8
USP
100
AcDbBlockReference
  2
MTW30C_F
 10
4.167261201021196
 20
1.127465597372534
 30
0.0000000000000028
  0
INSERT
  5
53
100
AcDbEntity
  8
USP
100
AcDbBlockReference
  2
MTW30C_S
 10
14.39876899516699
 20
1.127465575783936
 30
0.0
  0
ENDSEC
  0
SECTION
  2
OBJECTS
  0
DICTIONARY
  5
BA
102
{ACAD_XDICTIONARY
360
BB
102
}
100
AcDbDictionary
  3
ACAD_GROUP
350
B7
  3
ACAD_MLINESTYLE
350
B8
  0
DICTIONARY
  5
AC
100
AcDbDictionary
280
     1
  0
DICTIONARY
  5
AE
100
AcDbDictionary
280
     1
  0
DICTIONARY
  5
6
100
AcDbDictionary
280
     1
  0
DICTIONARY
  5
20
100
AcDbDictionary
280
     1
  0
DICTIONARY
  5
BF
100
AcDbDictionary
280
     1
  0
DICTIONARY
  5
9F
100
AcDbDictionary
280
     1
  3
ACAD_LAYOUTSELFREF
360
A0
  0
DICTIONARY
  5
A4
100
AcDbDictionary
280
     1
  3
ACAD_LAYOUTSELFREF
360
A5
  0
DICTIONARY
  5
BB
100
AcDbDictionary
280
     1
  3
ACAD_XREC_ROUNDTRIP
360
BC
  0
DICTIONARY
  5
B7
102
{ACAD_REACTORS
330
BA
102
}
100
AcDbDictionary
  0
DICTIONARY
  5
B8
102
{ACAD_XDICTIONARY
360
B9
102
}
102
{ACAD_REACTORS
330
BA
102
}
100
AcDbDictionary
  3
STANDARD
350
BD
  0
XRECORD
  5
A0
102
{ACAD_REACTORS
330
9F
102
}
100
AcDbXrecord
340
2
  0
XRECORD
  5
A5
102
{ACAD_REACTORS
330
A4
102
}
100
AcDbXrecord
340
A5
  0
XRECORD
  5
BC
102
{ACAD_REACTORS
330
BB
102
}
100
AcDbXrecord
102
EXTNAMES
  1
ACDBVARIABLEDICTIONARY
  2
AcDbVariableDictionary
  0
DICTIONARY
  5
B9
100
AcDbDictionary
280
     1
  0
MLINESTYLE
  5
BD
102
{ACAD_REACTORS
330
B8
102
}
100
AcDbMlineStyle
  2
STANDARD
 70
     0
  3

 62
   256
 51
90.0
 52
90.0
 71
     2
 49
0.5
 62
   256
  6
BYLAYER
 49
-0.5
 62
   256
  6
BYLAYER
  0
ENDSEC
  0
EOF
