  0
SECTION
  2
HEADER
  9
$ACADVER
  1
AC1014
  9
$ACADMAINTVER
 70
     9
  9
$DWGCODEPAGE
  3
ANSI_1252
  9
$INSBASE
 10
0.0
 20
0.0
 30
0.0
  9
$EXTMIN
 10
0.0008313147735848
 20
0.0003093134622105
 30
0.0
  9
$EXTMAX
 10
27.24343222922951
 20
8.1326231725902
 30
0.0
  9
$LIMMIN
 10
0.0
 20
0.0
  9
$LIMMAX
 10
12.0
 20
9.0
  9
$ORTHOMODE
 70
     0
  9
$REGENMODE
 70
     1
  9
$FILLMODE
 70
     1
  9
$QTEXTMODE
 70
     0
  9
$MIRRTEXT
 70
     0
  9
$DRAGMODE
 70
     2
  9
$LTSCALE
 40
1.5
  9
$OSMODE
 70
    37
  9
$ATTMODE
 70
     1
  9
$TEXTSIZE
 40
0.4375
  9
$TRACEWID
 40
0.05
  9
$TEXTSTYLE
  7
STANDARD
  9
$CLAYER
  8
0
  9
$CELTYPE
  6
BYLAYER
  9
$CECOLOR
 62
   256
  9
$CELTSCALE
 40
1.0
  9
$DELOBJ
 70
     1
  9
$DISPSILH
 70
     1
  9
$DIMSCALE
 40
6.0
  9
$DIMASZ
 40
0.125
  9
$DIMEXO
 40
0.0625
  9
$DIMDLI
 40
0.37890625
  9
$DIMRND
 40
0.0
  9
$DIMDLE
 40
0.0
  9
$DIMEXE
 40
0.09375
  9
$DIMTP
 40
0.0
  9
$DIMTM
 40
0.0
  9
$DIMTXT
 40
0.109375
  9
$DIMCEN
 40
0.0
  9
$DIMTSZ
 40
0.0
  9
$DIMTOL
 70
     0
  9
$DIMLIM
 70
     0
  9
$DIMTIH
 70
     1
  9
$DIMTOH
 70
     1
  9
$DIMSE1
 70
     0
  9
$DIMSE2
 70
     0
  9
$DIMTAD
 70
     0
  9
$DIMZIN
 70
     8
  9
$DIMBLK
  1

  9
$DIMASO
 70
     1
  9
$DIMSHO
 70
     1
  9
$DIMPOST
  1

  9
$DIMAPOST
  1

  9
$DIMALT
 70
     0
  9
$DIMALTD
 70
     2
  9
$DIMALTF
 40
25.4
  9
$DIMLFAC
 40
1.0
  9
$DIMTOFL
 70
     0
  9
$DIMTVP
 40
0.0
  9
$DIMTIX
 70
     0
  9
$DIMSOXD
 70
     0
  9
$DIMSAH
 70
     0
  9
$DIMBLK1
  1

  9
$DIMBLK2
  1

  9
$DIMSTYLE
  2
STANDARD
  9
$DIMCLRD
 70
     0
  9
$DIMCLRE
 70
     0
  9
$DIMCLRT
 70
   256
  9
$DIMTFAC
 40
1.0
  9
$DIMGAP
 40
0.08984375
  9
$DIMJUST
 70
     0
  9
$DIMSD1
 70
     0
  9
$DIMSD2
 70
     0
  9
$DIMTOLJ
 70
     1
  9
$DIMTZIN
 70
     0
  9
$DIMALTZ
 70
     0
  9
$DIMALTTZ
 70
     0
  9
$DIMFIT
 70
     3
  9
$DIMUPT
 70
     1
  9
$DIMUNIT
 70
     7
  9
$DIMDEC
 70
     4
  9
$DIMTDEC
 70
     4
  9
$DIMALTU
 70
     2
  9
$DIMALTTD
 70
     2
  9
$DIMTXSTY
  7
STANDARD
  9
$DIMAUNIT
 70
     0
  9
$LUNITS
 70
     5
  9
$LUPREC
 70
     6
  9
$SKETCHINC
 40
0.1
  9
$FILLETRAD
 40
0.0
  9
$AUNITS
 70
     0
  9
$AUPREC
 70
     1
  9
$MENU
  1
CUSTOM
  9
$ELEVATION
 40
0.0
  9
$PELEVATION
 40
0.0
  9
$THICKNESS
 40
0.0
  9
$LIMCHECK
 70
     0
  9
$BLIPMODE
 70
     0
  9
$CHAMFERA
 40
0.0
  9
$CHAMFERB
 40
0.0
  9
$CHAMFERC
 40
0.0
  9
$CHAMFERD
 40
0.0
  9
$SKPOLY
 70
     0
  9
$TDCREATE
 40
2451263.663231366
  9
$TDUPDATE
 40
2452759.746258680
  9
$TDINDWG
 40
0.1267088773
  9
$TDUSRTIMER
 40
0.1267088773
  9
$USRTIMER
 70
     1
  9
$ANGBASE
 50
0.0
  9
$ANGDIR
 70
     0
  9
$PDMODE
 70
     0
  9
$PDSIZE
 40
0.0
  9
$PLINEWID
 40
0.0
  9
$COORDS
 70
     1
  9
$SPLFRAME
 70
     0
  9
$SPLINETYPE
 70
     6
  9
$SPLINESEGS
 70
     8
  9
$ATTDIA
 70
     0
  9
$ATTREQ
 70
     1
  9
$HANDLING
 70
     1
  9
$HANDSEED
  5
E5
  9
$SURFTAB1
 70
     6
  9
$SURFTAB2
 70
     6
  9
$SURFTYPE
 70
     6
  9
$SURFU
 70
     6
  9
$SURFV
 70
     6
  9
$UCSNAME
  2

  9
$UCSORG
 10
0.0
 20
0.0
 30
0.0
  9
$UCSXDIR
 10
1.0
 20
0.0
 30
0.0
  9
$UCSYDIR
 10
0.0
 20
1.0
 30
0.0
  9
$PUCSNAME
  2

  9
$PUCSORG
 10
0.0
 20
0.0
 30
0.0
  9
$PUCSXDIR
 10
1.0
 20
0.0
 30
0.0
  9
$PUCSYDIR
 10
0.0
 20
1.0
 30
0.0
  9
$USERI1
 70
     0
  9
$USERI2
 70
     0
  9
$USERI3
 70
     0
  9
$USERI4
 70
     0
  9
$USERI5
 70
     0
  9
$USERR1
 40
0.0
  9
$USERR2
 40
0.0
  9
$USERR3
 40
0.0
  9
$USERR4
 40
0.0
  9
$USERR5
 40
0.0
  9
$WORLDVIEW
 70
     1
  9
$SHADEDGE
 70
     3
  9
$SHADEDIF
 70
    70
  9
$TILEMODE
 70
     1
  9
$MAXACTVP
 70
    16
  9
$PINSBASE
 10
0.0
 20
0.0
 30
0.0
  9
$PLIMCHECK
 70
     0
  9
$PEXTMIN
 10
1.052083323321005
 20
0.7937500251559762
 30
0.0
  9
$PEXTMAX
 10
9.468749909889039
 20
7.143750226403783
 30
0.0
  9
$PLIMMIN
 10
-0.2145830289585384
 20
-0.2812499887361301
  9
$PLIMMAX
 10
10.78541673074557
 20
8.218749770967978
  9
$UNITMODE
 70
     0
  9
$VISRETAIN
 70
     0
  9
$PLINEGEN
 70
     0
  9
$PSLTSCALE
 70
     0
  9
$TREEDEPTH
 70
  3020
  9
$PICKSTYLE
 70
     1
  9
$CMLSTYLE
  2
STANDARD
  9
$CMLJUST
 70
     0
  9
$CMLSCALE
 40
1.0
  9
$PROXYGRAPHICS
 70
     1
  9
$MEASUREMENT
 70
     0
  0
ENDSEC
  0
SECTION
  2
CLASSES
  0
CLASS
  1
ACDBDICTIONARYWDFLT
  2
AcDbDictionaryWithDefault
  3
AutoCAD 2000
 90
        0
280
     0
281
     0
  0
CLASS
  1
ACDBPLACEHOLDER
  2
AcDbPlaceHolder
  3
AutoCAD 2000
 90
        0
280
     0
281
     0
  0
CLASS
  1
LAYOUT
  2
AcDbLayout
  3
AutoCAD 2000
 90
        0
280
     0
281
     0
  0
CLASS
  1
DICTIONARYVAR
  2
AcDbDictionaryVar
  3
"AutoCAD"
 90
        0
280
     0
281
     0
  0
CLASS
  1
LONG_TRANSACTION
  2
AcDbLongTransaction
  3
AutoCAD 2000
 90
        0
280
     0
281
     0
  0
CLASS
  1
LWPOLYLINE
  2
AcDbPolyline
  3
"AutoCAD"
 90
        0
280
     0
281
     1
  0
CLASS
  1
HATCH
  2
AcDbHatch
  3
"ACAD_SEDONA"
 90
        0
280
     0
281
     1
  0
CLASS
  1
XRECORD
  2
AcDbXrecord
  3
"<Built In>"
 90
        0
280
     0
281
     0
  0
CLASS
  1
LONG_TRANSACTION
  2
AcDbLongTransaction
  3
AutoCAD 2000
 90
        0
280
     0
281
     0
  0
CLASS
  1
LWPOLYLINE
  2
AcDbPolyline
  3
"AutoCAD"
 90
        0
280
     0
281
     1
  0
CLASS
  1
HATCH
  2
AcDbHatch
  3
"ACAD_SEDONA"
 90
        0
280
     0
281
     1
  0
CLASS
  1
XRECORD
  2
AcDbXrecord
  3
"<Built In>"
 90
        0
280
     0
281
     0
  0
ENDSEC
  0
SECTION
  2
TABLES
  0
TABLE
  2
VPORT
  5
C7
100
AcDbSymbolTable
 70
     1
  0
VPORT
  5
E1
100
AcDbSymbolTableRecord
100
AcDbViewportTableRecord
  2
*ACTIVE
 70
     0
 10
0.0
 20
0.0
 11
1.0
 21
1.0
 12
-9.473275157839941
 22
14.56083336499551
 13
0.0
 23
0.0
 14
1.0
 24
1.0
 15
0.0
 25
0.0
 16
0.0
 26
0.0
 36
1.0
 17
23.09603071721725
 27
-10.27010416511325
 37
-10.44050274849355
 40
18.78292835177392
 41
1.457627118644067
 42
50.0
 43
10.55307667737539
 44
10.55307667737539
 50
0.0
 51
0.0
 71
     0
 72
   100
 73
     1
 74
     1
 75
     0
 76
     0
 77
     0
 78
     0
  0
ENDTAB
  0
TABLE
  2
LTYPE
  5
C2
100
AcDbSymbolTable
 70
     1
  0
LTYPE
  5
C3
100
AcDbSymbolTableRecord
100
AcDbLinetypeTableRecord
  2
BYBLOCK
 70
     0
  3

 72
    65
 73
     0
 40
0.0
  0
LTYPE
  5
C4
100
AcDbSymbolTableRecord
100
AcDbLinetypeTableRecord
  2
BYLAYER
 70
     0
  3

 72
    65
 73
     0
 40
0.0
  0
LTYPE
  5
5
100
AcDbSymbolTableRecord
100
AcDbLinetypeTableRecord
  2
CONTINUOUS
 70
     0
  3
Solid line
 72
    65
 73
     0
 40
0.0
  0
ENDTAB
  0
TABLE
  2
LAYER
  5
C0
100
AcDbSymbolTable
 70
     4
  0
LAYER
  5
48
100
AcDbSymbolTableRecord
100
AcDbLayerTableRecord
  2
0
 70
     0
 62
     7
  6
CONTINUOUS
  0
LAYER
  5
8
100
AcDbSymbolTableRecord
100
AcDbLayerTableRecord
  2
USP-GEO
 70
     0
 62
     7
  6
CONTINUOUS
  0
LAYER
  5
12
100
AcDbSymbolTableRecord
100
AcDbLayerTableRecord
  2
USP-TXT
 70
     0
 62
     7
  6
CONTINUOUS
  0
LAYER
  5
4
100
AcDbSymbolTableRecord
100
AcDbLayerTableRecord
  2
USP
 70
     0
 62
     7
  6
CONTINUOUS
  0
ENDTAB
  0
TABLE
  2
STYLE
  5
C1
100
AcDbSymbolTable
 70
     1
  0
STYLE
  5
13
100
AcDbSymbolTableRecord
100
AcDbTextStyleTableRecord
  2
STANDARD
 70
     0
 40
0.0
 41
1.0
 50
0.0
 71
     0
 42
0.4375
  3
txt
  4

  0
ENDTAB
  0
TABLE
  2
VIEW
  5
C5
100
AcDbSymbolTable
 70
     0
  0
ENDTAB
  0
TABLE
  2
UCS
  5
C6
100
AcDbSymbolTable
 70
     0
  0
ENDTAB
  0
TABLE
  2
APPID
  5
C9
100
AcDbSymbolTable
 70
     1
  0
APPID
  5
BB
100
AcDbSymbolTableRecord
100
AcDbRegAppTableRecord
  2
ACAD
 70
     0
  0
ENDTAB
  0
TABLE
  2
DIMSTYLE
  5
CA
100
AcDbSymbolTable
 70
     1
  0
DIMSTYLE
105
D2
100
AcDbSymbolTableRecord
100
AcDbDimStyleTableRecord
  2
STANDARD
 70
     0
  3

  4

  5

  6

  7

 40
1.0
 41
0.18
 42
0.0625
 43
0.38
 44
0.18
 45
0.0
 46
0.0
 47
0.0
 48
0.0
140
0.18
141
0.09
142
0.0
143
25.4
144
1.0
145
0.0
146
1.0
147
0.09
 71
     0
 72
     0
 73
     1
 74
     1
 75
     0
 76
     0
 77
     0
 78
     0
170
     0
171
     2
172
     0
173
     0
174
     0
175
     0
176
     0
177
     0
178
     0
270
     2
271
     4
272
     4
273
     2
274
     2
340
13
275
     0
280
     0
281
     0
282
     0
283
     1
284
     0
285
     0
286
     0
287
     3
288
     0
  0
ENDTAB
  0
TABLE
  2
BLOCK_RECORD
  5
1
100
AcDbSymbolTable
 70
     3
  0
BLOCK_RECORD
  5
2
102
{ACAD_XDICTIONARY
360
B2
102
}
100
AcDbSymbolTableRecord
100
AcDbBlockTableRecord
  2
*MODEL_SPACE
  0
BLOCK_RECORD
  5
B6
102
{ACAD_XDICTIONARY
360
BC
102
}
100
AcDbSymbolTableRecord
100
AcDbBlockTableRecord
  2
*PAPER_SPACE
  0
BLOCK_RECORD
  5
6
100
AcDbSymbolTableRecord
100
AcDbBlockTableRecord
  2
MTW20_F
  0
BLOCK_RECORD
  5
4B
100
AcDbSymbolTableRecord
100
AcDbBlockTableRecord
  2
MTW20_T
  0
BLOCK_RECORD
  5
8B
100
AcDbSymbolTableRecord
100
AcDbBlockTableRecord
  2
MTW20_S
  0
ENDTAB
  0
ENDSEC
  0
SECTION
  2
BLOCKS
  0
BLOCK
  5
B4
100
AcDbEntity
  8
0
100
AcDbBlockBegin
  2
*MODEL_SPACE
 70
     0
 10
0.0
 20
0.0
 30
0.0
  3
*MODEL_SPACE
  1

  0
ENDBLK
  5
B5
100
AcDbEntity
  8
0
100
AcDbBlockEnd
  0
BLOCK
  5
BE
100
AcDbEntity
 67
     1
  8
0
100
AcDbBlockBegin
  2
*PAPER_SPACE
 70
     0
 10
0.0
 20
0.0
 30
0.0
  3
*PAPER_SPACE
  1

  0
ENDBLK
  5
BF
100
AcDbEntity
 67
     1
  8
0
100
AcDbBlockEnd
  0
BLOCK
  5
47
100
AcDbEntity
  8
0
100
AcDbBlockBegin
  2
MTW20_F
 70
     0
 10
0.0
 20
0.0
 30
0.0
  3
MTW20_F
  1

  0
CIRCLE
  5
7
100
AcDbEntity
  8
USP-GEO
100
AcDbCircle
 10
13.69999999999996
 20
0.2499999999999929
 30
0.0
 40
0.082
  0
LINE
  5
9
100
AcDbEntity
  8
USP-GEO
100
AcDbLine
 10
19.82322330470334
 20
0.0000000000000142
 30
0.0
 11
12.1875
 21
0.000000000000016
 31
0.0
  0
LINE
  5
A
100
AcDbEntity
  8
USP-GEO
100
AcDbLine
 10
12.1875
 20
1.250000000000003
 30
0.0
 11
19.82322330470331
 21
1.25000000000001
 31
0.0
  0
LINE
  5
B
100
AcDbEntity
  8
USP-GEO
100
AcDbLine
 10
0.1767766952966223
 20
1.37500000000001
 30
0.0
 11
7.812500000000007
 21
1.375000000000003
 31
0.0
  0
LINE
  5
C
100
AcDbEntity
  8
USP-GEO
100
AcDbLine
 10
7.812500000000007
 20
1.427000000000004
 30
0.0
 11
0.1767766952966223
 21
1.427000000000001
 31
0.0
  0
LINE
  5
D
100
AcDbEntity
  8
USP-GEO
100
AcDbLine
 10
0.0
 20
1.426999999999999
 30
0.0
 11
0.0000000000000001
 21
1.37500000000001
 31
0.0
  0
LINE
  5
E
100
AcDbEntity
  8
USP-GEO
100
AcDbLine
 10
0.1767766952966223
 20
1.426999999999999
 30
0.0
 11
0.1767766952966224
 21
1.375000000000014
 31
0.0
  0
LINE
  5
F
100
AcDbEntity
  8
USP-GEO
100
AcDbLine
 10
0.0000000000000011
 20
1.375
 30
0.0
 11
0.1767766952966223
 21
1.375
 31
0.0
  0
LINE
  5
10
100
AcDbEntity
  8
USP-GEO
100
AcDbLine
 10
0.1767766952966223
 20
1.426999999999999
 30
0.0
 11
0.0000000000000002
 21
1.426999999999999
 31
0.0
  0
TEXT
  5
11
100
AcDbEntity
  8
USP-TXT
100
AcDbText
 10
6.834192012971454
 20
-1.675332729818759
 30
0.0
 40
0.328125
  1
MTW20 - FRONT VIEW
 72
     1
 11
9.814660762971454
 21
-1.675332729818759
 31
0.0
100
AcDbText
  0
LINE
  5
14
100
AcDbEntity
  8
USP-GEO
100
AcDbLine
 10
10.97511090042477
 20
0.148829374833058
 30
0.0
 11
9.024889099536814
 21
1.351170625190649
 31
0.0
  0
LINE
  5
15
100
AcDbEntity
  8
USP-GEO
100
AcDbLine
 10
9.024889099536812
 20
1.375000000000001
 30
0.0
 11
10.97511090042477
 21
1.375
 31
0.0
  0
LINE
  5
16
100
AcDbEntity
  8
USP-GEO
100
AcDbLine
 10
10.97511090042477
 20
1.426999999999999
 30
0.0
 11
9.024889099536812
 21
1.427000000000001
 31
0.0
  0
LINE
  5
17
100
AcDbEntity
  8
USP-GEO
100
AcDbLine
 10
7.937500000000007
 20
1.375000000000001
 30
0.0
 11
8.500000000000007
 21
1.375000000000001
 31
0.0
  0
LINE
  5
18
100
AcDbEntity
  8
USP-GEO
100
AcDbLine
 10
8.500000000000007
 20
1.427000000000001
 30
0.0
 11
7.937500000000007
 21
1.427000000000001
 31
0.0
  0
LINE
  5
19
100
AcDbEntity
  8
USP-GEO
100
AcDbLine
 10
7.937500000000007
 20
1.427000000000001
 30
0.0
 11
7.937500000000007
 21
1.375000000000001
 31
0.0
  0
LINE
  5
1A
100
AcDbEntity
  8
USP-GEO
100
AcDbLine
 10
7.812500000000007
 20
1.427000000000003
 30
0.0
 11
7.812500000000007
 21
1.375
 31
0.0
  0
LINE
  5
1B
100
AcDbEntity
  8
USP-GEO
100
AcDbLine
 10
7.812500000000007
 20
1.375000000000005
 30
0.0
 11
7.937500000000007
 21
1.375000000000005
 31
0.0
  0
LINE
  5
1C
100
AcDbEntity
  8
USP-GEO
100
AcDbLine
 10
7.937500000000007
 20
1.427000000000004
 30
0.0
 11
7.812500000000007
 21
1.427000000000004
 31
0.0
  0
LINE
  5
1D
100
AcDbEntity
  8
USP-GEO
100
AcDbLine
 10
8.500000000000007
 20
1.427000000000001
 30
0.0
 11
8.500000000000007
 21
1.375000000000001
 31
0.0
  0
LINE
  5
1E
100
AcDbEntity
  8
USP-GEO
100
AcDbLine
 10
9.024889099536814
 20
1.427000000000003
 30
0.0
 11
9.024889099536814
 21
1.375000000000003
 31
0.0
  0
LINE
  5
1F
100
AcDbEntity
  8
USP-GEO
100
AcDbLine
 10
8.500000000000007
 20
1.375000000000003
 30
0.0
 11
9.024889099536814
 21
1.375000000000003
 31
0.0
  0
ARC
  5
20
100
AcDbEntity
  8
USP-GEO
100
AcDbCircle
 10
9.036122918275921
 20
1.405138783004749
 30
0.0
 40
0.052
100
AcDbArc
 50
215.4218498623945
 51
239.3613090150273
  0
ARC
  5
21
100
AcDbEntity
  8
USP-GEO
100
AcDbCircle
 10
8.500000000000007
 20
0.5
 30
0.0
 40
1.0
100
AcDbArc
 50
58.33922221061289
 51
59.36130901502351
  0
LINE
  5
22
100
AcDbEntity
  8
USP-GEO
100
AcDbLine
 10
8.500000000000007
 20
1.427000000000004
 30
0.0
 11
9.024889099536814
 21
1.427000000000004
 31
0.0
  0
LINE
  5
23
100
AcDbEntity
  8
USP-GEO
100
AcDbLine
 10
12.0625
 20
0.0000000000000142
 30
0.0
 11
11.5
 21
0.0000000000000142
 31
0.0
  0
ARC
  5
24
100
AcDbEntity
  8
USP-GEO
100
AcDbCircle
 10
11.5
 20
1.0
 30
0.0
 40
1.0
100
AcDbArc
 50
238.339222208026
 51
270.0
  0
CIRCLE
  5
25
100
AcDbEntity
  8
USP-GEO
100
AcDbCircle
 10
12.69999999999996
 20
0.375
 30
0.0
 40
0.082
  0
ARC
  5
26
100
AcDbEntity
  8
USP-GEO
100
AcDbCircle
 10
12.125
 20
0.0000000000000178
 30
0.0
 40
0.0625
100
AcDbArc
 50
359.9999999999959
 51
180.0000000000032
  0
LINE
  5
27
100
AcDbEntity
  8
USP-GEO
100
AcDbLine
 10
11.50000000000001
 20
1.250000000000001
 30
0.0
 11
12.06250000000001
 21
1.250000000000001
 31
0.0
  0
SPLINE
  5
28
100
AcDbEntity
  8
USP-GEO
100
AcDbSpline
210
0.0
220
0.0
230
-1.0
 70
     8
 71
     3
 72
    12
 73
     8
 74
     0
 42
0.0000001
 43
0.0000001
 40
0.0
 40
0.0
 40
0.0
 40
0.0
 40
0.0196268480160634
 40
0.0196268480160634
 40
0.0435618951481583
 40
0.0435618951481583
 40
0.0661741207439531
 40
0.0661741207439531
 40
0.0661741207439531
 40
0.0661741207439531
 10
11.00625223669715
 20
1.416353331171062
 30
0.0
 10
11.00625223669715
 20
1.409811048499042
 30
0.0
 10
11.00751321042668
 20
1.403209138746634
 30
0.0
 10
11.01238179636604
 20
1.389482317356637
 30
0.0
 10
11.01650077397453
 20
1.382399927907357
 30
0.0
 10
11.02675772881127
 20
1.370623538825734
 30
0.0
 10
11.03273773994827
 20
1.365848743273403
 30
0.0
 10
11.03946653965185
 20
1.362357655415342
 30
0.0
  0
LINE
  5
29
100
AcDbEntity
  8
USP-GEO
100
AcDbLine
 10
11.00625223669715
 20
1.375
 30
0.0
 11
11.00625223669715
 21
1.416353331170816
 31
0.0
  0
ARC
  5
2A
100
AcDbEntity
  8
USP-GEO
100
AcDbCircle
 10
11.06787708172406
 20
1.406214610519548
 30
0.0
 40
0.052
100
AcDbArc
 50
180.0000000000038
 51
242.8819156845036
  0
LINE
  5
2B
100
AcDbEntity
  8
USP-GEO
100
AcDbLine
 10
10.99037745411033
 20
1.427000000000001
 30
0.0
 11
10.99037745411033
 21
1.375000000000001
 31
0.0
  0
LINE
  5
2C
100
AcDbEntity
  8
USP-GEO
100
AcDbLine
 10
10.97511090042477
 20
1.426999999999999
 30
0.0
 11
10.97511090042477
 21
1.375
 31
0.0
  0
ARC
  5
2D
100
AcDbEntity
  8
USP-GEO
100
AcDbCircle
 10
11.50000000000001
 20
2.250000000000003
 30
0.0
 40
1.0
100
AcDbArc
 50
242.5784641023364
 51
270.0
  0
LINE
  5
2E
100
AcDbEntity
  8
USP-GEO
100
AcDbLine
 10
10.99037745411033
 20
1.375
 30
0.0
 11
11.00625223669715
 21
1.375
 31
0.0
  0
LINE
  5
2F
100
AcDbEntity
  8
USP-GEO
100
AcDbLine
 10
10.97511090042477
 20
1.375000000000001
 30
0.0
 11
10.99037745411033
 21
1.375000000000001
 31
0.0
  0
SPLINE
  5
30
100
AcDbEntity
  8
USP-GEO
100
AcDbSpline
210
0.0
220
0.0
230
-1.0
 70
     8
 71
     3
 72
    20
 73
    16
 74
     0
 42
0.0000001
 43
0.0000001
 40
0.065553952005415
 40
0.065553952005415
 40
0.065553952005415
 40
0.065553952005415
 40
0.0733809879263543
 40
0.0733809879263543
 40
0.0733809879263543
 40
0.0847958082704539
 40
0.0847958082704539
 40
0.0847958082704539
 40
0.1007765567521933
 40
0.1007765567521933
 40
0.1007765567521933
 40
0.1231496046266284
 40
0.1231496046266284
 40
0.1231496046266284
 40
0.1304550896468521
 40
0.1304550896468521
 40
0.1304550896468521
 40
0.1304550896468521
 10
11.00625223669738
 20
1.416353331170816
 30
0.0
 10
11.00697970017521
 20
1.415565570361037
 30
0.0
 10
11.00767498455185
 20
1.414817588516086
 30
0.0
 10
11.00833352016195
 20
1.41411293892604
 30
0.0
 10
11.00929391765538
 20
1.413085289563344
 30
0.0
 10
11.01017594163286
 20
1.412150008541734
 30
0.0
 10
11.01096844898059
 20
1.411314794469564
 30
0.0
 10
11.01207795926741
 20
1.410145494768533
 30
0.0
 10
11.01300942085023
 20
1.409174804226255
 30
0.0
 10
11.01375854538444
 20
1.40839798105423
 30
0.0
 10
11.01480731973232
 20
1.407310428613401
 30
0.0
 10
11.01548415602947
 20
1.40661731762365
 30
0.0
 10
11.01574807127336
 20
1.406346799071965
 30
0.0
 10
11.01583424767953
 20
1.406258466483663
 30
0.0
 10
11.01587708172406
 20
1.406214610519549
 30
0.0
 10
11.01587708172406
 20
1.406214610519544
 30
0.0
  0
SPLINE
  5
31
100
AcDbEntity
  8
USP-GEO
100
AcDbSpline
210
0.0
220
0.0
230
-1.0
 70
     8
 71
     3
 72
    14
 73
    10
 74
     0
 42
0.0000001
 43
0.0000001
 40
0.0474419666514962
 40
0.0474419666514962
 40
0.0474419666514962
 40
0.0474419666514962
 40
0.0523925356555837
 40
0.0523925356555837
 40
0.0649580475525351
 40
0.0649580475525351
 40
0.0775235594494866
 40
0.0775235594494866
 40
0.0801084536668116
 40
0.0801084536668116
 40
0.0801084536668116
 40
0.0801084536668116
 10
11.01587708172406
 20
1.41737515497309
 30
0.0
 10
11.01587708172406
 20
1.418404196422644
 30
0.0
 10
11.01581493309955
 20
1.419336812591266
 30
0.0
 10
11.01539070430121
 20
1.422225081098609
 30
0.0
 10
11.01462933653101
 20
1.423968224002573
 30
0.0
 10
11.01191547362231
 20
1.426254238364563
 30
0.0
 10
11.00995277549598
 20
1.426810015325864
 30
0.0
 10
11.00723579629419
 20
1.426985679460436
 30
0.0
 10
11.00675324444794
 20
1.426999999999999
 30
0.0
 10
11.00625223669715
 20
1.426999999999999
 30
0.0
  0
LINE
  5
32
100
AcDbEntity
  8
USP-GEO
100
AcDbLine
 10
11.01587708172406
 20
1.406214610519544
 30
0.0
 11
11.01587708172406
 21
1.41737515497309
 31
0.0
  0
LINE
  5
33
100
AcDbEntity
  8
USP-GEO
100
AcDbLine
 10
11.00625223669715
 20
1.426999999999999
 30
0.0
 11
10.99037745411033
 21
1.426999999999999
 31
0.0
  0
LINE
  5
34
100
AcDbEntity
  8
USP-GEO
100
AcDbLine
 10
10.99037745411033
 20
1.427000000000001
 30
0.0
 11
10.97511090042477
 21
1.427000000000001
 31
0.0
  0
ARC
  5
35
100
AcDbEntity
  8
USP-GEO
100
AcDbCircle
 10
12.125
 20
1.25
 30
0.0
 40
0.0625
100
AcDbArc
 50
179.9999999999983
 51
359.9999999999992
  0
CIRCLE
  5
36
100
AcDbEntity
  8
USP-GEO
100
AcDbCircle
 10
13.32499999999996
 20
0.9999999999999822
 30
0.0
 40
0.082
  0
CIRCLE
  5
37
100
AcDbEntity
  8
USP-GEO
100
AcDbCircle
 10
14.69999999999996
 20
0.3749999999999964
 30
0.0
 40
0.082
  0
CIRCLE
  5
38
100
AcDbEntity
  8
USP-GEO
100
AcDbCircle
 10
15.69999999999996
 20
0.2499999999999964
 30
0.0
 40
0.082
  0
CIRCLE
  5
39
100
AcDbEntity
  8
USP-GEO
100
AcDbCircle
 10
16.69999999999996
 20
0.3749999999999964
 30
0.0
 40
0.082
  0
CIRCLE
  5
3A
100
AcDbEntity
  8
USP-GEO
100
AcDbCircle
 10
17.69999999999996
 20
0.2499999999999893
 30
0.0
 40
0.082
  0
CIRCLE
  5
3B
100
AcDbEntity
  8
USP-GEO
100
AcDbCircle
 10
14.32499999999996
 20
0.875
 30
0.0
 40
0.082
  0
CIRCLE
  5
3C
100
AcDbEntity
  8
USP-GEO
100
AcDbCircle
 10
15.32499999999996
 20
0.9999999999999822
 30
0.0
 40
0.082
  0
CIRCLE
  5
3D
100
AcDbEntity
  8
USP-GEO
100
AcDbCircle
 10
16.32499999999996
 20
0.8749999999999946
 30
0.0
 40
0.082
  0
CIRCLE
  5
3E
100
AcDbEntity
  8
USP-GEO
100
AcDbCircle
 10
17.32499999999996
 20
0.999999999999984
 30
0.0
 40
0.082
  0
CIRCLE
  5
3F
100
AcDbEntity
  8
USP-GEO
100
AcDbCircle
 10
19.37499999999997
 20
0.6249999999999965
 30
0.0
 40
0.1560000000000001
  0
LINE
  5
40
100
AcDbEntity
  8
USP-GEO
100
AcDbLine
 10
19.99999999999995
 20
1.073223304703361
 30
0.0
 11
19.99999999999995
 21
0.1767766952966348
 31
0.0
  0
CIRCLE
  5
41
100
AcDbEntity
  8
USP-GEO
100
AcDbCircle
 10
18.69999999999996
 20
0.3749999999999964
 30
0.0
 40
0.082
  0
CIRCLE
  5
42
100
AcDbEntity
  8
USP-GEO
100
AcDbCircle
 10
19.69999999999995
 20
0.2499999999999858
 30
0.0
 40
0.082
  0
LINE
  5
43
100
AcDbEntity
  8
USP-GEO
100
AcDbLine
 10
19.99999999999995
 20
0.1767766952966348
 30
0.0
 11
19.82322330470334
 21
0.0000000000000142
 31
0.0
  0
CIRCLE
  5
44
100
AcDbEntity
  8
USP-GEO
100
AcDbCircle
 10
18.32499999999996
 20
0.8749999999999911
 30
0.0
 40
0.082
  0
CIRCLE
  5
45
100
AcDbEntity
  8
USP-GEO
100
AcDbCircle
 10
19.32499999999996
 20
0.9999999999999911
 30
0.0
 40
0.082
  0
LINE
  5
46
100
AcDbEntity
  8
USP-GEO
100
AcDbLine
 10
19.82322330470331
 20
1.25
 30
0.0
 11
19.99999999999995
 21
1.073223304703365
 31
0.0
  0
ENDBLK
  5
49
100
AcDbEntity
  8
0
100
AcDbBlockEnd
  0
BLOCK
  5
88
100
AcDbEntity
  8
0
100
AcDbBlockBegin
  2
MTW20_T
 70
     0
 10
0.0
 20
0.0
 30
0.0
  3
MTW20_T
  1

  0
LINE
  5
4C
100
AcDbEntity
  8
USP-GEO
100
AcDbLine
 10
19.82322330470331
 20
1.427000000000016
 30
0.0
 11
12.1875
 21
1.426999999999987
 31
0.0
  0
LINE
  5
4D
100
AcDbEntity
  8
USP-GEO
100
AcDbLine
 10
12.1875
 20
1.374999999999988
 30
0.0
 11
19.82322330470331
 21
1.375000000000016
 31
0.0
  0
CIRCLE
  5
4E
100
AcDbEntity
  8
USP-GEO
100
AcDbCircle
 10
5.300000000000013
 20
0.8750000000000458
 30
0.0
 40
0.082
  0
LINE
  5
4F
100
AcDbEntity
  8
USP-GEO
100
AcDbLine
 10
7.812500000000007
 20
-0.0000000000000018
 30
0.0
 11
0.1767766952966223
 21
0.0
 31
0.0
  0
LINE
  5
50
100
AcDbEntity
  8
USP-GEO
100
AcDbLine
 10
7.812500000000007
 20
1.249999999999986
 30
0.0
 11
0.1767766952966401
 21
1.249999999999987
 31
0.0
  0
CIRCLE
  5
51
100
AcDbEntity
  8
USP-GEO
100
AcDbCircle
 10
0.675000000000015
 20
0.2500000000000173
 30
0.0
 40
0.082
  0
LINE
  5
52
100
AcDbEntity
  8
USP-GEO
100
AcDbLine
 10
0.0
 20
0.1767766952966374
 30
0.0
 11
0.0
 21
1.073223304703346
 31
0.0
  0
LINE
  5
53
100
AcDbEntity
  8
USP-GEO
100
AcDbLine
 10
0.1767766952966223
 20
-0.0000000000000013
 30
0.0
 11
0.0
 21
0.1767766952966374
 31
0.0
  0
CIRCLE
  5
54
100
AcDbEntity
  8
USP-GEO
100
AcDbCircle
 10
0.3000000000000131
 20
1.000000000000014
 30
0.0
 40
0.082
  0
CIRCLE
  5
55
100
AcDbEntity
  8
USP-GEO
100
AcDbCircle
 10
0.6250000000000018
 20
0.6250000000000138
 30
0.0
 40
0.156
  0
LINE
  5
56
100
AcDbEntity
  8
USP-GEO
100
AcDbLine
 10
0.1767766952966401
 20
1.249999999999985
 30
0.0
 11
0.0000000000000005
 21
1.073223304703345
 31
0.0
  0
CIRCLE
  5
57
100
AcDbEntity
  8
USP-GEO
100
AcDbCircle
 10
4.675000000000011
 20
0.2500000000000444
 30
0.0
 40
0.082
  0
CIRCLE
  5
58
100
AcDbEntity
  8
USP-GEO
100
AcDbCircle
 10
2.675000000000013
 20
0.2500000000000293
 30
0.0
 40
0.082
  0
CIRCLE
  5
59
100
AcDbEntity
  8
USP-GEO
100
AcDbCircle
 10
1.300000000000013
 20
0.8750000000000145
 30
0.0
 40
0.082
  0
CIRCLE
  5
5A
100
AcDbEntity
  8
USP-GEO
100
AcDbCircle
 10
1.675000000000013
 20
0.3750000000000146
 30
0.0
 40
0.082
  0
CIRCLE
  5
5B
100
AcDbEntity
  8
USP-GEO
100
AcDbCircle
 10
2.300000000000011
 20
1.000000000000014
 30
0.0
 40
0.082
  0
CIRCLE
  5
5C
100
AcDbEntity
  8
USP-GEO
100
AcDbCircle
 10
3.675000000000011
 20
0.3750000000000306
 30
0.0
 40
0.082
  0
CIRCLE
  5
5D
100
AcDbEntity
  8
USP-GEO
100
AcDbCircle
 10
3.300000000000011
 20
0.8750000000000298
 30
0.0
 40
0.082
  0
CIRCLE
  5
5E
100
AcDbEntity
  8
USP-GEO
100
AcDbCircle
 10
4.300000000000013
 20
1.000000000000032
 30
0.0
 40
0.082
  0
TEXT
  5
5F
100
AcDbEntity
  8
USP-TXT
100
AcDbText
 10
7.162317012971454
 20
-1.934320661553287
 30
0.0
 40
0.328125
  1
MTW20 - TOP VIEW
 72
     1
 11
9.814660762971454
 21
-1.934320661553287
 31
0.0
100
AcDbText
  0
LINE
  5
60
100
AcDbEntity
  8
USP-GEO
100
AcDbLine
 10
8.973711956384285
 20
1.374999999999991
 30
0.0
 11
11.00625223669715
 21
1.374999999999991
 31
0.0
  0
LINE
  5
61
100
AcDbEntity
  8
USP-GEO
100
AcDbLine
 10
11.0262880436157
 20
1.426999999999992
 30
0.0
 11
8.993747763302842
 21
1.426999999999992
 31
0.0
  0
LINE
  5
62
100
AcDbEntity
  8
USP-GEO
100
AcDbLine
 10
10.97511090042477
 20
1.351170625166942
 30
0.0
 11
9.024889099536812
 21
0.148829374809349
 31
0.0
  0
CIRCLE
  5
63
100
AcDbEntity
  8
USP-GEO
100
AcDbCircle
 10
6.675000000000011
 20
0.2500000000000573
 30
0.0
 40
0.082
  0
LINE
  5
64
100
AcDbEntity
  8
USP-GEO
100
AcDbLine
 10
8.500000000000007
 20
-0.000000000000004
 30
0.0
 11
7.937500000000007
 21
-0.000000000000004
 31
0.0
  0
ARC
  5
65
100
AcDbEntity
  8
USP-GEO
100
AcDbCircle
 10
7.875000000000007
 20
-0.0000000000000031
 30
0.0
 40
0.0625
100
AcDbArc
 50
359.9999999999974
 51
180.0000000000008
  0
ARC
  5
66
100
AcDbEntity
  8
USP-GEO
100
AcDbCircle
 10
8.500000000000007
 20
0.9999999999999968
 30
0.0
 40
1.0
100
AcDbArc
 50
270.0
 51
301.6607777893869
  0
CIRCLE
  5
67
100
AcDbEntity
  8
USP-GEO
100
AcDbCircle
 10
7.300000000000013
 20
0.8750000000000589
 30
0.0
 40
0.082
  0
CIRCLE
  5
68
100
AcDbEntity
  8
USP-GEO
100
AcDbCircle
 10
6.300000000000014
 20
1.000000000000044
 30
0.0
 40
0.082
  0
CIRCLE
  5
69
100
AcDbEntity
  8
USP-GEO
100
AcDbCircle
 10
5.675000000000014
 20
0.3750000000000457
 30
0.0
 40
0.082
  0
LINE
  5
6A
100
AcDbEntity
  8
USP-GEO
100
AcDbLine
 10
8.500000000000007
 20
1.249999999999983
 30
0.0
 11
7.937500000000007
 21
1.249999999999983
 31
0.0
  0
ARC
  5
6B
100
AcDbEntity
  8
USP-GEO
100
AcDbCircle
 10
7.875000000000007
 20
1.249999999999984
 30
0.0
 40
0.0625
100
AcDbArc
 50
180.0000000000016
 51
359.9999999999974
  0
ARC
  5
6C
100
AcDbEntity
  8
USP-GEO
100
AcDbCircle
 10
8.500000000000007
 20
2.249999999999997
 30
0.0
 40
1.0
100
AcDbArc
 50
270.0
 51
297.1180843154949
  0
ARC
  5
6D
100
AcDbEntity
  8
USP-GEO
100
AcDbCircle
 10
8.932122918275922
 20
1.406214610519529
 30
0.0
 40
0.052
100
AcDbArc
 50
297.1180843154966
 51
323.1099766138937
  0
SPLINE
  5
6E
100
AcDbEntity
  8
USP-GEO
100
AcDbSpline
210
0.0
220
0.0
230
1.0
 70
     8
 71
     3
 72
    14
 73
    10
 74
     0
 42
0.0000001
 43
0.0000001
 40
0.4307552342338307
 40
0.4307552342338307
 40
0.4307552342338307
 40
0.4307552342338307
 40
0.4340793322409914
 40
0.4340793322409914
 40
0.4465199591113184
 40
0.4465199591113184
 40
0.4589605859816454
 40
0.4589605859816454
 40
0.4649196541048639
 40
0.4649196541048639
 40
0.4649196541048639
 40
0.4649196541048639
 10
8.973711956384285
 20
1.375000000010648
 30
0.0
 10
8.974380390932871
 20
1.375890594173477
 30
0.0
 10
8.975018421828838
 20
1.376800308770322
 30
0.0
 10
8.977894554548122
 20
1.381192204974431
 30
0.0
 10
8.979886862577519
 20
1.385213536700891
 30
0.0
 10
8.982684849311283
 20
1.393333207462624
 30
0.0
 10
8.983500547670868
 20
1.397424362423838
 30
0.0
 10
8.984033647959563
 20
1.402715659998051
 30
0.0
 10
8.984122918275922
 20
1.404492296033782
 30
0.0
 10
8.984122918275922
 20
1.406214610519529
 30
0.0
  0
SPLINE
  5
6F
100
AcDbEntity
  8
USP-GEO
100
AcDbSpline
210
0.0
220
0.0
230
-1.0
 70
     8
 71
     3
 72
    14
 73
    10
 74
     0
 42
0.0000001
 43
0.0000001
 40
0.0474419666514839
 40
0.0474419666514839
 40
0.0474419666514839
 40
0.0474419666514839
 40
0.0523925356555811
 40
0.0523925356555811
 40
0.0649580475525314
 40
0.0649580475525314
 40
0.0775235594494817
 40
0.0775235594494817
 40
0.0801084536668132
 40
0.0801084536668132
 40
0.0801084536668132
 40
0.0801084536668132
 10
8.984122918275922
 20
1.417375154973072
 30
0.0
 10
8.984122918275922
 20
1.41840419642263
 30
0.0
 10
8.984185066900437
 20
1.419336812591253
 30
0.0
 10
8.984609295698774
 20
1.422225081098597
 30
0.0
 10
8.98537066346897
 20
1.423968224002561
 30
0.0
 10
8.988084526377669
 20
1.426254238364553
 30
0.0
 10
8.990047224504007
 20
1.426810015325852
 30
0.0
 10
8.992764203705799
 20
1.426985679460428
 30
0.0
 10
8.99324675555205
 20
1.426999999999992
 30
0.0
 10
8.993747763302842
 20
1.426999999999992
 30
0.0
  0
LINE
  5
70
100
AcDbEntity
  8
USP-GEO
100
AcDbLine
 10
8.984122918275922
 20
1.417375154973072
 30
0.0
 11
8.984122918275922
 21
1.406214610519528
 31
0.0
  0
LINE
  5
71
100
AcDbEntity
  8
USP-GEO
100
AcDbLine
 10
11.50000000000001
 20
1.374999999999992
 30
0.0
 11
12.06250000000001
 21
1.374999999999992
 31
0.0
  0
LINE
  5
72
100
AcDbEntity
  8
USP-GEO
100
AcDbLine
 10
12.06250000000001
 20
1.426999999999991
 30
0.0
 11
11.5
 21
1.426999999999991
 31
0.0
  0
LINE
  5
73
100
AcDbEntity
  8
USP-GEO
100
AcDbLine
 10
11.03946654250256
 20
1.374999999999994
 30
0.0
 11
11.50000000000001
 21
1.374999999999993
 31
0.0
  0
LINE
  5
74
100
AcDbEntity
  8
USP-GEO
100
AcDbLine
 10
11.5
 20
1.426999999999991
 30
0.0
 11
11.04417413683972
 21
1.426999999999992
 31
0.0
  0
ARC
  5
75
100
AcDbEntity
  8
USP-GEO
100
AcDbCircle
 10
10.96387708172406
 20
1.40513878300473
 30
0.0
 40
0.052
100
AcDbArc
 50
300.6386909849814
 51
324.5781501376175
  0
ARC
  5
76
100
AcDbEntity
  8
USP-GEO
100
AcDbCircle
 10
11.5
 20
0.4999999999999978
 30
0.0
 40
1.0
100
AcDbArc
 50
120.6386909849778
 51
121.6607777919737
  0
SPLINE
  5
77
100
AcDbEntity
  8
USP-GEO
100
AcDbSpline
210
0.0
220
1.0
230
0.0
 70
    24
 71
     3
 72
    12
 73
     8
 74
     0
 42
0.0000001
 43
0.0000001
 40
0.0
 40
0.0
 40
0.0
 40
0.0
 40
0.0196268480160634
 40
0.0196268480160634
 40
0.0435618951481583
 40
0.0435618951481583
 40
0.0661741207439531
 40
0.0661741207439531
 40
0.0661741207439531
 40
0.0661741207439531
 10
11.00625223669715
 20
1.374999999999991
 30
0.0
 10
11.00625223669715
 20
1.374999999999991
 30
0.0
 10
11.00751321042668
 20
1.374999999999991
 30
0.0
 10
11.01238179636604
 20
1.374999999999991
 30
0.0
 10
11.01650077397453
 20
1.374999999999993
 30
0.0
 10
11.02675772881127
 20
1.374999999999989
 30
0.0
 10
11.03273773994827
 20
1.374999999999991
 30
0.0
 10
11.03946653965185
 20
1.374999999999991
 30
0.0
  0
SPLINE
  5
78
100
AcDbEntity
  8
USP-GEO
100
AcDbSpline
210
0.0
220
0.0
230
-1.0
 70
     8
 71
     3
 72
    14
 73
    10
 74
     0
 42
0.0000001
 43
0.0000001
 40
0.1752198625318914
 40
0.1752198625318914
 40
0.1752198625318914
 40
0.1752198625318914
 40
0.1785439605390575
 40
0.1785439605390575
 40
0.1909845874093837
 40
0.1909845874093837
 40
0.2034252142797099
 40
0.2034252142797099
 40
0.2093842824029358
 40
0.2093842824029358
 40
0.2093842824029358
 40
0.2093842824029358
 10
11.0262880436157
 20
1.426999999999992
 30
0.0
 10
11.02561960906711
 20
1.426999999999809
 30
0.0
 10
11.02498157817115
 20
1.426977099196124
 30
0.0
 10
11.02210544545187
 20
1.426746514122962
 30
0.0
 10
11.02011313742247
 20
1.426161596208918
 30
0.0
 10
11.0173151506887
 20
1.423843820632662
 30
0.0
 10
11.01649945232912
 20
1.422097925918157
 30
0.0
 10
11.01596635204042
 20
1.419042683748716
 30
0.0
 10
11.01587708172406
 20
1.41788171949719
 30
0.0
 10
11.01587708172406
 20
1.41658903810035
 30
0.0
  0
LINE
  5
79
100
AcDbEntity
  8
USP-GEO
100
AcDbLine
 10
11.04417413683972
 20
1.405138783004729
 30
0.0
 11
11.01587708172406
 21
1.405138783004729
 31
0.0
  0
LINE
  5
7A
100
AcDbEntity
  8
USP-GEO
100
AcDbLine
 10
11.04417413683972
 20
1.405138783004729
 30
0.0
 11
11.04417413683972
 21
1.426999999999992
 31
0.0
  0
LINE
  5
7B
100
AcDbEntity
  8
USP-GEO
100
AcDbLine
 10
11.04417413683972
 20
1.426999999999993
 30
0.0
 11
11.0262880436157
 21
1.426999999999993
 31
0.0
  0
SPLINE
  5
7C
100
AcDbEntity
  8
USP-GEO
100
AcDbSpline
210
0.0
220
0.0
230
1.0
 70
     8
 71
     3
 72
    14
 73
    10
 74
     0
 42
0.0000001
 43
0.0000001
 40
0.0999837542221443
 40
0.0999837542221443
 40
0.0999837542221443
 40
0.0999837542221443
 40
0.1007765567521933
 40
0.1007765567521933
 40
0.1007765567521933
 40
0.1231496046266284
 40
0.1231496046266284
 40
0.1231496046266284
 40
0.1304550896468521
 40
0.1304550896468521
 40
0.1304550896468521
 40
0.1304550896468521
 10
11.03946654250256
 20
1.375000004462629
 30
0.0
 10
11.03954685350352
 20
1.375251449548987
 30
0.0
 10
11.03962624592168
 20
1.375503460171592
 30
0.0
 10
11.03970465089116
 20
1.375755823106305
 30
0.0
 10
11.04191725500062
 20
1.382877556206415
 30
0.0
 10
11.04334517967814
 20
1.390338186189384
 30
0.0
 10
11.0439019628931
 20
1.397817459852044
 30
0.0
 10
11.04408376965717
 20
1.400259671660262
 30
0.0
 10
11.04417413683972
 20
1.40270362133132
 30
0.0
 10
11.04417413683972
 20
1.405138783004729
 30
0.0
  0
SPLINE
  5
7D
100
AcDbEntity
  8
USP-GEO
100
AcDbSpline
210
0.0
220
0.0
230
1.0
 70
     8
 71
     3
 72
    14
 73
    10
 74
     0
 42
0.0000001
 43
0.0000001
 40
0.0474419666514962
 40
0.0474419666514962
 40
0.0474419666514962
 40
0.0474419666514962
 40
0.0523925356555837
 40
0.0523925356555837
 40
0.0649580475525351
 40
0.0649580475525351
 40
0.0775235594494866
 40
0.0775235594494866
 40
0.0801084536668116
 40
0.0801084536668116
 40
0.0801084536668116
 40
0.0801084536668116
 10
11.01587708172406
 20
1.405138783004729
 30
0.0
 10
11.01587708172406
 20
1.403691949836592
 30
0.0
 10
11.01581493309955
 20
1.402220503287673
 30
0.0
 10
11.01539070430121
 20
1.397163994778422
 30
0.0
 10
11.01462933653101
 20
1.393011940015862
 30
0.0
 10
11.01191547362231
 20
1.38476319341437
 30
0.0
 10
11.00995277549598
 20
1.380673444617031
 30
0.0
 10
11.00723579629419
 20
1.376420089071278
 30
0.0
 10
11.00675324444794
 20
1.375704417330946
 30
0.0
 10
11.00625223669715
 20
1.374999999999991
 30
0.0
  0
LINE
  5
7E
100
AcDbEntity
  8
USP-GEO
100
AcDbLine
 10
11.01587708172406
 20
1.405138783004728
 30
0.0
 11
11.01587708172406
 21
1.416589038100349
 31
0.0
  0
LINE
  5
7F
100
AcDbEntity
  8
USP-GEO
100
AcDbLine
 10
11.5
 20
1.426999999999992
 30
0.0
 11
11.5
 21
1.374999999999992
 31
0.0
  0
LINE
  5
80
100
AcDbEntity
  8
USP-GEO
100
AcDbLine
 10
12.0625
 20
1.374999999999991
 30
0.0
 11
12.1875
 21
1.374999999999991
 31
0.0
  0
LINE
  5
81
100
AcDbEntity
  8
USP-GEO
100
AcDbLine
 10
12.1875
 20
1.426999999999992
 30
0.0
 11
12.0625
 21
1.426999999999992
 31
0.0
  0
LINE
  5
82
100
AcDbEntity
  8
USP-GEO
100
AcDbLine
 10
12.06250000000001
 20
1.426999999999991
 30
0.0
 11
12.06250000000001
 21
1.374999999999992
 31
0.0
  0
LINE
  5
83
100
AcDbEntity
  8
USP-GEO
100
AcDbLine
 10
12.1875
 20
1.426999999999992
 30
0.0
 11
12.1875
 21
1.374999999999992
 31
0.0
  0
LINE
  5
84
100
AcDbEntity
  8
USP-GEO
100
AcDbLine
 10
19.99999999999995
 20
1.374999999999988
 30
0.0
 11
19.99999999999995
 21
1.427000000000004
 31
0.0
  0
LINE
  5
85
100
AcDbEntity
  8
USP-GEO
100
AcDbLine
 10
19.99999999999995
 20
1.426999999999987
 30
0.0
 11
19.82322330470331
 21
1.426999999999986
 31
0.0
  0
LINE
  5
86
100
AcDbEntity
  8
USP-GEO
100
AcDbLine
 10
19.82322330470331
 20
1.374999999999988
 30
0.0
 11
19.82322330470331
 21
1.427000000000006
 31
0.0
  0
LINE
  5
87
100
AcDbEntity
  8
USP-GEO
100
AcDbLine
 10
19.82322330470331
 20
1.374999999999988
 30
0.0
 11
19.99999999999995
 21
1.374999999999988
 31
0.0
  0
ENDBLK
  5
89
100
AcDbEntity
  8
0
100
AcDbBlockEnd
  0
BLOCK
  5
B0
100
AcDbEntity
  8
0
100
AcDbBlockBegin
  2
MTW20_S
 70
     0
 10
0.0
 20
0.0
 30
0.0
  3
MTW20_S
  1

  0
TEXT
  5
8C
100
AcDbEntity
  8
USP-TXT
100
AcDbText
 10
-1.816083507038726
 20
-1.675332729818773
 30
0.0
 40
0.328125
  1
MTW20 - SIDE VIEW
 72
     1
 11
0.9456352429612735
 21
-1.675332729818773
 31
0.0
100
AcDbText
  0
LINE
  5
8D
100
AcDbEntity
  8
USP-GEO
100
AcDbLine
 10
0.1488293748093561
 20
1.374999999999987
 30
0.0
 11
1.351170625166947
 21
1.374999999999985
 31
0.0
  0
LINE
  5
8E
100
AcDbEntity
  8
USP-GEO
100
AcDbLine
 10
1.351170625166947
 20
1.426999999999985
 30
0.0
 11
0.1488293748093561
 21
1.426999999999987
 31
0.0
  0
LINE
  5
8F
100
AcDbEntity
  8
USP-GEO
100
AcDbLine
 10
0.0
 20
1.426999999999987
 30
0.0
 11
0.0
 21
1.374999999999987
 31
0.0
  0
LINE
  5
90
100
AcDbEntity
  8
USP-GEO
100
AcDbLine
 10
0.1488293748093525
 20
1.426999999999988
 30
0.0
 11
0.1488293748093525
 21
1.374999999999989
 31
0.0
  0
LINE
  5
91
100
AcDbEntity
  8
USP-GEO
100
AcDbLine
 10
0.0000000000000036
 20
1.374999999999989
 30
0.0
 11
0.1488293748093525
 21
1.374999999999989
 31
0.0
  0
LINE
  5
92
100
AcDbEntity
  8
USP-GEO
100
AcDbLine
 10
0.0000000000000036
 20
1.42699999999999
 30
0.0
 11
0.1488293748093525
 21
1.42699999999999
 31
0.0
  0
LINE
  5
93
100
AcDbEntity
  8
USP-GEO
100
AcDbLine
 10
1.426999999999988
 20
0.1767766952966205
 30
0.0
 11
1.426999999999992
 21
1.073223304703347
 31
0.0
  0
LINE
  5
94
100
AcDbEntity
  8
USP-GEO
100
AcDbLine
 10
1.374999999999992
 20
1.073223304703347
 30
0.0
 11
1.374999999999989
 21
0.1767766952966205
 31
0.0
  0
LINE
  5
95
100
AcDbEntity
  8
USP-GEO
100
AcDbLine
 10
1.374999999999996
 20
0.0
 30
0.0
 11
1.426999999999999
 21
0.0
 31
0.0
  0
LINE
  5
96
100
AcDbEntity
  8
USP-GEO
100
AcDbLine
 10
1.426999999999992
 20
-0.0000000000000036
 30
0.0
 11
1.426999999999988
 21
0.1767766952966223
 31
0.0
  0
LINE
  5
97
100
AcDbEntity
  8
USP-GEO
100
AcDbLine
 10
1.374999999999992
 20
0.1767766952966205
 30
0.0
 11
1.426999999999999
 21
0.1767766952966205
 31
0.0
  0
LINE
  5
98
100
AcDbEntity
  8
USP-GEO
100
AcDbLine
 10
1.374999999999992
 20
0.1767766952966205
 30
0.0
 11
1.374999999999996
 21
0.0
 31
0.0
  0
SPLINE
  5
99
100
AcDbEntity
  8
USP-GEO
100
AcDbSpline
210
-1.0
220
0.0
230
0.0
 70
    24
 71
     3
 72
    12
 73
     8
 74
     0
 42
0.0000001
 43
0.0000001
 40
0.0
 40
0.0
 40
0.0
 40
0.0
 40
0.0196268480160634
 40
0.0196268480160634
 40
0.0435618951481583
 40
0.0435618951481583
 40
0.0661741207439531
 40
0.0661741207439531
 40
0.0661741207439531
 40
0.0661741207439531
 10
1.374999999999996
 20
1.416353331171048
 30
0.0
 10
1.374999999999996
 20
1.409811048499028
 30
0.0
 10
1.374999999999996
 20
1.403209138746619
 30
0.0
 10
1.374999999999996
 20
1.389482317356623
 30
0.0
 10
1.375
 20
1.382399927907343
 30
0.0
 10
1.374999999999996
 20
1.37062353882572
 30
0.0
 10
1.374999999999996
 20
1.365848743273389
 30
0.0
 10
1.374999999999996
 20
1.362357655415328
 30
0.0
  0
SPLINE
  5
9A
100
AcDbEntity
  8
USP-GEO
100
AcDbSpline
210
0.0
220
0.0
230
1.0
 70
     8
 71
     3
 72
    14
 73
    10
 74
     0
 42
0.0000001
 43
0.0000001
 40
0.1752198625318914
 40
0.1752198625318914
 40
0.1752198625318914
 40
0.1752198625318914
 40
0.1785439605390575
 40
0.1785439605390575
 40
0.1909845874093837
 40
0.1909845874093837
 40
0.2034252142797099
 40
0.2034252142797099
 40
0.2093842824029358
 40
0.2093842824029358
 40
0.2093842824029358
 40
0.2093842824029358
 10
1.426999999999999
 20
1.375000000010643
 30
0.0
 10
1.426999999999814
 20
1.375890594173473
 30
0.0
 10
1.426977099196129
 20
1.376800308770324
 30
0.0
 10
1.426746514122967
 20
1.38119220497443
 30
0.0
 10
1.426161596208924
 20
1.385213536700888
 30
0.0
 10
1.423843820632669
 20
1.393333207462619
 30
0.0
 10
1.422097925918162
 20
1.397424362423835
 30
0.0
 10
1.41904268374872
 20
1.402715659998049
 30
0.0
 10
1.417881719497195
 20
1.404492296033783
 30
0.0
 10
1.416589038100354
 20
1.406214610519533
 30
0.0
  0
LINE
  5
9B
100
AcDbEntity
  8
USP-GEO
100
AcDbLine
 10
1.405138783004733
 20
1.359931023754782
 30
0.0
 11
1.405138783004733
 21
1.40621461051953
 31
0.0
  0
LINE
  5
9C
100
AcDbEntity
  8
USP-GEO
100
AcDbLine
 10
1.360398082704122
 20
1.426999999999987
 30
0.0
 11
1.360398082704122
 21
1.374999999999987
 31
0.0
  0
LINE
  5
9D
100
AcDbEntity
  8
USP-GEO
100
AcDbLine
 10
1.351170625166947
 20
1.426999999999985
 30
0.0
 11
1.351170625166947
 21
1.374999999999985
 31
0.0
  0
LINE
  5
9E
100
AcDbEntity
  8
USP-GEO
100
AcDbLine
 10
1.360398082704122
 20
1.374999999999985
 30
0.0
 11
1.375
 21
1.374999999999985
 31
0.0
  0
LINE
  5
9F
100
AcDbEntity
  8
USP-GEO
100
AcDbLine
 10
1.351170625166954
 20
1.374999999999987
 30
0.0
 11
1.360398082704122
 21
1.374999999999987
 31
0.0
  0
LINE
  5
A0
100
AcDbEntity
  8
USP-GEO
100
AcDbLine
 10
1.374999999999992
 20
1.073223304703347
 30
0.0
 11
1.42700000000001
 21
1.073223304703347
 31
0.0
  0
LINE
  5
A1
100
AcDbEntity
  8
USP-GEO
100
AcDbLine
 10
1.426999999999992
 20
1.073223304703347
 30
0.0
 11
1.426999999999992
 21
1.249999999999985
 31
0.0
  0
LINE
  5
A2
100
AcDbEntity
  8
USP-GEO
100
AcDbLine
 10
1.374999999999992
 20
1.249999999999985
 30
0.0
 11
1.42700000000001
 21
1.249999999999985
 31
0.0
  0
LINE
  5
A3
100
AcDbEntity
  8
USP-GEO
100
AcDbLine
 10
1.374999999999992
 20
1.249999999999985
 30
0.0
 11
1.374999999999992
 21
1.073223304703351
 31
0.0
  0
LINE
  5
A4
100
AcDbEntity
  8
USP-GEO
100
AcDbLine
 10
1.375
 20
1.362357653936301
 30
0.0
 11
1.375
 21
1.249999999999989
 31
0.0
  0
LINE
  5
A5
100
AcDbEntity
  8
USP-GEO
100
AcDbLine
 10
1.405138783004733
 20
1.359931023754786
 30
0.0
 11
1.426999999999999
 21
1.359931023754786
 31
0.0
  0
LINE
  5
A6
100
AcDbEntity
  8
USP-GEO
100
AcDbLine
 10
1.426999999999999
 20
1.359931023754784
 30
0.0
 11
1.426999999999999
 21
1.375000000010643
 31
0.0
  0
SPLINE
  5
A7
100
AcDbEntity
  8
USP-GEO
100
AcDbSpline
210
0.0
220
0.0
230
1.0
 70
     8
 71
     3
 72
    14
 73
    10
 74
     0
 42
0.0000001
 43
0.0000001
 40
0.0999837542221443
 40
0.0999837542221443
 40
0.0999837542221443
 40
0.0999837542221443
 40
0.1007765567521933
 40
0.1007765567521933
 40
0.1007765567521933
 40
0.1231496046266284
 40
0.1231496046266284
 40
0.1231496046266284
 40
0.1304550896468521
 40
0.1304550896468521
 40
0.1304550896468521
 40
0.1304550896468521
 10
1.375000004462634
 20
1.362357653936298
 30
0.0
 10
1.375251449548994
 20
1.36231598636237
 30
0.0
 10
1.375503460171596
 20
1.362274809214151
 30
0.0
 10
1.37575582310631
 20
1.362234157230187
 30
0.0
 10
1.38287755620642
 20
1.361086950014122
 30
0.0
 10
1.390338186189389
 20
1.360355820278096
 30
0.0
 10
1.397817459852049
 20
1.36007046315607
 30
0.0
 10
1.400259671660268
 20
1.359977285320306
 30
0.0
 10
1.402703621331326
 20
1.359931023754782
 30
0.0
 10
1.405138783004733
 20
1.359931023754782
 30
0.0
  0
LINE
  5
A8
100
AcDbEntity
  8
USP-GEO
100
AcDbLine
 10
1.426999999999999
 20
1.249999999999985
 30
0.0
 11
1.426999999999999
 21
1.359931023754782
 31
0.0
  0
LINE
  5
A9
100
AcDbEntity
  8
USP-GEO
100
AcDbLine
 10
1.374999999999996
 20
1.426999999999985
 30
0.0
 11
1.360398082704126
 21
1.426999999999985
 31
0.0
  0
LINE
  5
AA
100
AcDbEntity
  8
USP-GEO
100
AcDbLine
 10
1.360398082704122
 20
1.426999999999987
 30
0.0
 11
1.351170625166954
 21
1.426999999999987
 31
0.0
  0
LINE
  5
AB
100
AcDbEntity
  8
USP-GEO
100
AcDbLine
 10
1.416589038100354
 20
1.406214610519532
 30
0.0
 11
1.405138783004733
 21
1.406214610519532
 31
0.0
  0
SPLINE
  5
AC
100
AcDbEntity
  8
USP-GEO
100
AcDbSpline
210
0.0
220
0.0
230
1.0
 70
     8
 71
     3
 72
    20
 73
    16
 74
     0
 42
0.0000001
 43
0.0000001
 40
0.065553952005415
 40
0.065553952005415
 40
0.065553952005415
 40
0.065553952005415
 40
0.0733809879263543
 40
0.0733809879263543
 40
0.0733809879263543
 40
0.0847958082704539
 40
0.0847958082704539
 40
0.0847958082704539
 40
0.1007765567521933
 40
0.1007765567521933
 40
0.1007765567521933
 40
0.1231496046266284
 40
0.1231496046266284
 40
0.1231496046266284
 40
0.1304550896468521
 40
0.1304550896468521
 40
0.1304550896468521
 40
0.1304550896468521
 10
1.375000000000156
 20
1.416353331170801
 30
0.0
 10
1.37602281427922
 20
1.415565570361023
 30
0.0
 10
1.37707893074236
 20
1.414817588516072
 30
0.0
 10
1.378164256476583
 20
1.414112938926026
 30
0.0
 10
1.379747077661527
 20
1.41308528956333
 30
0.0
 10
1.381392054591376
 20
1.41215000854172
 30
0.0
 10
1.383084234042879
 20
1.41131479446955
 30
0.0
 10
1.385453285274987
 20
1.410145494768519
 30
0.0
 10
1.387903826948342
 20
1.409174804226241
 30
0.0
 10
1.390447303055523
 20
1.408397981054216
 30
0.0
 10
1.39400816960558
 20
1.407310428613387
 30
0.0
 10
1.397738484597063
 20
1.406617317623636
 30
0.0
 10
1.401478121428393
 20
1.40634679907195
 30
0.0
 10
1.402699227332501
 20
1.406258466483649
 30
0.0
 10
1.403921202168032
 20
1.406214610519535
 30
0.0
 10
1.405138783004733
 20
1.40621461051953
 30
0.0
  0
SPLINE
  5
AD
100
AcDbEntity
  8
USP-GEO
100
AcDbSpline
210
0.0
220
0.0
230
-1.0
 70
     8
 71
     3
 72
    14
 73
    10
 74
     0
 42
0.0000001
 43
0.0000001
 40
0.0474419666514962
 40
0.0474419666514962
 40
0.0474419666514962
 40
0.0474419666514962
 40
0.0523925356555837
 40
0.0523925356555837
 40
0.0649580475525351
 40
0.0649580475525351
 40
0.0775235594494866
 40
0.0775235594494866
 40
0.0801084536668116
 40
0.0801084536668116
 40
0.0801084536668116
 40
0.0801084536668116
 10
1.405138783004733
 20
1.417375154973075
 30
0.0
 10
1.403691949836598
 20
1.418404196422629
 30
0.0
 10
1.402220503287679
 20
1.419336812591252
 30
0.0
 10
1.397163994778427
 20
1.422225081098595
 30
0.0
 10
1.393011940015867
 20
1.423968224002559
 30
0.0
 10
1.384763193414375
 20
1.426254238364549
 30
0.0
 10
1.380673444617038
 20
1.42681001532585
 30
0.0
 10
1.376420089071284
 20
1.426985679460422
 30
0.0
 10
1.37570441733095
 20
1.426999999999985
 30
0.0
 10
1.374999999999996
 20
1.426999999999985
 30
0.0
  0
ARC
  5
AE
100
AcDbEntity
  8
USP-GEO
100
AcDbCircle
 10
1.374999999999996
 20
1.374999999999985
 30
0.0
 40
0.052
100
AcDbArc
 50
36.89002340080139
 51
54.57815013762228
  0
LINE
  5
AF
100
AcDbEntity
  8
USP-GEO
100
AcDbLine
 10
1.405138783004733
 20
1.40621461051953
 30
0.0
 11
1.405138783004733
 21
1.417375154973075
 31
0.0
  0
ENDBLK
  5
B1
100
AcDbEntity
  8
0
100
AcDbBlockEnd
  0
ENDSEC
  0
SECTION
  2
ENTITIES
  0
INSERT
  5
3
100
AcDbEntity
  8
USP
100
AcDbBlockReference
  2
MTW20_F
 10
0.0008313147735848
 20
1.675642043280969
 30
0.0
  0
INSERT
  5
4A
100
AcDbEntity
  8
USP
100
AcDbBlockReference
  2
MTW20_T
 10
0.0008313147735848
 20
6.705623172590184
 30
0.0
  0
INSERT
  5
8A
100
AcDbEntity
  8
USP
100
AcDbBlockReference
  2
MTW20_S
 10
23.53607823626823
 20
1.675642043280983
 30
0.0
  0
VIEWPORT
  5
B7
102
{ACAD_XDICTIONARY
360
B8
102
}
100
AcDbEntity
 67
     1
  8
0
100
AcDbViewport
 10
5.285416850893516
 20
3.968749891115924
 30
0.0
 40
13.50573247017707
 41
8.992999745766947
 68
    -1
 69
     1
1001
ACAD
1000
MVIEW
1002
{
1070
    16
1010
0.0
1020
0.0
1030
0.0
1010
0.0
1020
0.0
1030
0.0
1040
0.0
1040
-1.0
1040
0.0
1040
0.0
1040
0.0
1040
0.0
1040
0.0
1070
     0
1070
   100
1070
     1
1070
     0
1070
     0
1070
     0
1070
     0
1070
     0
1040
0.0
1040
0.0
1040
0.0
1040
0.0
1040
0.0
1040
0.0
1040
0.0
1070
     0
1002
{
1002
}
1002
}
  0
ENDSEC
  0
SECTION
  2
OBJECTS
  0
DICTIONARY
  5
CE
102
{ACAD_XDICTIONARY
360
CF
102
}
100
AcDbDictionary
  3
ACAD_GROUP
350
CC
  3
ACAD_MLINESTYLE
350
CD
  0
DICTIONARY
  5
B2
100
AcDbDictionary
280
     1
  3
ACAD_LAYOUTSELFREF
360
B3
  0
DICTIONARY
  5
BC
100
AcDbDictionary
280
     1
  3
ACAD_LAYOUTSELFREF
360
BD
  0
DICTIONARY
  5
B8
100
AcDbDictionary
280
     1
  3
ACAD_XREC_ROUNDTRIP
360
B9
  0
DICTIONARY
  5
CF
100
AcDbDictionary
280
     1
  3
ACAD_XREC_ROUNDTRIP
360
D0
  0
DICTIONARY
  5
CC
102
{ACAD_REACTORS
330
CE
102
}
100
AcDbDictionary
  0
DICTIONARY
  5
CD
102
{ACAD_REACTORS
330
CE
102
}
100
AcDbDictionary
  3
STANDARD
350
D1
  0
XRECORD
  5
B3
102
{ACAD_REACTORS
330
B2
102
}
100
AcDbXrecord
340
18
  0
XRECORD
  5
BD
102
{ACAD_REACTORS
330
BC
102
}
100
AcDbXrecord
340
15
  0
XRECORD
  5
B9
102
{ACAD_REACTORS
330
B8
102
}
100
AcDbXrecord
102
UCS
 74
     0
 71
     1
 10
0.0
 20
0.0
 30
0.0
 10
1.0
 20
0.0
 30
0.0
 10
0.0
 20
1.0
 30
0.0
146
0.0
 79
     0
102
VIEW
281
     0
102
NEWVIEWCONTROL
280
     4
  0
XRECORD
  5
D0
102
{ACAD_REACTORS
330
CF
102
}
100
AcDbXrecord
102
EXTNAMES
  1
ACDBVARIABLEDICTIONARY
  2
AcDbVariableDictionary
  0
MLINESTYLE
  5
D1
102
{ACAD_REACTORS
330
CD
102
}
100
AcDbMlineStyle
  2
STANDARD
 70
     0
  3

 62
     0
 51
90.0
 52
90.0
 71
     2
 49
0.5
 62
   256
  6
BYLAYER
 49
-0.5
 62
   256
  6
BYLAYER
  0
ENDSEC
  0
EOF
