  0
SECTION
  2
HEADER
  9
$ACADVER
  1
AC1014
  9
$ACADMAINTVER
 70
     9
  9
$DWGCODEPAGE
  3
ANSI_1252
  9
$INSBASE
 10
0.0
 20
0.0
 30
0.0
  9
$EXTMIN
 10
0.0143832141398324
 20
0.0030887912086683
 30
0.0
  9
$EXTMAX
 10
77.73713422317499
 20
8.852777765051776
 30
4.196879291630274
  9
$LIMMIN
 10
0.0
 20
0.0
  9
$LIMMAX
 10
12.0
 20
9.0
  9
$ORTHOMODE
 70
     1
  9
$REGENMODE
 70
     1
  9
$FILLMODE
 70
     1
  9
$QTEXTMODE
 70
     0
  9
$MIRRTEXT
 70
     0
  9
$DRAGMODE
 70
     2
  9
$LTSCALE
 40
1.5
  9
$OSMODE
 70
     0
  9
$ATTMODE
 70
     1
  9
$TEXTSIZE
 40
0.75
  9
$TRACEWID
 40
0.05
  9
$TEXTSTYLE
  7
STANDARD
  9
$CLAYER
  8
USP
  9
$CELTYPE
  6
BYLAYER
  9
$CECOLOR
 62
   256
  9
$CELTSCALE
 40
1.0
  9
$DELOBJ
 70
     1
  9
$DISPSILH
 70
     1
  9
$DIMSCALE
 40
3.0
  9
$DIMASZ
 40
0.125
  9
$DIMEXO
 40
0.0625
  9
$DIMDLI
 40
0.37890625
  9
$DIMRND
 40
0.0
  9
$DIMDLE
 40
0.0
  9
$DIMEXE
 40
0.09375
  9
$DIMTP
 40
0.0
  9
$DIMTM
 40
0.0
  9
$DIMTXT
 40
0.109375
  9
$DIMCEN
 40
0.0
  9
$DIMTSZ
 40
0.0
  9
$DIMTOL
 70
     0
  9
$DIMLIM
 70
     0
  9
$DIMTIH
 70
     1
  9
$DIMTOH
 70
     1
  9
$DIMSE1
 70
     0
  9
$DIMSE2
 70
     0
  9
$DIMTAD
 70
     0
  9
$DIMZIN
 70
     8
  9
$DIMBLK
  1

  9
$DIMASO
 70
     1
  9
$DIMSHO
 70
     1
  9
$DIMPOST
  1

  9
$DIMAPOST
  1

  9
$DIMALT
 70
     0
  9
$DIMALTD
 70
     2
  9
$DIMALTF
 40
25.4
  9
$DIMLFAC
 40
1.0
  9
$DIMTOFL
 70
     0
  9
$DIMTVP
 40
0.0
  9
$DIMTIX
 70
     0
  9
$DIMSOXD
 70
     0
  9
$DIMSAH
 70
     0
  9
$DIMBLK1
  1

  9
$DIMBLK2
  1

  9
$DIMSTYLE
  2
STANDARD
  9
$DIMCLRD
 70
     0
  9
$DIMCLRE
 70
     0
  9
$DIMCLRT
 70
   256
  9
$DIMTFAC
 40
1.0
  9
$DIMGAP
 40
0.08984375
  9
$DIMJUST
 70
     0
  9
$DIMSD1
 70
     0
  9
$DIMSD2
 70
     0
  9
$DIMTOLJ
 70
     1
  9
$DIMTZIN
 70
     0
  9
$DIMALTZ
 70
     0
  9
$DIMALTTZ
 70
     0
  9
$DIMFIT
 70
     3
  9
$DIMUPT
 70
     1
  9
$DIMUNIT
 70
     7
  9
$DIMDEC
 70
     4
  9
$DIMTDEC
 70
     4
  9
$DIMALTU
 70
     2
  9
$DIMALTTD
 70
     2
  9
$DIMTXSTY
  7
STANDARD
  9
$DIMAUNIT
 70
     0
  9
$LUNITS
 70
     5
  9
$LUPREC
 70
     6
  9
$SKETCHINC
 40
0.1
  9
$FILLETRAD
 40
0.0
  9
$AUNITS
 70
     0
  9
$AUPREC
 70
     1
  9
$MENU
  1
CUSTOM
  9
$ELEVATION
 40
0.0
  9
$PELEVATION
 40
0.0
  9
$THICKNESS
 40
0.0
  9
$LIMCHECK
 70
     0
  9
$BLIPMODE
 70
     0
  9
$CHAMFERA
 40
0.0
  9
$CHAMFERB
 40
0.0
  9
$CHAMFERC
 40
0.0
  9
$CHAMFERD
 40
0.0
  9
$SKPOLY
 70
     0
  9
$TDCREATE
 40
2451263.663231366
  9
$TDUPDATE
 40
2452768.666652014
  9
$TDINDWG
 40
0.6232549190
  9
$TDUSRTIMER
 40
0.6232549190
  9
$USRTIMER
 70
     1
  9
$ANGBASE
 50
0.0
  9
$ANGDIR
 70
     0
  9
$PDMODE
 70
     0
  9
$PDSIZE
 40
0.0
  9
$PLINEWID
 40
0.0
  9
$COORDS
 70
     2
  9
$SPLFRAME
 70
     0
  9
$SPLINETYPE
 70
     6
  9
$SPLINESEGS
 70
     8
  9
$ATTDIA
 70
     0
  9
$ATTREQ
 70
     0
  9
$HANDLING
 70
     1
  9
$HANDSEED
  5
2AA
  9
$SURFTAB1
 70
     6
  9
$SURFTAB2
 70
     6
  9
$SURFTYPE
 70
     6
  9
$SURFU
 70
     6
  9
$SURFV
 70
     6
  9
$UCSNAME
  2

  9
$UCSORG
 10
0.0
 20
0.0
 30
0.0
  9
$UCSXDIR
 10
1.0
 20
0.0
 30
0.0
  9
$UCSYDIR
 10
0.0
 20
1.0
 30
0.0
  9
$PUCSNAME
  2

  9
$PUCSORG
 10
0.0
 20
0.0
 30
0.0
  9
$PUCSXDIR
 10
1.0
 20
0.0
 30
0.0
  9
$PUCSYDIR
 10
0.0
 20
1.0
 30
0.0
  9
$USERI1
 70
     0
  9
$USERI2
 70
     0
  9
$USERI3
 70
     0
  9
$USERI4
 70
     0
  9
$USERI5
 70
     0
  9
$USERR1
 40
0.0
  9
$USERR2
 40
0.0
  9
$USERR3
 40
0.0
  9
$USERR4
 40
0.0
  9
$USERR5
 40
0.0
  9
$WORLDVIEW
 70
     1
  9
$SHADEDGE
 70
     3
  9
$SHADEDIF
 70
    70
  9
$TILEMODE
 70
     1
  9
$MAXACTVP
 70
    16
  9
$PINSBASE
 10
0.0
 20
0.0
 30
0.0
  9
$PLIMCHECK
 70
     0
  9
$PEXTMIN
 10
1.000000000000000E+20
 20
1.000000000000000E+20
 30
1.000000000000000E+20
  9
$PEXTMAX
 10
-1.000000000000000E+20
 20
-1.000000000000000E+20
 30
-1.000000000000000E+20
  9
$PLIMMIN
 10
0.0
 20
0.0
  9
$PLIMMAX
 10
12.0
 20
9.0
  9
$UNITMODE
 70
     0
  9
$VISRETAIN
 70
     0
  9
$PLINEGEN
 70
     0
  9
$PSLTSCALE
 70
     0
  9
$TREEDEPTH
 70
  3020
  9
$PICKSTYLE
 70
     0
  9
$CMLSTYLE
  2
STANDARD
  9
$CMLJUST
 70
     0
  9
$CMLSCALE
 40
1.0
  9
$PROXYGRAPHICS
 70
     1
  9
$MEASUREMENT
 70
     0
  0
ENDSEC
  0
SECTION
  2
CLASSES
  0
CLASS
  1
ACDBDICTIONARYWDFLT
  2
AcDbDictionaryWithDefault
  3
AutoCAD 2000
 90
        0
280
     0
281
     0
  0
CLASS
  1
ACDBPLACEHOLDER
  2
AcDbPlaceHolder
  3
AutoCAD 2000
 90
        0
280
     0
281
     0
  0
CLASS
  1
LAYOUT
  2
AcDbLayout
  3
AutoCAD 2000
 90
        0
280
     0
281
     0
  0
CLASS
  1
DICTIONARYVAR
  2
AcDbDictionaryVar
  3
"AutoCAD"
 90
        0
280
     0
281
     0
  0
CLASS
  1
LONG_TRANSACTION
  2
AcDbLongTransaction
  3
AutoCAD 2000
 90
        0
280
     0
281
     0
  0
CLASS
  1
LWPOLYLINE
  2
AcDbPolyline
  3
"AutoCAD"
 90
        0
280
     0
281
     1
  0
CLASS
  1
HATCH
  2
AcDbHatch
  3
"ACAD_SEDONA"
 90
        0
280
     0
281
     1
  0
CLASS
  1
XRECORD
  2
AcDbXrecord
  3
"<Built In>"
 90
        0
280
     0
281
     0
  0
CLASS
  1
LONG_TRANSACTION
  2
AcDbLongTransaction
  3
AutoCAD 2000
 90
        0
280
     0
281
     0
  0
CLASS
  1
LWPOLYLINE
  2
AcDbPolyline
  3
"AutoCAD"
 90
        0
280
     0
281
     1
  0
CLASS
  1
HATCH
  2
AcDbHatch
  3
"ACAD_SEDONA"
 90
        0
280
     0
281
     1
  0
CLASS
  1
XRECORD
  2
AcDbXrecord
  3
"<Built In>"
 90
        0
280
     0
281
     0
  0
ENDSEC
  0
SECTION
  2
TABLES
  0
TABLE
  2
VPORT
  5
29A
100
AcDbSymbolTable
 70
     1
  0
VPORT
  5
29B
100
AcDbSymbolTableRecord
100
AcDbViewportTableRecord
  2
*ACTIVE
 70
     0
 10
0.0
 20
0.0
 11
1.0
 21
1.0
 12
21.8078237601098
 22
-0.4621586482711991
 13
0.0
 23
0.0
 14
1.0
 24
1.0
 15
0.0
 25
0.0
 16
0.0
 26
0.0
 36
1.0
 17
18.06596660309899
 27
8.119903606830565
 37
5.823974399722915
 40
74.89588811330083
 41
1.457627118644067
 42
50.0
 43
10.55307667737539
 44
10.55307667737539
 50
0.0
 51
0.0
 71
     0
 72
   100
 73
     1
 74
     1
 75
     0
 76
     0
 77
     0
 78
     0
  0
ENDTAB
  0
TABLE
  2
LTYPE
  5
295
100
AcDbSymbolTable
 70
     1
  0
LTYPE
  5
296
100
AcDbSymbolTableRecord
100
AcDbLinetypeTableRecord
  2
BYBLOCK
 70
     0
  3

 72
    65
 73
     0
 40
0.0
  0
LTYPE
  5
297
100
AcDbSymbolTableRecord
100
AcDbLinetypeTableRecord
  2
BYLAYER
 70
     0
  3

 72
    65
 73
     0
 40
0.0
  0
LTYPE
  5
5
100
AcDbSymbolTableRecord
100
AcDbLinetypeTableRecord
  2
CONTINUOUS
 70
     0
  3
Solid line
 72
    65
 73
     0
 40
0.0
  0
ENDTAB
  0
TABLE
  2
LAYER
  5
293
100
AcDbSymbolTable
 70
     4
  0
LAYER
  5
288
100
AcDbSymbolTableRecord
100
AcDbLayerTableRecord
  2
0
 70
     0
 62
     7
  6
CONTINUOUS
  0
LAYER
  5
D
102
{ACAD_XDICTIONARY
360
E
102
}
100
AcDbSymbolTableRecord
100
AcDbLayerTableRecord
  2
USP-GEO
 70
     0
 62
     7
  6
CONTINUOUS
  0
LAYER
  5
8
102
{ACAD_XDICTIONARY
360
9
102
}
100
AcDbSymbolTableRecord
100
AcDbLayerTableRecord
  2
USP-TXT
 70
     0
 62
     7
  6
CONTINUOUS
  0
LAYER
  5
4
100
AcDbSymbolTableRecord
100
AcDbLayerTableRecord
  2
USP
 70
     0
 62
     7
  6
CONTINUOUS
  0
ENDTAB
  0
TABLE
  2
STYLE
  5
294
100
AcDbSymbolTable
 70
     1
  0
STYLE
  5
B
100
AcDbSymbolTableRecord
100
AcDbTextStyleTableRecord
  2
STANDARD
 70
     0
 40
0.0
 41
1.0
 50
0.0
 71
     0
 42
0.75
  3
txt
  4

  0
ENDTAB
  0
TABLE
  2
VIEW
  5
298
100
AcDbSymbolTable
 70
     0
  0
ENDTAB
  0
TABLE
  2
UCS
  5
299
100
AcDbSymbolTable
 70
     0
  0
ENDTAB
  0
TABLE
  2
APPID
  5
29C
100
AcDbSymbolTable
 70
     1
  0
APPID
  5
29D
100
AcDbSymbolTableRecord
100
AcDbRegAppTableRecord
  2
ACAD
 70
     0
  0
ENDTAB
  0
TABLE
  2
DIMSTYLE
  5
29E
100
AcDbSymbolTable
 70
     1
  0
DIMSTYLE
105
2A6
100
AcDbSymbolTableRecord
100
AcDbDimStyleTableRecord
  2
STANDARD
 70
     0
  3

  4

  5

  6

  7

 40
1.0
 41
0.18
 42
0.0625
 43
0.38
 44
0.18
 45
0.0
 46
0.0
 47
0.0
 48
0.0
140
0.18
141
0.09
142
0.0
143
25.4
144
1.0
145
0.0
146
1.0
147
0.09
 71
     0
 72
     0
 73
     1
 74
     1
 75
     0
 76
     0
 77
     0
 78
     0
170
     0
171
     2
172
     0
173
     0
174
     0
175
     0
176
     0
177
     0
178
     0
270
     2
271
     4
272
     4
273
     2
274
     2
340
B
275
     0
280
     0
281
     0
282
     0
283
     1
284
     0
285
     0
286
     0
287
     3
288
     0
  0
ENDTAB
  0
TABLE
  2
BLOCK_RECORD
  5
1
100
AcDbSymbolTable
 70
     1
  0
BLOCK_RECORD
  5
2
102
{ACAD_XDICTIONARY
360
28A
102
}
100
AcDbSymbolTableRecord
100
AcDbBlockTableRecord
  2
*MODEL_SPACE
  0
BLOCK_RECORD
  5
28E
102
{ACAD_XDICTIONARY
360
28F
102
}
100
AcDbSymbolTableRecord
100
AcDbBlockTableRecord
  2
*PAPER_SPACE
  0
BLOCK_RECORD
  5
6
100
AcDbSymbolTableRecord
100
AcDbBlockTableRecord
  2
MSTC78_F
  0
ENDTAB
  0
ENDSEC
  0
SECTION
  2
BLOCKS
  0
BLOCK
  5
28C
100
AcDbEntity
  8
0
100
AcDbBlockBegin
  2
*MODEL_SPACE
 70
     0
 10
0.0
 20
0.0
 30
0.0
  3
*MODEL_SPACE
  1

  0
ENDBLK
  5
28D
100
AcDbEntity
  8
0
100
AcDbBlockEnd
  0
BLOCK
  5
291
100
AcDbEntity
 67
     1
  8
0
100
AcDbBlockBegin
  2
*PAPER_SPACE
 70
     0
 10
0.0
 20
0.0
 30
0.0
  3
*PAPER_SPACE
  1

  0
ENDBLK
  5
292
100
AcDbEntity
 67
     1
  8
0
100
AcDbBlockEnd
  0
BLOCK
  5
287
100
AcDbEntity
  8
0
100
AcDbBlockBegin
  2
MSTC78_F
 70
     0
 10
0.0
 20
0.0
 30
0.0
  3
MSTC78_F
  1

  0
TEXT
  5
7
100
AcDbEntity
  8
USP-TXT
100
AcDbText
 10
33.22075050451758
 20
-5.834997306953056
 30
4.196879291630274
 40
0.59375
  1
MSTC78 - FRONT VIEW
 72
     1
 11
38.86137550451758
 21
-5.834997306953056
 31
4.196879291630274
100
AcDbText
  0
LWPOLYLINE
  5
C
100
AcDbEntity
  8
USP-GEO
100
AcDbPolyline
 90
        2
 70
   128
 43
0.0
 10
0.2469034944217896
 20
0.0
 10
77.47584751461338
 20
0.0
  0
LWPOLYLINE
  5
10
100
AcDbEntity
  8
USP-GEO
100
AcDbPolyline
 90
        2
 70
   128
 43
0.0
 10
0.2469034944217896
 20
3.014691666890051
 10
77.47584751461338
 20
3.014691666890051
  0
LWPOLYLINE
  5
11
100
AcDbEntity
  8
USP-GEO
100
AcDbPolyline
 90
        2
 70
   128
 43
0.0
 10
0.0
 20
2.767788172468261
 10
0.0
 20
0.2469034944217867
  0
LWPOLYLINE
  5
12
100
AcDbEntity
  8
USP-GEO
100
AcDbPolyline
 90
        2
 70
   128
 43
0.0
 10
0.2469034944217896
 20
0.0
 10
0.0
 20
0.2469034944217867
  0
ARC
  5
13
100
AcDbEntity
  8
USP-GEO
100
AcDbCircle
 10
0.613257473907802
 20
0.5162549220920738
 30
0.0
 40
0.0859
100
AcDbArc
 50
253.9318013152466
 51
19.03300368220349
  0
ARC
  5
14
100
AcDbEntity
  8
USP-GEO
100
AcDbCircle
 10
0.613257473907802
 20
0.5944549220920692
 30
0.0
 40
0.0859
100
AcDbArc
 50
102.0552744148319
 51
180.9048229068382
  0
ARC
  5
15
100
AcDbEntity
  8
USP-GEO
100
AcDbCircle
 10
0.613257473907802
 20
0.5944549220920692
 30
0.0
 40
0.0859
100
AcDbArc
 50
358.6157769673781
 51
102.0552744148319
  0
LWPOLYLINE
  5
16
100
AcDbEntity
  8
USP-GEO
100
AcDbPolyline
 90
        2
 70
   128
 43
0.0
 10
0.6913297843810109
 20
0.5925683866122924
 10
0.6913297843810109
 20
0.5431876877279365
  0
LWPOLYLINE
  5
17
100
AcDbEntity
  8
USP-GEO
100
AcDbPolyline
 90
        2
 70
   128
 43
0.0
 10
0.4938069888435792
 20
0.5925683866122924
 10
0.4938069888435792
 20
0.5431876877279365
  0
ARC
  5
18
100
AcDbEntity
  8
USP-GEO
100
AcDbCircle
 10
0.613257473907802
 20
0.5162549220920738
 30
0.0
 40
0.0859
100
AcDbArc
 50
167.2938668088512
 51
253.9318013152466
  0
LWPOLYLINE
  5
19
100
AcDbEntity
  8
USP-GEO
100
AcDbPolyline
 90
        2
 70
   128
 43
0.0
 10
2.027077689202893
 20
1.036994676571513
 10
2.027077689202893
 20
0.938233278802798
  0
LWPOLYLINE
  5
1A
100
AcDbEntity
  8
USP-GEO
100
AcDbPolyline
 90
        2
 70
   128
 43
0.0
 10
2.175219785855966
 20
1.036994676571513
 10
2.175219785855966
 20
0.938233278802798
  0
ARC
  5
1B
100
AcDbEntity
  8
USP-GEO
100
AcDbCircle
 10
2.113257473907801
 20
0.9380549220920642
 30
0.0
 40
0.0859
100
AcDbArc
 50
179.8814214700374
 51
277.2730285509453
  0
ARC
  5
1C
100
AcDbEntity
  8
USP-GEO
100
AcDbCircle
 10
2.113257473907801
 20
0.9380549220920642
 30
0.0
 40
0.0859
100
AcDbArc
 50
277.2730285509453
 51
0.1649237775026484
  0
ARC
  5
1D
100
AcDbEntity
  8
USP-GEO
100
AcDbCircle
 10
2.113257473907801
 20
1.016254922092073
 30
0.0
 40
0.0859
100
AcDbArc
 50
79.82774215223115
 51
166.4686876468714
  0
ARC
  5
1E
100
AcDbEntity
  8
USP-GEO
100
AcDbCircle
 10
2.113257473907801
 20
1.016254922092073
 30
0.0
 40
0.0859
100
AcDbArc
 50
18.50619919388532
 51
79.82774215223115
  0
ARC
  5
1F
100
AcDbEntity
  8
USP-GEO
100
AcDbCircle
 10
3.613257473907801
 20
0.5162549220920596
 30
0.0
 40
0.0859
100
AcDbArc
 50
265.2270891805614
 51
16.18994013991131
  0
ARC
  5
20
100
AcDbEntity
  8
USP-GEO
100
AcDbCircle
 10
3.613257473907801
 20
0.5162549220920738
 30
0.0
 40
0.0859
100
AcDbArc
 50
165.5819028519038
 51
265.2270891805624
  0
ARC
  5
21
100
AcDbEntity
  8
USP-GEO
100
AcDbCircle
 10
3.613257473907801
 20
0.5944549220920692
 30
0.0
 40
0.0859
100
AcDbArc
 50
358.834939748155
 51
93.54259988259299
  0
ARC
  5
22
100
AcDbEntity
  8
USP-GEO
100
AcDbCircle
 10
3.613257473907801
 20
0.5944549220920692
 30
0.0
 40
0.0859
100
AcDbArc
 50
93.54259988259299
 51
181.0316920371501
  0
LWPOLYLINE
  5
23
100
AcDbEntity
  8
USP-GEO
100
AcDbPolyline
 90
        2
 70
   128
 43
0.0
 10
3.50849865573363
 20
0.5925683866122924
 10
3.50849865573363
 20
0.5431876877279365
  0
LWPOLYLINE
  5
24
100
AcDbEntity
  8
USP-GEO
100
AcDbPolyline
 90
        2
 70
   128
 43
0.0
 10
3.706021451271062
 20
0.5925683866122924
 10
3.706021451271062
 20
0.5431876877279365
  0
ARC
  5
25
100
AcDbEntity
  8
USP-GEO
100
AcDbCircle
 10
6.613257473907773
 20
0.5162549220920738
 30
0.0
 40
0.0859
100
AcDbArc
 50
163.3517658885903
 51
276.9015934698399
  0
ARC
  5
26
100
AcDbEntity
  8
USP-GEO
100
AcDbCircle
 10
6.613257473907773
 20
0.5162549220920596
 30
0.0
 40
0.0859
100
AcDbArc
 50
276.9015934698412
 51
24.879926487983
  0
ARC
  5
27
100
AcDbEntity
  8
USP-GEO
100
AcDbCircle
 10
6.613257473907773
 20
0.5944549220920692
 30
0.0
 40
0.0859
100
AcDbArc
 50
84.87160443677582
 51
181.1999348930462
  0
ARC
  5
28
100
AcDbEntity
  8
USP-GEO
100
AcDbCircle
 10
6.613257473907801
 20
0.5944549220920692
 30
0.0
 40
0.0859
100
AcDbArc
 50
358.1394295993727
 51
84.8716044367925
  0
LWPOLYLINE
  5
29
100
AcDbEntity
  8
USP-GEO
100
AcDbPolyline
 90
        2
 70
   128
 43
0.0
 10
6.671332419276755
 20
0.5925683866122924
 10
6.671332419276755
 20
0.5431876877279365
  0
LWPOLYLINE
  5
2A
100
AcDbEntity
  8
USP-GEO
100
AcDbPolyline
 90
        2
 70
   128
 43
0.0
 10
6.523190322623681
 20
0.5925683866122924
 10
6.523190322623681
 20
0.5431876877279365
  0
LWPOLYLINE
  5
2B
100
AcDbEntity
  8
USP-GEO
100
AcDbPolyline
 90
        2
 70
   128
 43
0.0
 10
5.039300321148726
 20
1.036994676571513
 10
5.039300321148726
 20
0.938233278802798
  0
LWPOLYLINE
  5
2C
100
AcDbEntity
  8
USP-GEO
100
AcDbPolyline
 90
        2
 70
   128
 43
0.0
 10
5.187442417801799
 20
1.036994676571513
 10
5.187442417801799
 20
0.938233278802798
  0
ARC
  5
2D
100
AcDbEntity
  8
USP-GEO
100
AcDbCircle
 10
5.113257473907801
 20
0.9380549220920642
 30
0.0
 40
0.0859
100
AcDbArc
 50
179.8618244945812
 51
256.0016737567492
  0
ARC
  5
2E
100
AcDbEntity
  8
USP-GEO
100
AcDbCircle
 10
5.113257473907801
 20
0.9380549220920642
 30
0.0
 40
0.0859
100
AcDbArc
 50
256.0016737567492
 51
0.1377512274983346
  0
ARC
  5
2F
100
AcDbEntity
  8
USP-GEO
100
AcDbCircle
 10
5.113257473907801
 20
1.016254922092073
 30
0.0
 40
0.0859
100
AcDbArc
 50
109.3150070261604
 51
164.3349458573211
  0
ARC
  5
30
100
AcDbEntity
  8
USP-GEO
100
AcDbCircle
 10
5.113257473907801
 20
1.016254922092073
 30
0.0
 40
0.0859
100
AcDbArc
 50
15.61930452351685
 51
109.3150070261604
  0
LWPOLYLINE
  5
31
100
AcDbEntity
  8
USP-GEO
100
AcDbPolyline
 90
        2
 70
   128
 43
0.0
 10
8.00461128915442
 20
1.036994676571513
 10
8.00461128915442
 20
0.938233278802798
  0
LWPOLYLINE
  5
32
100
AcDbEntity
  8
USP-GEO
100
AcDbPolyline
 90
        2
 70
   128
 43
0.0
 10
8.202134084691852
 20
1.036994676571513
 10
8.202134084691852
 20
0.938233278802798
  0
ARC
  5
33
100
AcDbEntity
  8
USP-GEO
100
AcDbCircle
 10
8.113257473907802
 20
0.9380549220920642
 30
0.0
 40
0.0859
100
AcDbArc
 50
179.9059416801782
 51
264.2741679954379
  0
ARC
  5
34
100
AcDbEntity
  8
USP-GEO
100
AcDbCircle
 10
8.113257473907802
 20
0.9380549220920642
 30
0.0
 40
0.0859
100
AcDbArc
 50
264.2741679954379
 51
0.1149804539647115
  0
ARC
  5
35
100
AcDbEntity
  8
USP-GEO
100
AcDbCircle
 10
8.113257473907774
 20
1.016254922092073
 30
0.0
 40
0.0859
100
AcDbArc
 50
98.02403688633994
 51
169.1926797845788
  0
ARC
  5
36
100
AcDbEntity
  8
USP-GEO
100
AcDbCircle
 10
8.113257473907802
 20
1.016254922092073
 30
0.0
 40
0.0859
100
AcDbArc
 50
13.13517085830186
 51
98.02403688636273
  0
ARC
  5
37
100
AcDbEntity
  8
USP-GEO
100
AcDbCircle
 10
9.613257473907774
 20
0.5162549220920596
 30
0.0
 40
0.0859
100
AcDbArc
 50
248.3828638874086
 51
20.96308987106346
  0
ARC
  5
38
100
AcDbEntity
  8
USP-GEO
100
AcDbCircle
 10
9.613257473907774
 20
0.5944549220920692
 30
0.0
 40
0.0859
100
AcDbArc
 50
106.3738693052533
 51
181.3882720076973
  0
ARC
  5
39
100
AcDbEntity
  8
USP-GEO
100
AcDbCircle
 10
9.613257473907774
 20
0.5944549220920692
 30
0.0
 40
0.0859
100
AcDbArc
 50
358.4627552253084
 51
106.3738693052533
  0
LWPOLYLINE
  5
3A
100
AcDbEntity
  8
USP-GEO
100
AcDbPolyline
 90
        2
 70
   128
 43
0.0
 10
9.683555051222588
 20
0.5925683866122924
 10
9.683555051222588
 20
0.5431876877279365
  0
LWPOLYLINE
  5
3B
100
AcDbEntity
  8
USP-GEO
100
AcDbPolyline
 90
        2
 70
   128
 43
0.0
 10
9.535412954569515
 20
0.5925683866122924
 10
9.535412954569515
 20
0.5431876877279365
  0
ARC
  5
3C
100
AcDbEntity
  8
USP-GEO
100
AcDbCircle
 10
9.613257473907774
 20
0.5162549220920738
 30
0.0
 40
0.0859
100
AcDbArc
 50
160.9153252100957
 51
248.3828638874124
  0
ARC
  5
3D
100
AcDbEntity
  8
USP-GEO
100
AcDbCircle
 10
12.61325747390776
 20
0.5162549220920596
 30
0.0
 40
0.0859
100
AcDbArc
 50
166.5405163189487
 51
259.1460490929341
  0
ARC
  5
3E
100
AcDbEntity
  8
USP-GEO
100
AcDbCircle
 10
12.61325747390776
 20
0.5162549220920596
 30
0.0
 40
0.0859
100
AcDbArc
 50
259.1460490929341
 51
17.58320891689792
  0
ARC
  5
3F
100
AcDbEntity
  8
USP-GEO
100
AcDbCircle
 10
12.61325747390776
 20
0.5944549220920692
 30
0.0
 40
0.0859
100
AcDbArc
 50
98.09119936807279
 51
180.9604282052083
  0
ARC
  5
40
100
AcDbEntity
  8
USP-GEO
100
AcDbCircle
 10
12.61325747390777
 20
0.5944549220920692
 30
0.0
 40
0.0859
100
AcDbArc
 50
358.7283947011347
 51
98.09119936808102
  0
LWPOLYLINE
  5
41
100
AcDbEntity
  8
USP-GEO
100
AcDbPolyline
 90
        2
 70
   128
 43
0.0
 10
12.69824671811264
 20
0.5925683866122924
 10
12.69824671811264
 20
0.5431876877279365
  0
LWPOLYLINE
  5
42
100
AcDbEntity
  8
USP-GEO
100
AcDbPolyline
 90
        2
 70
   128
 43
0.0
 10
12.5007239225752
 20
0.5925683866122924
 10
12.5007239225752
 20
0.5431876877279365
  0
LWPOLYLINE
  5
43
100
AcDbEntity
  8
USP-GEO
100
AcDbPolyline
 90
        2
 70
   128
 43
0.0
 10
11.01930295604447
 20
1.036994676571513
 10
11.01930295604447
 20
0.938233278802798
  0
LWPOLYLINE
  5
44
100
AcDbEntity
  8
USP-GEO
100
AcDbPolyline
 90
        2
 70
   128
 43
0.0
 10
11.16744505269754
 20
1.036994676571513
 10
11.16744505269754
 20
0.938233278802798
  0
ARC
  5
45
100
AcDbEntity
  8
USP-GEO
100
AcDbCircle
 10
11.11325747390777
 20
0.9380549220920642
 30
0.0
 40
0.0859
100
AcDbArc
 50
272.7915143694153
 51
0.1885865745919879
  0
ARC
  5
46
100
AcDbEntity
  8
USP-GEO
100
AcDbCircle
 10
11.11325747390777
 20
0.9380549220920642
 30
0.0
 40
0.0859
100
AcDbArc
 50
179.8912338147228
 51
272.7915143694153
  0
ARC
  5
47
100
AcDbEntity
  8
USP-GEO
100
AcDbCircle
 10
11.11325747390777
 20
1.016254922092073
 30
0.0
 40
0.0859
100
AcDbArc
 50
86.07840923857827
 51
167.5520100616666
  0
ARC
  5
48
100
AcDbEntity
  8
USP-GEO
100
AcDbCircle
 10
11.11325747390777
 20
1.016254922092073
 30
0.0
 40
0.0859
100
AcDbArc
 50
20.9438480193995
 51
86.07840923857827
  0
LWPOLYLINE
  5
49
100
AcDbEntity
  8
USP-GEO
100
AcDbPolyline
 90
        2
 70
   128
 43
0.0
 10
14.0315255879903
 20
1.036994676571513
 10
14.0315255879903
 20
0.938233278802798
  0
LWPOLYLINE
  5
4A
100
AcDbEntity
  8
USP-GEO
100
AcDbPolyline
 90
        2
 70
   128
 43
0.0
 10
14.17966768464338
 20
1.036994676571513
 10
14.17966768464338
 20
0.938233278802798
  0
ARC
  5
4B
100
AcDbEntity
  8
USP-GEO
100
AcDbCircle
 10
14.11325747390776
 20
0.9380549220920642
 30
0.0
 40
0.0859
100
AcDbArc
 50
179.8749683744981
 51
251.8321405670883
  0
ARC
  5
4C
100
AcDbEntity
  8
USP-GEO
100
AcDbCircle
 10
14.11325747390776
 20
0.9380549220920642
 30
0.0
 40
0.0859
100
AcDbArc
 50
251.8321405670883
 51
0.1538778764603747
  0
ARC
  5
4D
100
AcDbEntity
  8
USP-GEO
100
AcDbCircle
 10
14.11325747390776
 20
1.016254922092059
 30
0.0
 40
0.0859
100
AcDbArc
 50
114.7669898936375
 51
165.7615252813176
  0
ARC
  5
4E
100
AcDbEntity
  8
USP-GEO
100
AcDbCircle
 10
14.11325747390776
 20
1.016254922092059
 30
0.0
 40
0.0859
100
AcDbArc
 50
17.34346306433452
 51
114.7669898936375
  0
LWPOLYLINE
  5
4F
100
AcDbEntity
  8
USP-GEO
100
AcDbPolyline
 90
        2
 70
   128
 43
0.0
 10
0.2469034944217896
 20
3.014691666890051
 10
0.0
 20
2.767788172468261
  0
ARC
  5
50
100
AcDbEntity
  8
USP-GEO
100
AcDbCircle
 10
0.613257473907802
 20
2.094454922092069
 30
0.0
 40
0.0859
100
AcDbArc
 50
104.3681792256092
 51
188.567803241993
  0
ARC
  5
51
100
AcDbEntity
  8
USP-GEO
100
AcDbCircle
 10
0.613257473907802
 20
2.094454922092069
 30
0.0
 40
0.0859
100
AcDbArc
 50
347.0194261194179
 51
104.3681792256092
  0
ARC
  5
52
100
AcDbEntity
  8
USP-GEO
100
AcDbCircle
 10
0.613257473907802
 20
2.016254922092073
 30
0.0
 40
0.0859
100
AcDbArc
 50
256.7609341155216
 51
7.892323603001486
  0
ARC
  5
53
100
AcDbEntity
  8
USP-GEO
100
AcDbCircle
 10
0.613257473907802
 20
2.016254922092073
 30
0.0
 40
0.0859
100
AcDbArc
 50
174.8228728540427
 51
256.7609341155216
  0
LWPOLYLINE
  5
54
100
AcDbEntity
  8
USP-GEO
100
AcDbPolyline
 90
        2
 70
   128
 43
0.0
 10
0.6913297843810109
 20
2.07645838808725
 10
0.6913297843810109
 20
2.02707768920289
  0
LWPOLYLINE
  5
55
100
AcDbEntity
  8
USP-GEO
100
AcDbPolyline
 90
        2
 70
   128
 43
0.0
 10
0.4938069888435792
 20
2.07645838808725
 10
0.4938069888435792
 20
2.02707768920289
  0
ARC
  5
56
100
AcDbEntity
  8
USP-GEO
100
AcDbCircle
 10
2.113257473907801
 20
2.516254922092073
 30
0.0
 40
0.0859
100
AcDbArc
 50
83.06182126117546
 51
176.9249084626309
  0
ARC
  5
57
100
AcDbEntity
  8
USP-GEO
100
AcDbCircle
 10
2.113257473907801
 20
2.516254922092073
 30
0.0
 40
0.0859
100
AcDbArc
 50
4.27313738943282
 51
83.06182126117546
  0
ARC
  5
58
100
AcDbEntity
  8
USP-GEO
100
AcDbCircle
 10
2.113257473907801
 20
2.438054922092064
 30
0.0
 40
0.0859
100
AcDbArc
 50
190.4737492319985
 51
280.9037545614933
  0
ARC
  5
59
100
AcDbEntity
  8
USP-GEO
100
AcDbCircle
 10
2.113257473907801
 20
2.438054922092064
 30
0.0
 40
0.0859
100
AcDbArc
 50
280.9037545614933
 51
345.5805488020265
  0
LWPOLYLINE
  5
5A
100
AcDbEntity
  8
USP-GEO
100
AcDbPolyline
 90
        2
 70
   128
 43
0.0
 10
2.175219785855966
 20
2.520884678046471
 10
2.175219785855966
 20
2.422123280277755
  0
LWPOLYLINE
  5
5B
100
AcDbEntity
  8
USP-GEO
100
AcDbPolyline
 90
        2
 70
   128
 43
0.0
 10
2.027077689202893
 20
2.520884678046471
 10
2.027077689202893
 20
2.422123280277755
  0
ARC
  5
5C
100
AcDbEntity
  8
USP-GEO
100
AcDbCircle
 10
3.613257473907801
 20
2.094454922092069
 30
0.0
 40
0.0859
100
AcDbArc
 50
349.020806361693
 51
94.24686344249511
  0
ARC
  5
5D
100
AcDbEntity
  8
USP-GEO
100
AcDbCircle
 10
3.613257473907801
 20
2.094454922092069
 30
0.0
 40
0.0859
100
AcDbArc
 50
94.24686344249511
 51
189.7477033091961
  0
ARC
  5
5E
100
AcDbEntity
  8
USP-GEO
100
AcDbCircle
 10
6.613257473907773
 20
2.094454922092069
 30
0.0
 40
0.0859
100
AcDbArc
 50
83.85583449941185
 51
191.2995970355031
  0
ARC
  5
5F
100
AcDbEntity
  8
USP-GEO
100
AcDbCircle
 10
6.613257473907801
 20
2.094454922092069
 30
0.0
 40
0.0859
100
AcDbArc
 50
342.7825937302603
 51
83.8558344994318
  0
ARC
  5
60
100
AcDbEntity
  8
USP-GEO
100
AcDbCircle
 10
3.613257473907801
 20
2.016254922092073
 30
0.0
 40
0.0859
100
AcDbArc
 50
266.0984655799073
 51
6.654609733010547
  0
ARC
  5
61
100
AcDbEntity
  8
USP-GEO
100
AcDbCircle
 10
3.613257473907801
 20
2.016254922092073
 30
0.0
 40
0.0859
100
AcDbArc
 50
174.1016254327391
 51
266.0984655799073
  0
LWPOLYLINE
  5
62
100
AcDbEntity
  8
USP-GEO
100
AcDbPolyline
 90
        2
 70
   128
 43
0.0
 10
3.50849865573363
 20
2.07645838808725
 10
3.50849865573363
 20
2.02707768920289
  0
LWPOLYLINE
  5
63
100
AcDbEntity
  8
USP-GEO
100
AcDbPolyline
 90
        2
 70
   128
 43
0.0
 10
3.706021451271062
 20
2.07645838808725
 10
3.706021451271062
 20
2.02707768920289
  0
ARC
  5
64
100
AcDbEntity
  8
USP-GEO
100
AcDbCircle
 10
6.613257473907773
 20
2.016254922092073
 30
0.0
 40
0.0859
100
AcDbArc
 50
275.6463241108126
 51
10.55646740133967
  0
ARC
  5
65
100
AcDbEntity
  8
USP-GEO
100
AcDbCircle
 10
6.613257473907773
 20
2.016254922092073
 30
0.0
 40
0.0859
100
AcDbArc
 50
173.1480025630028
 51
275.6463241108126
  0
LWPOLYLINE
  5
66
100
AcDbEntity
  8
USP-GEO
100
AcDbPolyline
 90
        2
 70
   128
 43
0.0
 10
6.523190322623681
 20
2.07645838808725
 10
6.523190322623681
 20
2.02707768920289
  0
LWPOLYLINE
  5
67
100
AcDbEntity
  8
USP-GEO
100
AcDbPolyline
 90
        2
 70
   128
 43
0.0
 10
6.671332419276755
 20
2.07645838808725
 10
6.671332419276755
 20
2.02707768920289
  0
ARC
  5
68
100
AcDbEntity
  8
USP-GEO
100
AcDbCircle
 10
5.113257473907801
 20
2.516254922092073
 30
0.0
 40
0.0859
100
AcDbArc
 50
103.3712628128364
 51
176.417928904475
  0
ARC
  5
69
100
AcDbEntity
  8
USP-GEO
100
AcDbCircle
 10
5.113257473907801
 20
2.516254922092073
 30
0.0
 40
0.0859
100
AcDbArc
 50
3.57110055069642
 51
103.3712628128364
  0
ARC
  5
6A
100
AcDbEntity
  8
USP-GEO
100
AcDbCircle
 10
5.113257473907801
 20
2.438054922092064
 30
0.0
 40
0.0859
100
AcDbArc
 50
192.1567251710261
 51
249.3791268609905
  0
ARC
  5
6B
100
AcDbEntity
  8
USP-GEO
100
AcDbCircle
 10
5.113257473907801
 20
2.438054922092064
 30
0.0
 40
0.0859
100
AcDbArc
 50
249.3791268609905
 51
347.8794977515493
  0
LWPOLYLINE
  5
6C
100
AcDbEntity
  8
USP-GEO
100
AcDbPolyline
 90
        2
 70
   128
 43
0.0
 10
5.187442417801799
 20
2.520884678046471
 10
5.187442417801799
 20
2.422123280277755
  0
LWPOLYLINE
  5
6D
100
AcDbEntity
  8
USP-GEO
100
AcDbPolyline
 90
        2
 70
   128
 43
0.0
 10
5.039300321148726
 20
2.520884678046471
 10
5.039300321148726
 20
2.422123280277755
  0
ARC
  5
6E
100
AcDbEntity
  8
USP-GEO
100
AcDbCircle
 10
8.113257473907774
 20
2.516254922092073
 30
0.0
 40
0.0859
100
AcDbArc
 50
95.46120602879813
 51
177.5599227141044
  0
ARC
  5
6F
100
AcDbEntity
  8
USP-GEO
100
AcDbCircle
 10
8.113257473907802
 20
2.516254922092073
 30
0.0
 40
0.0859
100
AcDbArc
 50
2.981953575873415
 51
95.46120602881373
  0
ARC
  5
70
100
AcDbEntity
  8
USP-GEO
100
AcDbCircle
 10
8.113257473907802
 20
2.438054922092064
 30
0.0
 40
0.0859
100
AcDbArc
 50
188.3422746898131
 51
261.393804381187
  0
ARC
  5
71
100
AcDbEntity
  8
USP-GEO
100
AcDbCircle
 10
8.113257473907802
 20
2.438054922092064
 30
0.0
 40
0.0859
100
AcDbArc
 50
261.393804381187
 51
349.8373368291371
  0
LWPOLYLINE
  5
72
100
AcDbEntity
  8
USP-GEO
100
AcDbPolyline
 90
        2
 70
   128
 43
0.0
 10
8.00461128915442
 20
2.520884678046471
 10
8.00461128915442
 20
2.422123280277755
  0
LWPOLYLINE
  5
73
100
AcDbEntity
  8
USP-GEO
100
AcDbPolyline
 90
        2
 70
   128
 43
0.0
 10
8.202134084691852
 20
2.520884678046471
 10
8.202134084691852
 20
2.422123280277755
  0
ARC
  5
74
100
AcDbEntity
  8
USP-GEO
100
AcDbCircle
 10
9.613257473907774
 20
2.094454922092069
 30
0.0
 40
0.0859
100
AcDbArc
 50
109.4138979846309
 51
193.0172661756082
  0
ARC
  5
75
100
AcDbEntity
  8
USP-GEO
100
AcDbCircle
 10
9.613257473907774
 20
2.094454922092069
 30
0.0
 40
0.0859
100
AcDbArc
 50
345.6403925132331
 51
109.4138979846309
  0
ARC
  5
76
100
AcDbEntity
  8
USP-GEO
100
AcDbCircle
 10
12.61325747390776
 20
2.094454922092069
 30
0.0
 40
0.0859
100
AcDbArc
 50
99.67708870056794
 51
189.0858912548298
  0
ARC
  5
77
100
AcDbEntity
  8
USP-GEO
100
AcDbCircle
 10
12.61325747390777
 20
2.094454922092069
 30
0.0
 40
0.0859
100
AcDbArc
 50
348.0441824709761
 51
99.67708870057775
  0
ARC
  5
78
100
AcDbEntity
  8
USP-GEO
100
AcDbCircle
 10
9.613257473907774
 20
2.016254922092073
 30
0.0
 40
0.0859
100
AcDbArc
 50
252.0643617677726
 51
8.752336873308511
  0
ARC
  5
79
100
AcDbEntity
  8
USP-GEO
100
AcDbCircle
 10
9.613257473907774
 20
2.016254922092073
 30
0.0
 40
0.0859
100
AcDbArc
 50
172.0848739158505
 51
252.0643617677726
  0
LWPOLYLINE
  5
7A
100
AcDbEntity
  8
USP-GEO
100
AcDbPolyline
 90
        2
 70
   128
 43
0.0
 10
9.535412954569515
 20
2.07645838808725
 10
9.535412954569515
 20
2.02707768920289
  0
LWPOLYLINE
  5
7B
100
AcDbEntity
  8
USP-GEO
100
AcDbPolyline
 90
        2
 70
   128
 43
0.0
 10
9.683555051222588
 20
2.07645838808725
 10
9.683555051222588
 20
2.02707768920289
  0
ARC
  5
7C
100
AcDbEntity
  8
USP-GEO
100
AcDbCircle
 10
12.61325747390776
 20
2.016254922092059
 30
0.0
 40
0.0859
100
AcDbArc
 50
174.5065487757653
 51
261.0991532386207
  0
ARC
  5
7D
100
AcDbEntity
  8
USP-GEO
100
AcDbCircle
 10
12.61325747390776
 20
2.016254922092059
 30
0.0
 40
0.0859
100
AcDbArc
 50
261.0991532386207
 51
7.257144645193704
  0
LWPOLYLINE
  5
7E
100
AcDbEntity
  8
USP-GEO
100
AcDbPolyline
 90
        2
 70
   128
 43
0.0
 10
12.69824671811264
 20
2.07645838808725
 10
12.69824671811264
 20
2.02707768920289
  0
LWPOLYLINE
  5
7F
100
AcDbEntity
  8
USP-GEO
100
AcDbPolyline
 90
        2
 70
   128
 43
0.0
 10
12.5007239225752
 20
2.07645838808725
 10
12.5007239225752
 20
2.02707768920289
  0
ARC
  5
80
100
AcDbEntity
  8
USP-GEO
100
AcDbCircle
 10
11.11325747390777
 20
2.516254922092059
 30
0.0
 40
0.0859
100
AcDbArc
 50
4.883458987404492
 51
87.33811123637119
  0
ARC
  5
81
100
AcDbEntity
  8
USP-GEO
100
AcDbCircle
 10
11.11325747390777
 20
2.516254922092059
 30
0.0
 40
0.0859
100
AcDbArc
 50
87.33811123637119
 51
177.1789426357172
  0
ARC
  5
82
100
AcDbEntity
  8
USP-GEO
100
AcDbCircle
 10
11.11325747390777
 20
2.438054922092064
 30
0.0
 40
0.0859
100
AcDbArc
 50
189.6239646086087
 51
274.2092850838234
  0
ARC
  5
83
100
AcDbEntity
  8
USP-GEO
100
AcDbCircle
 10
11.11325747390777
 20
2.438054922092064
 30
0.0
 40
0.0859
100
AcDbArc
 50
274.2092850838234
 51
343.6161834276163
  0
LWPOLYLINE
  5
84
100
AcDbEntity
  8
USP-GEO
100
AcDbPolyline
 90
        2
 70
   128
 43
0.0
 10
11.01930295604447
 20
2.520884678046471
 10
11.01930295604447
 20
2.422123280277755
  0
LWPOLYLINE
  5
85
100
AcDbEntity
  8
USP-GEO
100
AcDbPolyline
 90
        2
 70
   128
 43
0.0
 10
11.16744505269754
 20
2.520884678046471
 10
11.16744505269754
 20
2.422123280277755
  0
ARC
  5
86
100
AcDbEntity
  8
USP-GEO
100
AcDbCircle
 10
14.11325747390776
 20
2.516254922092059
 30
0.0
 40
0.0859
100
AcDbArc
 50
107.3749495416842
 51
176.7579079251734
  0
ARC
  5
87
100
AcDbEntity
  8
USP-GEO
100
AcDbCircle
 10
14.11325747390776
 20
2.516254922092059
 30
0.0
 40
0.0859
100
AcDbArc
 50
3.98789556713238
 51
107.3749495416842
  0
ARC
  5
88
100
AcDbEntity
  8
USP-GEO
100
AcDbCircle
 10
14.11325747390776
 20
2.438054922092064
 30
0.0
 40
0.0859
100
AcDbArc
 50
243.6493876281233
 51
346.5098212145075
  0
LWPOLYLINE
  5
89
100
AcDbEntity
  8
USP-GEO
100
AcDbPolyline
 90
        2
 70
   128
 43
0.0
 10
14.0315255879903
 20
2.520884678046471
 10
14.0315255879903
 20
2.422123280277755
  0
LWPOLYLINE
  5
8A
100
AcDbEntity
  8
USP-GEO
100
AcDbPolyline
 90
        2
 70
   128
 43
0.0
 10
14.17966768464338
 20
2.520884678046471
 10
14.17966768464338
 20
2.422123280277755
  0
ARC
  5
8B
100
AcDbEntity
  8
USP-GEO
100
AcDbCircle
 10
14.11325747390776
 20
2.438054922092064
 30
0.0
 40
0.0859
100
AcDbArc
 50
191.0301056131056
 51
243.6493876281233
  0
ARC
  5
8C
100
AcDbEntity
  8
USP-GEO
100
AcDbCircle
 10
15.61325747390776
 20
0.5162549220920596
 30
0.0
 40
0.0859
100
AcDbArc
 50
270.7334311344463
 51
15.11971058351768
  0
ARC
  5
8D
100
AcDbEntity
  8
USP-GEO
100
AcDbCircle
 10
15.61325747390776
 20
0.5162549220920596
 30
0.0
 40
0.0859
100
AcDbArc
 50
164.6094600199764
 51
270.7334311344463
  0
ARC
  5
8E
100
AcDbEntity
  8
USP-GEO
100
AcDbCircle
 10
15.61325747390776
 20
0.5944549220920692
 30
0.0
 40
0.0859
100
AcDbArc
 50
358.9157641412631
 51
89.45617831635411
  0
ARC
  5
8F
100
AcDbEntity
  8
USP-GEO
100
AcDbCircle
 10
15.61325747390776
 20
0.5944549220920692
 30
0.0
 40
0.0859
100
AcDbArc
 50
89.4561783163499
 51
181.1046100488898
  0
LWPOLYLINE
  5
90
100
AcDbEntity
  8
USP-GEO
100
AcDbPolyline
 90
        2
 70
   128
 43
0.0
 10
15.51541558946525
 20
0.5925683866122924
 10
15.51541558946525
 20
0.5431876877279365
  0
LWPOLYLINE
  5
91
100
AcDbEntity
  8
USP-GEO
100
AcDbPolyline
 90
        2
 70
   128
 43
0.0
 10
15.71293838500269
 20
0.5925683866122924
 10
15.71293838500269
 20
0.5431876877279365
  0
ARC
  5
92
100
AcDbEntity
  8
USP-GEO
100
AcDbCircle
 10
18.61325747390775
 20
0.5162549220920525
 30
0.0
 40
0.0859
100
AcDbArc
 50
162.0526052964946
 51
282.2619251671905
  0
ARC
  5
93
100
AcDbEntity
  8
USP-GEO
100
AcDbCircle
 10
18.61325747390775
 20
0.5162549220920525
 30
0.0
 40
0.0859
100
AcDbArc
 50
282.2619251671905
 51
22.5092156463214
  0
ARC
  5
94
100
AcDbEntity
  8
USP-GEO
100
AcDbCircle
 10
18.61325747390775
 20
0.5944549220920621
 30
0.0
 40
0.0859
100
AcDbArc
 50
80.84560667624526
 51
181.2997197479054
  0
ARC
  5
95
100
AcDbEntity
  8
USP-GEO
100
AcDbCircle
 10
18.61325747390776
 20
0.5944549220920621
 30
0.0
 40
0.0859
100
AcDbArc
 50
358.3373279957561
 51
80.84560667624934
  0
LWPOLYLINE
  5
96
100
AcDbEntity
  8
USP-GEO
100
AcDbPolyline
 90
        2
 70
   128
 43
0.0
 10
18.67824935300838
 20
0.5925683866122924
 10
18.67824935300838
 20
0.5431876877279365
  0
LWPOLYLINE
  5
97
100
AcDbEntity
  8
USP-GEO
100
AcDbPolyline
 90
        2
 70
   128
 43
0.0
 10
18.53010725635531
 20
0.5925683866122924
 10
18.53010725635531
 20
0.5431876877279365
  0
LWPOLYLINE
  5
98
100
AcDbEntity
  8
USP-GEO
100
AcDbPolyline
 90
        2
 70
   128
 43
0.0
 10
16.99683655599599
 20
1.036994676571513
 10
16.99683655599599
 20
0.938233278802798
  0
LWPOLYLINE
  5
99
100
AcDbEntity
  8
USP-GEO
100
AcDbPolyline
 90
        2
 70
   128
 43
0.0
 10
17.19435935153343
 20
1.036994676571513
 10
17.19435935153343
 20
0.938233278802798
  0
ARC
  5
9A
100
AcDbEntity
  8
USP-GEO
100
AcDbCircle
 10
17.11325747390776
 20
0.938054922092057
 30
0.0
 40
0.0859
100
AcDbArc
 50
179.9122230011427
 51
259.8441250909891
  0
ARC
  5
9B
100
AcDbEntity
  8
USP-GEO
100
AcDbCircle
 10
17.11325747390776
 20
0.938054922092057
 30
0.0
 40
0.0859
100
AcDbArc
 50
259.8441250909891
 51
0.1260028817849659
  0
ARC
  5
9C
100
AcDbEntity
  8
USP-GEO
100
AcDbCircle
 10
17.11325747390775
 20
1.016254922092052
 30
0.0
 40
0.0859
100
AcDbArc
 50
104.1357191905404
 51
169.8990314472285
  0
ARC
  5
9D
100
AcDbEntity
  8
USP-GEO
100
AcDbCircle
 10
17.11325747390776
 20
1.016254922092052
 30
0.0
 40
0.0859
100
AcDbArc
 50
14.34453295656715
 51
104.1357191905458
  0
LWPOLYLINE
  5
9E
100
AcDbEntity
  8
USP-GEO
100
AcDbPolyline
 90
        2
 70
   128
 43
0.0
 10
20.01152822288605
 20
1.036994676571513
 10
20.01152822288605
 20
0.938233278802798
  0
LWPOLYLINE
  5
9F
100
AcDbEntity
  8
USP-GEO
100
AcDbPolyline
 90
        2
 70
   128
 43
0.0
 10
20.20905101842348
 20
1.036994676571513
 10
20.20905101842348
 20
0.938233278802798
  0
ARC
  5
A0
100
AcDbEntity
  8
USP-GEO
100
AcDbCircle
 10
20.11325747390775
 20
0.938054922092057
 30
0.0
 40
0.0859
100
AcDbArc
 50
268.2756250976869
 51
0.1066781171571759
  0
ARC
  5
A1
100
AcDbEntity
  8
USP-GEO
100
AcDbCircle
 10
20.11325747390775
 20
0.938054922092057
 30
0.0
 40
0.0859
100
AcDbArc
 50
179.8995463330367
 51
268.2756250976869
  0
ARC
  5
A2
100
AcDbEntity
  8
USP-GEO
100
AcDbCircle
 10
20.11325747390775
 20
1.016254922092052
 30
0.0
 40
0.0859
100
AcDbArc
 50
92.42360147400207
 51
168.4769059769358
  0
ARC
  5
A3
100
AcDbEntity
  8
USP-GEO
100
AcDbCircle
 10
20.11325747390775
 20
1.016254922092052
 30
0.0
 40
0.0859
100
AcDbArc
 50
12.21625954683859
 51
92.42360147400786
  0
ARC
  5
A4
100
AcDbEntity
  8
USP-GEO
100
AcDbCircle
 10
21.61325747390775
 20
0.5162549220920525
 30
0.0
 40
0.0859
100
AcDbArc
 50
253.3020019868378
 51
19.22899939639899
  0
ARC
  5
A5
100
AcDbEntity
  8
USP-GEO
100
AcDbCircle
 10
21.61325747390775
 20
0.5944549220920621
 30
0.0
 40
0.0859
100
AcDbArc
 50
358.6004052968063
 51
102.5395944713722
  0
ARC
  5
A6
100
AcDbEntity
  8
USP-GEO
100
AcDbCircle
 10
21.61325747390775
 20
0.5944549220920621
 30
0.0
 40
0.0859
100
AcDbArc
 50
102.5395944713722
 51
181.5235967925626
  0
LWPOLYLINE
  5
A7
100
AcDbEntity
  8
USP-GEO
100
AcDbPolyline
 90
        2
 70
   128
 43
0.0
 10
21.54232988830114
 20
0.5925683866122924
 10
21.54232988830114
 20
0.5431876877279365
  0
LWPOLYLINE
  5
A8
100
AcDbEntity
  8
USP-GEO
100
AcDbPolyline
 90
        2
 70
   128
 43
0.0
 10
21.69047198495421
 20
0.5925683866122924
 10
21.69047198495421
 20
0.5431876877279365
  0
ARC
  5
A9
100
AcDbEntity
  8
USP-GEO
100
AcDbCircle
 10
21.61325747390775
 20
0.5162549220920525
 30
0.0
 40
0.0859
100
AcDbArc
 50
159.2071279926889
 51
253.3020019868378
  0
ARC
  5
AA
100
AcDbEntity
  8
USP-GEO
100
AcDbCircle
 10
24.61325747390775
 20
0.5162549220920525
 30
0.0
 40
0.0859
100
AcDbArc
 50
165.6941791328584
 51
264.5482867377758
  0
ARC
  5
AB
100
AcDbEntity
  8
USP-GEO
100
AcDbCircle
 10
24.61325747390775
 20
0.5162549220920525
 30
0.0
 40
0.0859
100
AcDbArc
 50
264.5482867377758
 51
16.3330276727722
  0
ARC
  5
AC
100
AcDbEntity
  8
USP-GEO
100
AcDbCircle
 10
24.61325747390775
 20
0.5944549220920621
 30
0.0
 40
0.0859
100
AcDbArc
 50
94.0477117682524
 51
181.023314606579
  0
ARC
  5
AD
100
AcDbEntity
  8
USP-GEO
100
AcDbCircle
 10
24.61325747390775
 20
0.5944549220920621
 30
0.0
 40
0.0859
100
AcDbArc
 50
358.8240687848418
 51
94.0477117682524
  0
LWPOLYLINE
  5
AE
100
AcDbEntity
  8
USP-GEO
100
AcDbPolyline
 90
        2
 70
   128
 43
0.0
 10
24.70516365184427
 20
0.5925683866122924
 10
24.70516365184427
 20
0.5431876877279365
  0
LWPOLYLINE
  5
AF
100
AcDbEntity
  8
USP-GEO
100
AcDbPolyline
 90
        2
 70
   128
 43
0.0
 10
24.50764085630683
 20
0.5925683866122924
 10
24.50764085630683
 20
0.5431876877279365
  0
LWPOLYLINE
  5
B0
100
AcDbEntity
  8
USP-GEO
100
AcDbPolyline
 90
        2
 70
   128
 43
0.0
 10
23.02621988977609
 20
1.036994676571513
 10
23.02621988977609
 20
0.938233278802798
  0
LWPOLYLINE
  5
B1
100
AcDbEntity
  8
USP-GEO
100
AcDbPolyline
 90
        2
 70
   128
 43
0.0
 10
23.17436198642917
 20
1.036994676571513
 10
23.17436198642917
 20
0.938233278802798
  0
ARC
  5
B2
100
AcDbEntity
  8
USP-GEO
100
AcDbCircle
 10
23.11325747390775
 20
0.938054922092057
 30
0.0
 40
0.0859
100
AcDbArc
 50
276.7819470822196
 51
0.1672390029809212
  0
ARC
  5
B3
100
AcDbEntity
  8
USP-GEO
100
AcDbCircle
 10
23.11325747390775
 20
0.938054922092057
 30
0.0
 40
0.0859
100
AcDbArc
 50
179.8825901181503
 51
276.7819470822196
  0
ARC
  5
B4
100
AcDbEntity
  8
USP-GEO
100
AcDbCircle
 10
23.11325747390775
 20
1.016254922092052
 30
0.0
 40
0.0859
100
AcDbArc
 50
80.50820776551057
 51
166.5972110890612
  0
ARC
  5
B5
100
AcDbEntity
  8
USP-GEO
100
AcDbCircle
 10
23.11325747390775
 20
1.016254922092052
 30
0.0
 40
0.0859
100
AcDbArc
 50
18.74795473780455
 51
80.50820776551057
  0
LWPOLYLINE
  5
B6
100
AcDbEntity
  8
USP-GEO
100
AcDbPolyline
 90
        2
 70
   128
 43
0.0
 10
26.03844252172193
 20
1.036994676571513
 10
26.03844252172193
 20
0.938233278802798
  0
LWPOLYLINE
  5
B7
100
AcDbEntity
  8
USP-GEO
100
AcDbPolyline
 90
        2
 70
   128
 43
0.0
 10
26.186584618375
 20
1.036994676571513
 10
26.186584618375
 20
0.938233278802798
  0
ARC
  5
B8
100
AcDbEntity
  8
USP-GEO
100
AcDbCircle
 10
26.11325747390775
 20
0.938054922092057
 30
0.0
 40
0.0859
100
AcDbArc
 50
255.5332649903234
 51
0.1393626697805502
  0
ARC
  5
B9
100
AcDbEntity
  8
USP-GEO
100
AcDbCircle
 10
26.11325747390775
 20
0.938054922092057
 30
0.0
 40
0.0859
100
AcDbArc
 50
179.8634087556651
 51
255.5332649903234
  0
ARC
  5
BA
100
AcDbEntity
  8
USP-GEO
100
AcDbCircle
 10
26.11325747390775
 20
1.016254922092052
 30
0.0
 40
0.0859
100
AcDbArc
 50
15.79295637038581
 51
109.936838249168
  0
ARC
  5
BB
100
AcDbEntity
  8
USP-GEO
100
AcDbCircle
 10
26.11325747390775
 20
1.016254922092052
 30
0.0
 40
0.0859
100
AcDbArc
 50
109.936838249168
 51
164.505879892237
  0
ARC
  5
BC
100
AcDbEntity
  8
USP-GEO
100
AcDbCircle
 10
27.61325747390774
 20
0.5162549220920525
 30
0.0
 40
0.0859
100
AcDbArc
 50
163.5002501439953
 51
276.2262991065109
  0
ARC
  5
BD
100
AcDbEntity
  8
USP-GEO
100
AcDbCircle
 10
27.61325747390774
 20
0.5162549220920525
 30
0.0
 40
0.0859
100
AcDbArc
 50
276.2262991065109
 51
14.17947090888793
  0
ARC
  5
BE
100
AcDbEntity
  8
USP-GEO
100
AcDbCircle
 10
27.61325747390774
 20
0.5944549220920621
 30
0.0
 40
0.0859
100
AcDbArc
 50
85.37527267698818
 51
181.1886177929909
  0
ARC
  5
BF
100
AcDbEntity
  8
USP-GEO
100
AcDbCircle
 10
27.61325747390775
 20
0.5944549220920621
 30
0.0
 40
0.0859
100
AcDbArc
 50
358.9861029719389
 51
85.37527267699237
  0
LWPOLYLINE
  5
C0
100
AcDbEntity
  8
USP-GEO
100
AcDbPolyline
 90
        2
 70
   128
 43
0.0
 10
27.71985531873431
 20
0.5925683866122924
 10
27.71985531873431
 20
0.5431876877279365
  0
LWPOLYLINE
  5
C1
100
AcDbEntity
  8
USP-GEO
100
AcDbPolyline
 90
        2
 70
   128
 43
0.0
 10
27.52233252319689
 20
0.5925683866122924
 10
27.52233252319689
 20
0.5431876877279365
  0
ARC
  5
C2
100
AcDbEntity
  8
USP-GEO
100
AcDbCircle
 10
30.61325747390773
 20
0.5162549220920525
 30
0.0
 40
0.0859
100
AcDbArc
 50
161.1085111569193
 51
285.6030816782567
  0
ARC
  5
C3
100
AcDbEntity
  8
USP-GEO
100
AcDbCircle
 10
30.61325747390774
 20
0.5944549220920621
 30
0.0
 40
0.0859
100
AcDbArc
 50
358.4971837527006
 51
78.30155421767329
  0
ARC
  5
C4
100
AcDbEntity
  8
USP-GEO
100
AcDbCircle
 10
30.61325747390773
 20
0.5944549220920621
 30
0.0
 40
0.0859
100
AcDbArc
 50
78.30155421766926
 51
181.3731466530587
  0
LWPOLYLINE
  5
C5
100
AcDbEntity
  8
USP-GEO
100
AcDbPolyline
 90
        2
 70
   128
 43
0.0
 10
30.53455515514272
 20
0.5925683866122924
 10
30.53455515514272
 20
0.5431876877279365
  0
LWPOLYLINE
  5
C6
100
AcDbEntity
  8
USP-GEO
100
AcDbPolyline
 90
        2
 70
   128
 43
0.0
 10
30.68516628674001
 20
0.5925683866122924
 10
30.68516628674001
 20
0.5431876877279365
  0
ARC
  5
C7
100
AcDbEntity
  8
USP-GEO
100
AcDbCircle
 10
30.61325747390773
 20
0.5162549220920525
 30
0.0
 40
0.0859
100
AcDbArc
 50
285.6030816782567
 51
20.53296221054758
  0
LWPOLYLINE
  5
C8
100
AcDbEntity
  8
USP-GEO
100
AcDbPolyline
 90
        2
 70
   128
 43
0.0
 10
29.20127628526505
 20
1.036994676571513
 10
29.20127628526505
 20
0.938233278802798
  0
LWPOLYLINE
  5
C9
100
AcDbEntity
  8
USP-GEO
100
AcDbPolyline
 90
        2
 70
   128
 43
0.0
 10
29.00375348972762
 20
1.036994676571513
 10
29.00375348972762
 20
0.938233278802798
  0
ARC
  5
CA
100
AcDbEntity
  8
USP-GEO
100
AcDbCircle
 10
29.11325747390774
 20
0.938054922092057
 30
0.0
 40
0.0859
100
AcDbArc
 50
263.7810214806155
 51
0.1161010087381385
  0
ARC
  5
CB
100
AcDbEntity
  8
USP-GEO
100
AcDbCircle
 10
29.11325747390774
 20
0.938054922092057
 30
0.0
 40
0.0859
100
AcDbArc
 50
179.906678484686
 51
263.7810214806155
  0
ARC
  5
CC
100
AcDbEntity
  8
USP-GEO
100
AcDbCircle
 10
29.11325747390774
 20
1.016254922092052
 30
0.0
 40
0.0859
100
AcDbArc
 50
13.25868083870018
 51
98.71009901180698
  0
ARC
  5
CD
100
AcDbEntity
  8
USP-GEO
100
AcDbCircle
 10
29.11325747390774
 20
1.016254922092052
 30
0.0
 40
0.0859
100
AcDbArc
 50
98.71009901180698
 51
169.2753678362233
  0
LWPOLYLINE
  5
CE
100
AcDbEntity
  8
USP-GEO
100
AcDbPolyline
 90
        2
 70
   128
 43
0.0
 10
32.21596795215511
 20
1.036994676571513
 10
32.21596795215511
 20
0.938233278802798
  0
LWPOLYLINE
  5
CF
100
AcDbEntity
  8
USP-GEO
100
AcDbPolyline
 90
        2
 70
   128
 43
0.0
 10
32.01844515661767
 20
1.036994676571513
 10
32.01844515661767
 20
0.938233278802798
  0
ARC
  5
D0
100
AcDbEntity
  8
USP-GEO
100
AcDbCircle
 10
32.11325747390773
 20
0.938054922092057
 30
0.0
 40
0.0859
100
AcDbArc
 50
179.8922178572241
 51
272.2939516839254
  0
ARC
  5
D1
100
AcDbEntity
  8
USP-GEO
100
AcDbCircle
 10
32.11325747390773
 20
0.938054922092057
 30
0.0
 40
0.0859
100
AcDbArc
 50
272.2939516839254
 51
0.099494001741933
  0
ARC
  5
D2
100
AcDbEntity
  8
USP-GEO
100
AcDbCircle
 10
32.11325747390773
 20
1.016254922092052
 30
0.0
 40
0.0859
100
AcDbArc
 50
86.77659133053408
 51
167.6611664330112
  0
ARC
  5
D3
100
AcDbEntity
  8
USP-GEO
100
AcDbCircle
 10
32.11325747390773
 20
1.016254922092052
 30
0.0
 40
0.0859
100
AcDbArc
 50
11.41591385439787
 51
86.77659133053408
  0
ARC
  5
D4
100
AcDbEntity
  8
USP-GEO
100
AcDbCircle
 10
33.61325747390773
 20
0.5162549220920525
 30
0.0
 40
0.0859
100
AcDbArc
 50
258.4875515696955
 51
17.75128353635623
  0
ARC
  5
D5
100
AcDbEntity
  8
USP-GEO
100
AcDbCircle
 10
33.61325747390773
 20
0.5162549220920525
 30
0.0
 40
0.0859
100
AcDbArc
 50
166.6386719563627
 51
258.4875515696955
  0
ARC
  5
D6
100
AcDbEntity
  8
USP-GEO
100
AcDbCircle
 10
33.61325747390774
 20
0.5944549220920621
 30
0.0
 40
0.0859
100
AcDbArc
 50
358.7154338081387
 51
98.58786143378052
  0
ARC
  5
D7
100
AcDbEntity
  8
USP-GEO
100
AcDbCircle
 10
33.61325747390773
 20
0.5944549220920621
 30
0.0
 40
0.0859
100
AcDbArc
 50
98.58786143377642
 51
180.953163963394
  0
LWPOLYLINE
  5
D8
100
AcDbEntity
  8
USP-GEO
100
AcDbPolyline
 90
        2
 70
   128
 43
0.0
 10
33.49986612314841
 20
0.5925683866122924
 10
33.49986612314841
 20
0.5431876877279365
  0
LWPOLYLINE
  5
D9
100
AcDbEntity
  8
USP-GEO
100
AcDbPolyline
 90
        2
 70
   128
 43
0.0
 10
33.69738891868584
 20
0.5925683866122924
 10
33.69738891868584
 20
0.5431876877279365
  0
ARC
  5
DA
100
AcDbEntity
  8
USP-GEO
100
AcDbCircle
 10
36.61325747390772
 20
0.5162549220920525
 30
0.0
 40
0.0859
100
AcDbArc
 50
164.7369551219625
 51
270.0492275155608
  0
ARC
  5
DB
100
AcDbEntity
  8
USP-GEO
100
AcDbCircle
 10
36.61325747390772
 20
0.5162549220920525
 30
0.0
 40
0.0859
100
AcDbArc
 50
270.0492275155608
 51
15.24486926371475
  0
ARC
  5
DC
100
AcDbEntity
  8
USP-GEO
100
AcDbCircle
 10
36.61325747390772
 20
0.5944549220920621
 30
0.0
 40
0.0859
100
AcDbArc
 50
89.96349986555619
 51
181.0950122253698
  0
ARC
  5
DD
100
AcDbEntity
  8
USP-GEO
100
AcDbCircle
 10
36.61325747390772
 20
0.5944549220920621
 30
0.0
 40
0.0859
100
AcDbArc
 50
358.906355087398
 51
89.96349986556039
  0
LWPOLYLINE
  5
DE
100
AcDbEntity
  8
USP-GEO
100
AcDbPolyline
 90
        2
 70
   128
 43
0.0
 10
36.51455779003846
 20
0.5925683866122924
 10
36.51455779003846
 20
0.5431876877279365
  0
LWPOLYLINE
  5
DF
100
AcDbEntity
  8
USP-GEO
100
AcDbPolyline
 90
        2
 70
   128
 43
0.0
 10
36.71208058557589
 20
0.5925683866122924
 10
36.71208058557589
 20
0.5431876877279365
  0
LWPOLYLINE
  5
E0
100
AcDbEntity
  8
USP-GEO
100
AcDbPolyline
 90
        2
 70
   128
 43
0.0
 10
35.03313682350772
 20
1.036994676571513
 10
35.03313682350772
 20
0.938233278802798
  0
LWPOLYLINE
  5
E1
100
AcDbEntity
  8
USP-GEO
100
AcDbPolyline
 90
        2
 70
   128
 43
0.0
 10
35.1812789201608
 20
1.036994676571513
 10
35.1812789201608
 20
0.938233278802798
  0
ARC
  5
E2
100
AcDbEntity
  8
USP-GEO
100
AcDbCircle
 10
35.11325747390773
 20
0.938054922092057
 30
0.0
 40
0.0859
100
AcDbArc
 50
179.8724539823129
 51
280.7074566999434
  0
ARC
  5
E3
100
AcDbEntity
  8
USP-GEO
100
AcDbCircle
 10
35.11325747390773
 20
0.938054922092057
 30
0.0
 40
0.0859
100
AcDbArc
 50
280.7074566999434
 51
0.1502329620550813
  0
ARC
  5
E4
100
AcDbEntity
  8
USP-GEO
100
AcDbCircle
 10
35.11325747390773
 20
1.016254922092052
 30
0.0
 40
0.0859
100
AcDbArc
 50
75.11286833424222
 51
165.4871678037415
  0
ARC
  5
E5
100
AcDbEntity
  8
USP-GEO
100
AcDbCircle
 10
35.11325747390773
 20
1.016254922092052
 30
0.0
 40
0.0859
100
AcDbArc
 50
16.95647575281618
 51
75.11286833424222
  0
LWPOLYLINE
  5
E6
100
AcDbEntity
  8
USP-GEO
100
AcDbPolyline
 90
        2
 70
   128
 43
0.0
 10
38.04535945545356
 20
1.036994676571513
 10
38.04535945545356
 20
0.938233278802798
  0
LWPOLYLINE
  5
E7
100
AcDbEntity
  8
USP-GEO
100
AcDbPolyline
 90
        2
 70
   128
 43
0.0
 10
38.19350155210663
 20
1.036994676571513
 10
38.19350155210663
 20
0.938233278802798
  0
ARC
  5
E8
100
AcDbEntity
  8
USP-GEO
100
AcDbCircle
 10
38.11325747390772
 20
0.938054922092057
 30
0.0
 40
0.0859
100
AcDbArc
 50
179.8494939395684
 51
259.361818204508
  0
ARC
  5
E9
100
AcDbEntity
  8
USP-GEO
100
AcDbCircle
 10
38.11325747390772
 20
0.938054922092057
 30
0.0
 40
0.0859
100
AcDbArc
 50
259.361818204508
 51
0.1273498328384628
  0
ARC
  5
EA
100
AcDbEntity
  8
USP-GEO
100
AcDbCircle
 10
38.11325747390772
 20
1.016254922092052
 30
0.0
 40
0.0859
100
AcDbArc
 50
14.49144979127249
 51
104.7928939857854
  0
ARC
  5
EB
100
AcDbEntity
  8
USP-GEO
100
AcDbCircle
 10
38.11325747390772
 20
1.016254922092052
 30
0.0
 40
0.0859
100
AcDbArc
 50
104.7928939857854
 51
163.0144731080204
  0
ARC
  5
EC
100
AcDbEntity
  8
USP-GEO
100
AcDbCircle
 10
15.61325747390776
 20
2.094454922092069
 30
0.0
 40
0.0859
100
AcDbArc
 50
349.765981148551
 51
89.34771193543445
  0
ARC
  5
ED
100
AcDbEntity
  8
USP-GEO
100
AcDbCircle
 10
15.61325747390776
 20
2.094454922092069
 30
0.0
 40
0.0859
100
AcDbArc
 50
89.34771193542941
 51
190.4221988475656
  0
ARC
  5
EE
100
AcDbEntity
  8
USP-GEO
100
AcDbCircle
 10
18.61325747390775
 20
2.094454922092062
 30
0.0
 40
0.0859
100
AcDbArc
 50
79.06011243357041
 51
192.212388872628
  0
ARC
  5
EF
100
AcDbEntity
  8
USP-GEO
100
AcDbCircle
 10
18.61325747390776
 20
2.094454922092062
 30
0.0
 40
0.0859
100
AcDbArc
 50
344.5223584179594
 51
79.06011243357527
  0
ARC
  5
F0
100
AcDbEntity
  8
USP-GEO
100
AcDbCircle
 10
15.61325747390776
 20
2.016254922092059
 30
0.0
 40
0.0859
100
AcDbArc
 50
270.5990804321661
 51
6.19656578765451
  0
ARC
  5
F1
100
AcDbEntity
  8
USP-GEO
100
AcDbCircle
 10
15.61325747390776
 20
2.016254922092059
 30
0.0
 40
0.0859
100
AcDbArc
 50
173.6878956905822
 51
270.5990804321661
  0
LWPOLYLINE
  5
F2
100
AcDbEntity
  8
USP-GEO
100
AcDbPolyline
 90
        2
 70
   128
 43
0.0
 10
15.51541558946525
 20
2.07645838808725
 10
15.51541558946525
 20
2.02707768920289
  0
LWPOLYLINE
  5
F3
100
AcDbEntity
  8
USP-GEO
100
AcDbPolyline
 90
        2
 70
   128
 43
0.0
 10
15.71293838500269
 20
2.07645838808725
 10
15.71293838500269
 20
2.02707768920289
  0
ARC
  5
F4
100
AcDbEntity
  8
USP-GEO
100
AcDbCircle
 10
18.61325747390775
 20
2.016254922092052
 30
0.0
 40
0.0859
100
AcDbArc
 50
280.0664789149063
 51
9.454419734021698
  0
ARC
  5
F5
100
AcDbEntity
  8
USP-GEO
100
AcDbCircle
 10
18.61325747390775
 20
2.016254922092052
 30
0.0
 40
0.0859
100
AcDbArc
 50
172.5841172666812
 51
280.0664789149063
  0
LWPOLYLINE
  5
F6
100
AcDbEntity
  8
USP-GEO
100
AcDbPolyline
 90
        2
 70
   128
 43
0.0
 10
18.53010725635531
 20
2.07645838808725
 10
18.53010725635531
 20
2.02707768920289
  0
LWPOLYLINE
  5
F7
100
AcDbEntity
  8
USP-GEO
100
AcDbPolyline
 90
        2
 70
   128
 43
0.0
 10
18.67824935300838
 20
2.07645838808725
 10
18.67824935300838
 20
2.02707768920289
  0
ARC
  5
F8
100
AcDbEntity
  8
USP-GEO
100
AcDbCircle
 10
17.11325747390775
 20
2.516254922092052
 30
0.0
 40
0.0859
100
AcDbArc
 50
99.69275607943972
 51
177.7226964073261
  0
ARC
  5
F9
100
AcDbEntity
  8
USP-GEO
100
AcDbCircle
 10
17.11325747390776
 20
2.516254922092052
 30
0.0
 40
0.0859
100
AcDbArc
 50
3.267222651059916
 51
99.69275607944352
  0
ARC
  5
FA
100
AcDbEntity
  8
USP-GEO
100
AcDbCircle
 10
17.11325747390776
 20
2.438054922092057
 30
0.0
 40
0.0859
100
AcDbArc
 50
187.7922511769095
 51
254.8698317496217
  0
ARC
  5
FB
100
AcDbEntity
  8
USP-GEO
100
AcDbCircle
 10
17.11325747390776
 20
2.438054922092057
 30
0.0
 40
0.0859
100
AcDbArc
 50
254.8698317496217
 51
348.8863364835626
  0
LWPOLYLINE
  5
FC
100
AcDbEntity
  8
USP-GEO
100
AcDbPolyline
 90
        2
 70
   128
 43
0.0
 10
16.99683655599599
 20
2.520884678046471
 10
16.99683655599599
 20
2.422123280277755
  0
LWPOLYLINE
  5
FD
100
AcDbEntity
  8
USP-GEO
100
AcDbPolyline
 90
        2
 70
   128
 43
0.0
 10
17.19435935153343
 20
2.520884678046471
 10
17.19435935153343
 20
2.422123280277755
  0
ARC
  5
FE
100
AcDbEntity
  8
USP-GEO
100
AcDbCircle
 10
20.11325747390775
 20
2.516254922092052
 30
0.0
 40
0.0859
100
AcDbArc
 50
2.766984217530289
 51
91.64422948894841
  0
ARC
  5
FF
100
AcDbEntity
  8
USP-GEO
100
AcDbCircle
 10
20.11325747390775
 20
2.516254922092052
 30
0.0
 40
0.0859
100
AcDbArc
 50
91.64422948894452
 51
177.3942345919803
  0
ARC
  5
100
100
AcDbEntity
  8
USP-GEO
100
AcDbCircle
 10
20.11325747390775
 20
2.438054922092057
 30
0.0
 40
0.0859
100
AcDbArc
 50
188.9006960930554
 51
267.398216515431
  0
ARC
  5
101
100
AcDbEntity
  8
USP-GEO
100
AcDbCircle
 10
20.11325747390775
 20
2.438054922092057
 30
0.0
 40
0.0859
100
AcDbArc
 50
267.398216515431
 51
350.5574355792596
  0
LWPOLYLINE
  5
102
100
AcDbEntity
  8
USP-GEO
100
AcDbPolyline
 90
        2
 70
   128
 43
0.0
 10
20.01152822288605
 20
2.520884678046471
 10
20.01152822288605
 20
2.422123280277755
  0
LWPOLYLINE
  5
103
100
AcDbEntity
  8
USP-GEO
100
AcDbPolyline
 90
        2
 70
   128
 43
0.0
 10
20.20905101842348
 20
2.520884678046471
 10
20.20905101842348
 20
2.422123280277755
  0
ARC
  5
104
100
AcDbEntity
  8
USP-GEO
100
AcDbCircle
 10
21.61325747390775
 20
2.094454922092062
 30
0.0
 40
0.0859
100
AcDbArc
 50
346.8801832753107
 51
104.9377684201855
  0
ARC
  5
105
100
AcDbEntity
  8
USP-GEO
100
AcDbCircle
 10
21.61325747390775
 20
2.094454922092062
 30
0.0
 40
0.0859
100
AcDbArc
 50
104.9377684201855
 51
194.2372671333442
  0
ARC
  5
106
100
AcDbEntity
  8
USP-GEO
100
AcDbCircle
 10
24.61325747390775
 20
2.094454922092062
 30
0.0
 40
0.0859
100
AcDbArc
 50
94.85156497079602
 51
189.670034988624
  0
ARC
  5
107
100
AcDbEntity
  8
USP-GEO
100
AcDbCircle
 10
24.61325747390775
 20
2.094454922092062
 30
0.0
 40
0.0859
100
AcDbArc
 50
348.9208569712083
 51
94.85156497079602
  0
ARC
  5
108
100
AcDbEntity
  8
USP-GEO
100
AcDbCircle
 10
21.61325747390775
 20
2.016254922092052
 30
0.0
 40
0.0859
100
AcDbArc
 50
256.2325178363538
 51
7.978878740244898
  0
ARC
  5
109
100
AcDbEntity
  8
USP-GEO
100
AcDbCircle
 10
21.61325747390775
 20
2.016254922092052
 30
0.0
 40
0.0859
100
AcDbArc
 50
171.3242169596511
 51
256.2325178363538
  0
LWPOLYLINE
  5
10A
100
AcDbEntity
  8
USP-GEO
100
AcDbPolyline
 90
        2
 70
   128
 43
0.0
 10
21.54232988830114
 20
2.07645838808725
 10
21.54232988830114
 20
2.02707768920289
  0
LWPOLYLINE
  5
10B
100
AcDbEntity
  8
USP-GEO
100
AcDbPolyline
 90
        2
 70
   128
 43
0.0
 10
21.69047198495421
 20
2.07645838808725
 10
21.69047198495421
 20
2.02707768920289
  0
ARC
  5
10C
100
AcDbEntity
  8
USP-GEO
100
AcDbCircle
 10
24.61325747390775
 20
2.016254922092052
 30
0.0
 40
0.0859
100
AcDbArc
 50
265.5425456515731
 51
6.716155238559669
  0
ARC
  5
10D
100
AcDbEntity
  8
USP-GEO
100
AcDbCircle
 10
24.61325747390775
 20
2.016254922092052
 30
0.0
 40
0.0859
100
AcDbArc
 50
174.1491973051291
 51
265.5425456515731
  0
LWPOLYLINE
  5
10E
100
AcDbEntity
  8
USP-GEO
100
AcDbPolyline
 90
        2
 70
   128
 43
0.0
 10
24.50764085630683
 20
2.07645838808725
 10
24.50764085630683
 20
2.02707768920289
  0
LWPOLYLINE
  5
10F
100
AcDbEntity
  8
USP-GEO
100
AcDbPolyline
 90
        2
 70
   128
 43
0.0
 10
24.70516365184427
 20
2.07645838808725
 10
24.70516365184427
 20
2.02707768920289
  0
ARC
  5
110
100
AcDbEntity
  8
USP-GEO
100
AcDbCircle
 10
23.11325747390775
 20
2.516254922092052
 30
0.0
 40
0.0859
100
AcDbArc
 50
4.332897816864186
 51
83.53070327474984
  0
ARC
  5
111
100
AcDbEntity
  8
USP-GEO
100
AcDbCircle
 10
23.11325747390775
 20
2.516254922092052
 30
0.0
 40
0.0859
100
AcDbArc
 50
83.53070327474984
 51
176.9551577349998
  0
ARC
  5
112
100
AcDbEntity
  8
USP-GEO
100
AcDbCircle
 10
23.11325747390775
 20
2.438054922092057
 30
0.0
 40
0.0859
100
AcDbArc
 50
190.3727766159012
 51
280.1764336551201
  0
ARC
  5
113
100
AcDbEntity
  8
USP-GEO
100
AcDbCircle
 10
23.11325747390775
 20
2.438054922092057
 30
0.0
 40
0.0859
100
AcDbArc
 50
280.1764336551201
 51
345.3867341825386
  0
LWPOLYLINE
  5
114
100
AcDbEntity
  8
USP-GEO
100
AcDbPolyline
 90
        2
 70
   128
 43
0.0
 10
23.02621988977609
 20
2.520884678046471
 10
23.02621988977609
 20
2.422123280277755
  0
LWPOLYLINE
  5
115
100
AcDbEntity
  8
USP-GEO
100
AcDbPolyline
 90
        2
 70
   128
 43
0.0
 10
23.17436198642917
 20
2.520884678046471
 10
23.17436198642917
 20
2.422123280277755
  0
ARC
  5
116
100
AcDbEntity
  8
USP-GEO
100
AcDbCircle
 10
26.11325747390775
 20
2.516254922092052
 30
0.0
 40
0.0859
100
AcDbArc
 50
3.612766180248581
 51
103.8203549344879
  0
ARC
  5
117
100
AcDbEntity
  8
USP-GEO
100
AcDbCircle
 10
26.11325747390775
 20
2.516254922092052
 30
0.0
 40
0.0859
100
AcDbArc
 50
103.8203549344879
 51
176.4588944424934
  0
ARC
  5
118
100
AcDbEntity
  8
USP-GEO
100
AcDbCircle
 10
26.11325747390775
 20
2.438054922092057
 30
0.0
 40
0.0859
100
AcDbArc
 50
248.722821408183
 51
347.7419726105157
  0
ARC
  5
119
100
AcDbEntity
  8
USP-GEO
100
AcDbCircle
 10
26.11325747390775
 20
2.438054922092057
 30
0.0
 40
0.0859
100
AcDbArc
 50
192.0214180113348
 51
248.722821408183
  0
LWPOLYLINE
  5
11A
100
AcDbEntity
  8
USP-GEO
100
AcDbPolyline
 90
        2
 70
   128
 43
0.0
 10
26.03844252172193
 20
2.520884678046471
 10
26.03844252172193
 20
2.422123280277755
  0
LWPOLYLINE
  5
11B
100
AcDbEntity
  8
USP-GEO
100
AcDbPolyline
 90
        2
 70
   128
 43
0.0
 10
26.186584618375
 20
2.520884678046471
 10
26.186584618375
 20
2.422123280277755
  0
ARC
  5
11C
100
AcDbEntity
  8
USP-GEO
100
AcDbCircle
 10
27.61325747390774
 20
2.094454922092062
 30
0.0
 40
0.0859
100
AcDbArc
 50
84.45805740445022
 51
191.1957001354503
  0
ARC
  5
11D
100
AcDbEntity
  8
USP-GEO
100
AcDbCircle
 10
27.61325747390775
 20
2.094454922092062
 30
0.0
 40
0.0859
100
AcDbArc
 50
350.4173190489804
 51
84.45805740445521
  0
ARC
  5
11E
100
AcDbEntity
  8
USP-GEO
100
AcDbCircle
 10
30.61325747390774
 20
2.094454922092047
 30
0.0
 40
0.0859
100
AcDbArc
 50
345.9492610103798
 51
76.05201621010774
  0
ARC
  5
11F
100
AcDbEntity
  8
USP-GEO
100
AcDbCircle
 10
30.61325747390773
 20
2.094454922092047
 30
0.0
 40
0.0859
100
AcDbArc
 50
76.05201621010298
 51
192.8801437545548
  0
ARC
  5
120
100
AcDbEntity
  8
USP-GEO
100
AcDbCircle
 10
27.61325747390774
 20
2.016254922092052
 30
0.0
 40
0.0859
100
AcDbArc
 50
275.0923293800557
 51
5.79731489695069
  0
ARC
  5
121
100
AcDbEntity
  8
USP-GEO
100
AcDbCircle
 10
27.61325747390774
 20
2.016254922092052
 30
0.0
 40
0.0859
100
AcDbArc
 50
173.2120393164035
 51
275.0923293800557
  0
LWPOLYLINE
  5
122
100
AcDbEntity
  8
USP-GEO
100
AcDbPolyline
 90
        2
 70
   128
 43
0.0
 10
27.52233252319689
 20
2.07645838808725
 10
27.52233252319689
 20
2.02707768920289
  0
LWPOLYLINE
  5
123
100
AcDbEntity
  8
USP-GEO
100
AcDbPolyline
 90
        2
 70
   128
 43
0.0
 10
27.71985531873431
 20
2.07645838808725
 10
27.71985531873431
 20
2.02707768920289
  0
ARC
  5
124
100
AcDbEntity
  8
USP-GEO
100
AcDbCircle
 10
30.61325747390773
 20
2.016254922092052
 30
0.0
 40
0.0859
100
AcDbArc
 50
172.1700673228471
 51
282.8495009471622
  0
ARC
  5
125
100
AcDbEntity
  8
USP-GEO
100
AcDbCircle
 10
30.61325747390773
 20
2.016254922092052
 30
0.0
 40
0.0859
100
AcDbArc
 50
282.8495009471622
 51
8.559163432642346
  0
LWPOLYLINE
  5
126
100
AcDbEntity
  8
USP-GEO
100
AcDbPolyline
 90
        2
 70
   128
 43
0.0
 10
30.53455515514272
 20
2.07645838808725
 10
30.53455515514272
 20
2.02707768920289
  0
LWPOLYLINE
  5
127
100
AcDbEntity
  8
USP-GEO
100
AcDbPolyline
 90
        2
 70
   128
 43
0.0
 10
30.68516628674001
 20
2.07645838808725
 10
30.68516628674001
 20
2.02707768920289
  0
ARC
  5
128
100
AcDbEntity
  8
USP-GEO
100
AcDbCircle
 10
29.11325747390774
 20
2.516254922092052
 30
0.0
 40
0.0859
100
AcDbArc
 50
3.010961397417905
 51
95.9318823874779
  0
ARC
  5
129
100
AcDbEntity
  8
USP-GEO
100
AcDbCircle
 10
29.11325747390774
 20
2.516254922092052
 30
0.0
 40
0.0859
100
AcDbArc
 50
95.9318823874779
 51
177.5790142259221
  0
ARC
  5
12A
100
AcDbEntity
  8
USP-GEO
100
AcDbCircle
 10
29.11325747390774
 20
2.438054922092057
 30
0.0
 40
0.0859
100
AcDbArc
 50
260.6596107170999
 51
349.7403889595748
  0
ARC
  5
12B
100
AcDbEntity
  8
USP-GEO
100
AcDbCircle
 10
29.11325747390774
 20
2.438054922092057
 30
0.0
 40
0.0859
100
AcDbArc
 50
188.2778345531644
 51
260.6596107170999
  0
LWPOLYLINE
  5
12C
100
AcDbEntity
  8
USP-GEO
100
AcDbPolyline
 90
        2
 70
   128
 43
0.0
 10
29.20127628526505
 20
2.520884678046471
 10
29.20127628526505
 20
2.422123280277755
  0
LWPOLYLINE
  5
12D
100
AcDbEntity
  8
USP-GEO
100
AcDbPolyline
 90
        2
 70
   128
 43
0.0
 10
29.00375348972762
 20
2.520884678046471
 10
29.00375348972762
 20
2.422123280277755
  0
ARC
  5
12E
100
AcDbEntity
  8
USP-GEO
100
AcDbCircle
 10
32.11325747390773
 20
2.516254922092052
 30
0.0
 40
0.0859
100
AcDbArc
 50
2.580905490373307
 51
87.8126203301317
  0
ARC
  5
12F
100
AcDbEntity
  8
USP-GEO
100
AcDbCircle
 10
32.11325747390773
 20
2.516254922092052
 30
0.0
 40
0.0859
100
AcDbArc
 50
87.8126203301317
 51
177.2044250326159
  0
ARC
  5
130
100
AcDbEntity
  8
USP-GEO
100
AcDbCircle
 10
32.11325747390773
 20
2.438054922092057
 30
0.0
 40
0.0859
100
AcDbArc
 50
273.4601501927903
 51
351.1829928599143
  0
ARC
  5
131
100
AcDbEntity
  8
USP-GEO
100
AcDbCircle
 10
32.11325747390773
 20
2.438054922092057
 30
0.0
 40
0.0859
100
AcDbArc
 50
189.5385002941502
 51
273.4601501927903
  0
LWPOLYLINE
  5
132
100
AcDbEntity
  8
USP-GEO
100
AcDbPolyline
 90
        2
 70
   128
 43
0.0
 10
32.01844515661767
 20
2.520884678046471
 10
32.01844515661767
 20
2.422123280277755
  0
LWPOLYLINE
  5
133
100
AcDbEntity
  8
USP-GEO
100
AcDbPolyline
 90
        2
 70
   128
 43
0.0
 10
32.21596795215511
 20
2.520884678046471
 10
32.21596795215511
 20
2.422123280277755
  0
ARC
  5
134
100
AcDbEntity
  8
USP-GEO
100
AcDbCircle
 10
33.61325747390774
 20
2.094454922092047
 30
0.0
 40
0.0859
100
AcDbArc
 50
347.9258414731624
 51
100.2673696509114
  0
ARC
  5
135
100
AcDbEntity
  8
USP-GEO
100
AcDbCircle
 10
33.61325747390773
 20
2.094454922092047
 30
0.0
 40
0.0859
100
AcDbArc
 50
100.2673696509065
 51
189.0182907934513
  0
ARC
  5
136
100
AcDbEntity
  8
USP-GEO
100
AcDbCircle
 10
36.61325747390772
 20
2.094454922092047
 30
0.0
 40
0.0859
100
AcDbArc
 50
89.95621926264552
 51
190.3335792263185
  0
ARC
  5
137
100
AcDbEntity
  8
USP-GEO
100
AcDbCircle
 10
36.61325747390772
 20
2.094454922092047
 30
0.0
 40
0.0859
100
AcDbArc
 50
349.6790496205306
 51
89.95621926265057
  0
ARC
  5
138
100
AcDbEntity
  8
USP-GEO
100
AcDbCircle
 10
33.61325747390773
 20
2.016254922092052
 30
0.0
 40
0.0859
100
AcDbArc
 50
174.5478550751441
 51
260.5544686273949
  0
ARC
  5
139
100
AcDbEntity
  8
USP-GEO
100
AcDbCircle
 10
33.61325747390773
 20
2.016254922092052
 30
0.0
 40
0.0859
100
AcDbArc
 50
260.5544686273949
 51
7.330337280620779
  0
LWPOLYLINE
  5
13A
100
AcDbEntity
  8
USP-GEO
100
AcDbPolyline
 90
        2
 70
   128
 43
0.0
 10
33.49986612314841
 20
2.07645838808725
 10
33.49986612314841
 20
2.02707768920289
  0
LWPOLYLINE
  5
13B
100
AcDbEntity
  8
USP-GEO
100
AcDbPolyline
 90
        2
 70
   128
 43
0.0
 10
33.69738891868584
 20
2.07645838808725
 10
33.69738891868584
 20
2.02707768920289
  0
ARC
  5
13C
100
AcDbEntity
  8
USP-GEO
100
AcDbCircle
 10
36.61325747390772
 20
2.016254922092052
 30
0.0
 40
0.0859
100
AcDbArc
 50
173.7423171263297
 51
270.0402092387516
  0
ARC
  5
13D
100
AcDbEntity
  8
USP-GEO
100
AcDbCircle
 10
36.61325747390772
 20
2.016254922092052
 30
0.0
 40
0.0859
100
AcDbArc
 50
270.0402092387516
 51
6.249929060724904
  0
LWPOLYLINE
  5
13E
100
AcDbEntity
  8
USP-GEO
100
AcDbPolyline
 90
        2
 70
   128
 43
0.0
 10
36.51455779003846
 20
2.07645838808725
 10
36.51455779003846
 20
2.02707768920289
  0
LWPOLYLINE
  5
13F
100
AcDbEntity
  8
USP-GEO
100
AcDbPolyline
 90
        2
 70
   128
 43
0.0
 10
36.71208058557589
 20
2.07645838808725
 10
36.71208058557589
 20
2.02707768920289
  0
ARC
  5
140
100
AcDbEntity
  8
USP-GEO
100
AcDbCircle
 10
35.11325747390773
 20
2.516254922092052
 30
0.0
 40
0.0859
100
AcDbArc
 50
3.893727686339743
 51
79.77974155864611
  0
ARC
  5
141
100
AcDbEntity
  8
USP-GEO
100
AcDbCircle
 10
35.11325747390773
 20
2.516254922092052
 30
0.0
 40
0.0859
100
AcDbArc
 50
79.77974155864611
 51
176.6928523757717
  0
ARC
  5
142
100
AcDbEntity
  8
USP-GEO
100
AcDbCircle
 10
35.11325747390773
 20
2.438054922092057
 30
0.0
 40
0.0859
100
AcDbArc
 50
285.9292373473613
 51
346.8180805411122
  0
ARC
  5
143
100
AcDbEntity
  8
USP-GEO
100
AcDbCircle
 10
35.11325747390773
 20
2.438054922092057
 30
0.0
 40
0.0859
100
AcDbArc
 50
191.24632213572
 51
285.9292373473613
  0
LWPOLYLINE
  5
144
100
AcDbEntity
  8
USP-GEO
100
AcDbPolyline
 90
        2
 70
   128
 43
0.0
 10
35.03313682350772
 20
2.520884678046471
 10
35.03313682350772
 20
2.422123280277755
  0
LWPOLYLINE
  5
145
100
AcDbEntity
  8
USP-GEO
100
AcDbPolyline
 90
        2
 70
   128
 43
0.0
 10
35.1812789201608
 20
2.520884678046471
 10
35.1812789201608
 20
2.422123280277755
  0
ARC
  5
146
100
AcDbEntity
  8
USP-GEO
100
AcDbCircle
 10
38.11325747390772
 20
2.516254922092052
 30
0.0
 40
0.0859
100
AcDbArc
 50
3.302071984954311
 51
100.1539986424101
  0
ARC
  5
147
100
AcDbEntity
  8
USP-GEO
100
AcDbCircle
 10
38.11325747390772
 20
2.516254922092052
 30
0.0
 40
0.0859
100
AcDbArc
 50
100.1539986424101
 51
176.0992159680108
  0
ARC
  5
148
100
AcDbEntity
  8
USP-GEO
100
AcDbCircle
 10
38.11325747390772
 20
2.438054922092057
 30
0.0
 40
0.0859
100
AcDbArc
 50
254.1709347442687
 51
348.7705365244179
  0
ARC
  5
149
100
AcDbEntity
  8
USP-GEO
100
AcDbCircle
 10
38.11325747390772
 20
2.438054922092057
 30
0.0
 40
0.0859
100
AcDbArc
 50
193.2050432300604
 51
254.1709347442687
  0
LWPOLYLINE
  5
14A
100
AcDbEntity
  8
USP-GEO
100
AcDbPolyline
 90
        2
 70
   128
 43
0.0
 10
38.04535945545356
 20
2.520884678046471
 10
38.04535945545356
 20
2.422123280277755
  0
LWPOLYLINE
  5
14B
100
AcDbEntity
  8
USP-GEO
100
AcDbPolyline
 90
        2
 70
   128
 43
0.0
 10
38.19350155210663
 20
2.520884678046471
 10
38.19350155210663
 20
2.422123280277755
  0
ARC
  5
14C
100
AcDbEntity
  8
USP-GEO
100
AcDbCircle
 10
39.61325747390771
 20
0.5162549220920525
 30
0.0
 40
0.0859
100
AcDbArc
 50
281.6069499305139
 51
22.77971140673458
  0
ARC
  5
14D
100
AcDbEntity
  8
USP-GEO
100
AcDbCircle
 10
39.61325747390771
 20
0.5162549220920525
 30
0.0
 40
0.0859
100
AcDbArc
 50
162.224276144824
 51
281.6069499305139
  0
ARC
  5
14E
100
AcDbEntity
  8
USP-GEO
100
AcDbCircle
 10
39.61325747390772
 20
0.5944549220920621
 30
0.0
 40
0.0859
100
AcDbArc
 50
358.3151023333026
 51
81.34077952440341
  0
ARC
  5
14F
100
AcDbEntity
  8
USP-GEO
100
AcDbCircle
 10
39.61325747390771
 20
0.5944549220920621
 30
0.0
 40
0.0859
100
AcDbArc
 50
81.34077952439929
 51
181.2864528919742
  0
LWPOLYLINE
  5
150
100
AcDbEntity
  8
USP-GEO
100
AcDbPolyline
 90
        2
 70
   128
 43
0.0
 10
39.52924945692851
 20
0.5925683866122924
 10
39.52924945692851
 20
0.5431876877279365
  0
LWPOLYLINE
  5
151
100
AcDbEntity
  8
USP-GEO
100
AcDbPolyline
 90
        2
 70
   128
 43
0.0
 10
39.67739155358159
 20
0.5925683866122924
 10
39.67739155358159
 20
0.5431876877279365
  0
ARC
  5
152
100
AcDbEntity
  8
USP-GEO
100
AcDbCircle
 10
42.6132574739077
 20
0.5162549220920525
 30
0.0
 40
0.0859
100
AcDbArc
 50
252.6763286351161
 51
19.42891631730104
  0
ARC
  5
153
100
AcDbEntity
  8
USP-GEO
100
AcDbCircle
 10
42.61325747390771
 20
0.5944549220920479
 30
0.0
 40
0.0859
100
AcDbArc
 50
358.5846884606481
 51
103.0221002431499
  0
ARC
  5
154
100
AcDbEntity
  8
USP-GEO
100
AcDbCircle
 10
42.6132574739077
 20
0.5944549220920479
 30
0.0
 40
0.0859
100
AcDbArc
 50
103.0221002431459
 51
181.5053990017072
  0
LWPOLYLINE
  5
155
100
AcDbEntity
  8
USP-GEO
100
AcDbPolyline
 90
        2
 70
   128
 43
0.0
 10
42.54147208887435
 20
0.5925683866122924
 10
42.54147208887435
 20
0.5431876877279365
  0
ARC
  5
156
100
AcDbEntity
  8
USP-GEO
100
AcDbCircle
 10
42.6132574739077
 20
0.5162549220920525
 30
0.0
 40
0.0859
100
AcDbArc
 50
159.4346862633
 51
252.6763286351161
  0
LWPOLYLINE
  5
157
100
AcDbEntity
  8
USP-GEO
100
AcDbPolyline
 90
        2
 70
   128
 43
0.0
 10
42.68961418552742
 20
0.5925683866122924
 10
42.68961418552742
 20
0.5431876877279365
  0
LWPOLYLINE
  5
158
100
AcDbEntity
  8
USP-GEO
100
AcDbPolyline
 90
        2
 70
   128
 43
0.0
 10
41.20819321899668
 20
1.036994676571513
 10
41.20819321899668
 20
0.938233278802798
  0
LWPOLYLINE
  5
159
100
AcDbEntity
  8
USP-GEO
100
AcDbPolyline
 90
        2
 70
   128
 43
0.0
 10
41.01067042345925
 20
1.036994676571513
 10
41.01067042345925
 20
0.938233278802798
  0
ARC
  5
15A
100
AcDbEntity
  8
USP-GEO
100
AcDbCircle
 10
41.11325747390771
 20
0.938054922092057
 30
0.0
 40
0.0859
100
AcDbArc
 50
267.7776723179719
 51
0.107642013456709
  0
ARC
  5
15B
100
AcDbEntity
  8
USP-GEO
100
AcDbCircle
 10
41.11325747390771
 20
0.938054922092057
 30
0.0
 40
0.0859
100
AcDbArc
 50
179.9003862921074
 51
267.7776723179719
  0
ARC
  5
15C
100
AcDbEntity
  8
USP-GEO
100
AcDbCircle
 10
41.11325747390771
 20
1.016254922092052
 30
0.0
 40
0.0859
100
AcDbArc
 50
12.32328209319236
 51
93.12286422714548
  0
ARC
  5
15D
100
AcDbEntity
  8
USP-GEO
100
AcDbCircle
 10
41.11325747390771
 20
1.016254922092052
 30
0.0
 40
0.0859
100
AcDbArc
 50
93.12286422714548
 51
168.5707123327981
  0
LWPOLYLINE
  5
15E
100
AcDbEntity
  8
USP-GEO
100
AcDbPolyline
 90
        2
 70
   128
 43
0.0
 10
44.22288488588673
 20
1.036994676571513
 10
44.22288488588673
 20
0.938233278802798
  0
LWPOLYLINE
  5
15F
100
AcDbEntity
  8
USP-GEO
100
AcDbPolyline
 90
        2
 70
   128
 43
0.0
 10
44.0253620903493
 20
1.036994676571513
 10
44.0253620903493
 20
0.938233278802798
  0
ARC
  5
160
100
AcDbEntity
  8
USP-GEO
100
AcDbCircle
 10
44.11325747390771
 20
0.938054922092057
 30
0.0
 40
0.0859
100
AcDbArc
 50
276.2898624846408
 51
0.0932164462561429
  0
ARC
  5
161
100
AcDbEntity
  8
USP-GEO
100
AcDbCircle
 10
44.11325747390771
 20
0.938054922092057
 30
0.0
 40
0.0859
100
AcDbArc
 50
179.8837359559342
 51
276.2898624846408
  0
ARC
  5
162
100
AcDbEntity
  8
USP-GEO
100
AcDbCircle
 10
44.11325747390771
 20
1.016254922092052
 30
0.0
 40
0.0859
100
AcDbArc
 50
10.71283707369686
 51
81.1913863894931
  0
ARC
  5
163
100
AcDbEntity
  8
USP-GEO
100
AcDbCircle
 10
44.11325747390771
 20
1.016254922092052
 30
0.0
 40
0.0859
100
AcDbArc
 50
81.1913863894931
 51
166.7233594749484
  0
ARC
  5
164
100
AcDbEntity
  8
USP-GEO
100
AcDbCircle
 10
45.6132574739077
 20
0.5162549220920525
 30
0.0
 40
0.0859
100
AcDbArc
 50
263.8710157940024
 51
16.47859627964115
  0
ARC
  5
165
100
AcDbEntity
  8
USP-GEO
100
AcDbCircle
 10
45.6132574739077
 20
0.5162549220920525
 30
0.0
 40
0.0859
100
AcDbArc
 50
165.8047559565582
 51
263.8710157940024
  0
ARC
  5
166
100
AcDbEntity
  8
USP-GEO
100
AcDbCircle
 10
45.6132574739077
 20
0.5944549220920479
 30
0.0
 40
0.0859
100
AcDbArc
 50
358.812993070134
 51
94.55219423458126
  0
ARC
  5
167
100
AcDbEntity
  8
USP-GEO
100
AcDbCircle
 10
45.6132574739077
 20
0.5944549220920479
 30
0.0
 40
0.0859
100
AcDbArc
 50
94.55219423457707
 51
181.0150721169911
  0
LWPOLYLINE
  5
168
100
AcDbEntity
  8
USP-GEO
100
AcDbPolyline
 90
        2
 70
   128
 43
0.0
 10
45.50678305688005
 20
0.5925683866122924
 10
45.50678305688005
 20
0.5431876877279365
  0
LWPOLYLINE
  5
169
100
AcDbEntity
  8
USP-GEO
100
AcDbPolyline
 90
        2
 70
   128
 43
0.0
 10
45.70430585241747
 20
0.5925683866122924
 10
45.70430585241747
 20
0.5431876877279365
  0
ARC
  5
16A
100
AcDbEntity
  8
USP-GEO
100
AcDbCircle
 10
48.61325747390769
 20
0.5162549220920525
 30
0.0
 40
0.0859
100
AcDbArc
 50
275.5492636848518
 51
14.2898063104569
  0
ARC
  5
16B
100
AcDbEntity
  8
USP-GEO
100
AcDbCircle
 10
48.61325747390769
 20
0.5162549220920525
 30
0.0
 40
0.0859
100
AcDbArc
 50
163.6461808999632
 51
275.5492636848518
  0
ARC
  5
16C
100
AcDbEntity
  8
USP-GEO
100
AcDbCircle
 10
48.6132574739077
 20
0.5944549220920479
 30
0.0
 40
0.0859
100
AcDbArc
 50
358.9778796302746
 51
85.87965823477324
  0
ARC
  5
16D
100
AcDbEntity
  8
USP-GEO
100
AcDbCircle
 10
48.61325747390769
 20
0.5944549220920479
 30
0.0
 40
0.0859
100
AcDbArc
 50
85.87965823476904
 51
181.1775121414529
  0
LWPOLYLINE
  5
16E
100
AcDbEntity
  8
USP-GEO
100
AcDbPolyline
 90
        2
 70
   128
 43
0.0
 10
48.71899751930753
 20
0.5925683866122924
 10
48.71899751930753
 20
0.5431876877279365
  0
LWPOLYLINE
  5
16F
100
AcDbEntity
  8
USP-GEO
100
AcDbPolyline
 90
        2
 70
   128
 43
0.0
 10
48.52147472377009
 20
0.5925683866122924
 10
48.52147472377009
 20
0.5431876877279365
  0
LWPOLYLINE
  5
170
100
AcDbEntity
  8
USP-GEO
100
AcDbPolyline
 90
        2
 70
   128
 43
0.0
 10
47.18819585389243
 20
1.036994676571513
 10
47.18819585389243
 20
0.938233278802798
  0
LWPOLYLINE
  5
171
100
AcDbEntity
  8
USP-GEO
100
AcDbPolyline
 90
        2
 70
   128
 43
0.0
 10
47.03758472229513
 20
1.036994676571513
 10
47.03758472229513
 20
0.938233278802798
  0
ARC
  5
172
100
AcDbEntity
  8
USP-GEO
100
AcDbCircle
 10
47.1132574739077
 20
0.938054922092057
 30
0.0
 40
0.0859
100
AcDbArc
 50
284.5339730644193
 51
0.1363662715915923
  0
ARC
  5
173
100
AcDbEntity
  8
USP-GEO
100
AcDbCircle
 10
47.1132574739077
 20
0.938054922092057
 30
0.0
 40
0.0859
100
AcDbArc
 50
179.8649570997147
 51
284.5339730644193
  0
ARC
  5
174
100
AcDbEntity
  8
USP-GEO
100
AcDbCircle
 10
47.1132574739077
 20
1.016254922092052
 30
0.0
 40
0.0859
100
AcDbArc
 50
15.46982363126893
 51
69.97408484608108
  0
ARC
  5
175
100
AcDbEntity
  8
USP-GEO
100
AcDbCircle
 10
47.1132574739077
 20
1.016254922092052
 30
0.0
 40
0.0859
100
AcDbArc
 50
69.97408484608108
 51
164.6732122939554
  0
LWPOLYLINE
  5
176
100
AcDbEntity
  8
USP-GEO
100
AcDbPolyline
 90
        2
 70
   128
 43
0.0
 10
50.20041848583826
 20
1.036994676571513
 10
50.20041848583826
 20
0.938233278802798
  0
LWPOLYLINE
  5
177
100
AcDbEntity
  8
USP-GEO
100
AcDbPolyline
 90
        2
 70
   128
 43
0.0
 10
50.05227638918519
 20
1.036994676571513
 10
50.05227638918519
 20
0.938233278802798
  0
ARC
  5
178
100
AcDbEntity
  8
USP-GEO
100
AcDbCircle
 10
50.11325747390769
 20
0.938054922092057
 30
0.0
 40
0.0859
100
AcDbArc
 50
179.8324225014917
 51
263.28879826267
  0
ARC
  5
179
100
AcDbEntity
  8
USP-GEO
100
AcDbCircle
 10
50.11325747390769
 20
0.938054922092057
 30
0.0
 40
0.0859
100
AcDbArc
 50
263.28879826267
 51
0.1172436194063072
  0
ARC
  5
17A
100
AcDbEntity
  8
USP-GEO
100
AcDbCircle
 10
50.11325747390769
 20
1.016254922092052
 30
0.0
 40
0.0859
100
AcDbArc
 50
13.38449280450038
 51
99.3936533694427
  0
ARC
  5
17B
100
AcDbEntity
  8
USP-GEO
100
AcDbCircle
 10
50.11325747390769
 20
1.016254922092052
 30
0.0
 40
0.0859
100
AcDbArc
 50
99.3936533694427
 51
161.2167573192179
  0
ARC
  5
17C
100
AcDbEntity
  8
USP-GEO
100
AcDbCircle
 10
51.61325747390769
 20
0.5162549220920525
 30
0.0
 40
0.0859
100
AcDbArc
 50
160.7424789270779
 51
286.7882821594408
  0
ARC
  5
17D
100
AcDbEntity
  8
USP-GEO
100
AcDbCircle
 10
51.61325747390769
 20
0.5944549220920621
 30
0.0
 40
0.0859
100
AcDbArc
 50
77.39086519198631
 51
181.4018346511808
  0
ARC
  5
17E
100
AcDbEntity
  8
USP-GEO
100
AcDbCircle
 10
51.61325747390769
 20
0.5944549220920621
 30
0.0
 40
0.0859
100
AcDbArc
 50
358.4790487121412
 51
77.3908651919903
  0
LWPOLYLINE
  5
17F
100
AcDbEntity
  8
USP-GEO
100
AcDbPolyline
 90
        2
 70
   128
 43
0.0
 10
51.68430848731322
 20
0.5925683866122924
 10
51.68430848731322
 20
0.5431876877279365
  0
LWPOLYLINE
  5
180
100
AcDbEntity
  8
USP-GEO
100
AcDbPolyline
 90
        2
 70
   128
 43
0.0
 10
51.53616639066015
 20
0.5925683866122924
 10
51.53616639066015
 20
0.5431876877279365
  0
ARC
  5
181
100
AcDbEntity
  8
USP-GEO
100
AcDbCircle
 10
51.61325747390769
 20
0.5162549220920525
 30
0.0
 40
0.0859
100
AcDbArc
 50
286.7882821594408
 51
20.75983288845953
  0
ARC
  5
182
100
AcDbEntity
  8
USP-GEO
100
AcDbCircle
 10
54.61325747390767
 20
0.5162549220920525
 30
0.0
 40
0.0859
100
AcDbArc
 50
157.4522386838634
 51
257.8321224575275
  0
ARC
  5
183
100
AcDbEntity
  8
USP-GEO
100
AcDbCircle
 10
54.61325747390767
 20
0.5162549220920525
 30
0.0
 40
0.0859
100
AcDbArc
 50
257.8321224575275
 51
17.9224959236541
  0
ARC
  5
184
100
AcDbEntity
  8
USP-GEO
100
AcDbCircle
 10
54.61325747390767
 20
0.5944549220920621
 30
0.0
 40
0.0859
100
AcDbArc
 50
99.08322657471689
 51
181.6658338559721
  0
ARC
  5
185
100
AcDbEntity
  8
USP-GEO
100
AcDbCircle
 10
54.61325747390769
 20
0.5944549220920621
 30
0.0
 40
0.0859
100
AcDbArc
 50
358.7022060311523
 51
99.08322657472508
  0
LWPOLYLINE
  5
186
100
AcDbEntity
  8
USP-GEO
100
AcDbPolyline
 90
        2
 70
   128
 43
0.0
 10
54.69653111925905
 20
0.5925683866122924
 10
54.69653111925905
 20
0.5431876877279365
  0
LWPOLYLINE
  5
187
100
AcDbEntity
  8
USP-GEO
100
AcDbPolyline
 90
        2
 70
   128
 43
0.0
 10
54.54838902260598
 20
0.5925683866122924
 10
54.54838902260598
 20
0.5431876877279365
  0
LWPOLYLINE
  5
188
100
AcDbEntity
  8
USP-GEO
100
AcDbPolyline
 90
        2
 70
   128
 43
0.0
 10
53.01758735719088
 20
1.036994676571513
 10
53.01758735719088
 20
0.938233278802798
  0
LWPOLYLINE
  5
189
100
AcDbEntity
  8
USP-GEO
100
AcDbPolyline
 90
        2
 70
   128
 43
0.0
 10
53.21511015272831
 20
1.036994676571513
 10
53.21511015272831
 20
0.938233278802798
  0
ARC
  5
18A
100
AcDbEntity
  8
USP-GEO
100
AcDbCircle
 10
53.11325747390768
 20
0.938054922092057
 30
0.0
 40
0.0859
100
AcDbArc
 50
271.796042590318
 51
0.1003319347733275
  0
ARC
  5
18B
100
AcDbEntity
  8
USP-GEO
100
AcDbCircle
 10
53.11325747390768
 20
0.938054922092057
 30
0.0
 40
0.0859
100
AcDbArc
 50
179.8931842535061
 51
271.796042590318
  0
ARC
  5
18C
100
AcDbEntity
  8
USP-GEO
100
AcDbCircle
 10
53.11325747390768
 20
1.016254922092052
 30
0.0
 40
0.0859
100
AcDbArc
 50
87.47573297993531
 51
167.7684539888169
  0
ARC
  5
18D
100
AcDbEntity
  8
USP-GEO
100
AcDbCircle
 10
53.11325747390768
 20
1.016254922092052
 30
0.0
 40
0.0859
100
AcDbArc
 50
11.50950287855547
 51
87.47573297993531
  0
LWPOLYLINE
  5
18E
100
AcDbEntity
  8
USP-GEO
100
AcDbPolyline
 90
        2
 70
   128
 43
0.0
 10
56.03227902408093
 20
1.036994676571513
 10
56.03227902408093
 20
0.938233278802798
  0
LWPOLYLINE
  5
18F
100
AcDbEntity
  8
USP-GEO
100
AcDbPolyline
 90
        2
 70
   128
 43
0.0
 10
56.18042112073401
 20
1.036994676571513
 10
56.18042112073401
 20
0.938233278802798
  0
ARC
  5
190
100
AcDbEntity
  8
USP-GEO
100
AcDbCircle
 10
56.11325747390767
 20
0.9380549220920499
 30
0.0
 40
0.0859
100
AcDbArc
 50
179.8738050645447
 51
280.2253648217797
  0
ARC
  5
191
100
AcDbEntity
  8
USP-GEO
100
AcDbCircle
 10
56.11325747390767
 20
0.9380549220920499
 30
0.0
 40
0.0859
100
AcDbArc
 50
280.2253648217797
 51
0.1521516956734741
  0
ARC
  5
192
100
AcDbEntity
  8
USP-GEO
100
AcDbCircle
 10
56.11325747390767
 20
1.016254922092059
 30
0.0
 40
0.0859
100
AcDbArc
 50
75.76948215692883
 51
165.634507225597
  0
ARC
  5
193
100
AcDbEntity
  8
USP-GEO
100
AcDbCircle
 10
56.11325747390767
 20
1.016254922092059
 30
0.0
 40
0.0859
100
AcDbArc
 50
17.16039235382273
 51
75.76948215692883
  0
ARC
  5
194
100
AcDbEntity
  8
USP-GEO
100
AcDbCircle
 10
57.61325747390767
 20
0.5162549220920596
 30
0.0
 40
0.0859
100
AcDbArc
 50
164.8624042383446
 51
269.3650098571885
  0
ARC
  5
195
100
AcDbEntity
  8
USP-GEO
100
AcDbCircle
 10
57.61325747390767
 20
0.5162549220920596
 30
0.0
 40
0.0859
100
AcDbArc
 50
269.3650098571885
 51
15.37206697813046
  0
ARC
  5
196
100
AcDbEntity
  8
USP-GEO
100
AcDbCircle
 10
57.61325747390767
 20
0.594454922092055
 30
0.0
 40
0.0859
100
AcDbArc
 50
358.8967813198264
 51
90.47082713795635
  0
ARC
  5
197
100
AcDbEntity
  8
USP-GEO
100
AcDbCircle
 10
57.61325747390767
 20
0.594454922092055
 30
0.0
 40
0.0859
100
AcDbArc
 50
90.47082713795635
 51
181.0855797340025
  0
LWPOLYLINE
  5
198
100
AcDbEntity
  8
USP-GEO
100
AcDbPolyline
 90
        2
 70
   128
 43
0.0
 10
57.51369999061167
 20
0.5925683866122924
 10
57.51369999061167
 20
0.5431876877279365
  0
LWPOLYLINE
  5
199
100
AcDbEntity
  8
USP-GEO
100
AcDbPolyline
 90
        2
 70
   128
 43
0.0
 10
57.7112227861491
 20
0.5925683866122924
 10
57.7112227861491
 20
0.5431876877279365
  0
ARC
  5
19A
100
AcDbEntity
  8
USP-GEO
100
AcDbCircle
 10
60.61325747390766
 20
0.5162549220920596
 30
0.0
 40
0.0859
100
AcDbArc
 50
162.3927970963597
 51
280.9488845675906
  0
ARC
  5
19B
100
AcDbEntity
  8
USP-GEO
100
AcDbCircle
 10
60.61325747390766
 20
0.5162549220920596
 30
0.0
 40
0.0859
100
AcDbArc
 50
280.9488845675906
 51
13.4452730791007
  0
ARC
  5
19C
100
AcDbEntity
  8
USP-GEO
100
AcDbCircle
 10
60.61325747390766
 20
0.594454922092055
 30
0.0
 40
0.0859
100
AcDbArc
 50
81.83725925135711
 51
181.2734540973912
  0
ARC
  5
19D
100
AcDbEntity
  8
USP-GEO
100
AcDbCircle
 10
60.61325747390768
 20
0.594454922092055
 30
0.0
 40
0.0859
100
AcDbArc
 50
359.0406238500909
 51
81.83725925136535
  0
LWPOLYLINE
  5
19E
100
AcDbEntity
  8
USP-GEO
100
AcDbPolyline
 90
        2
 70
   128
 43
0.0
 10
60.52839165750172
 20
0.5925683866122924
 10
60.52839165750172
 20
0.5431876877279365
  0
LWPOLYLINE
  5
19F
100
AcDbEntity
  8
USP-GEO
100
AcDbPolyline
 90
        2
 70
   128
 43
0.0
 10
60.72591445303916
 20
0.5925683866122924
 10
60.72591445303916
 20
0.5431876877279365
  0
LWPOLYLINE
  5
1A0
100
AcDbEntity
  8
USP-GEO
100
AcDbPolyline
 90
        2
 70
   128
 43
0.0
 10
59.04450165602677
 20
1.036994676571513
 10
59.04450165602677
 20
0.938233278802798
  0
LWPOLYLINE
  5
1A1
100
AcDbEntity
  8
USP-GEO
100
AcDbPolyline
 90
        2
 70
   128
 43
0.0
 10
59.19264375267984
 20
1.036994676571513
 10
59.19264375267984
 20
0.938233278802798
  0
ARC
  5
1A2
100
AcDbEntity
  8
USP-GEO
100
AcDbCircle
 10
59.11325747390767
 20
0.9380549220920499
 30
0.0
 40
0.0859
100
AcDbArc
 50
258.8810316862799
 51
0.1287258924052126
  0
ARC
  5
1A3
100
AcDbEntity
  8
USP-GEO
100
AcDbCircle
 10
59.11325747390767
 20
0.9380549220920499
 30
0.0
 40
0.0859
100
AcDbArc
 50
179.8513716487297
 51
258.8810316862799
  0
ARC
  5
1A4
100
AcDbEntity
  8
USP-GEO
100
AcDbCircle
 10
59.11325747390767
 20
1.016254922092059
 30
0.0
 40
0.0859
100
AcDbArc
 50
105.4461118290691
 51
163.2143976005236
  0
ARC
  5
1A5
100
AcDbEntity
  8
USP-GEO
100
AcDbCircle
 10
59.11325747390767
 20
1.016254922092059
 30
0.0
 40
0.0859
100
AcDbArc
 50
14.64134077583973
 51
105.4461118290691
  0
LWPOLYLINE
  5
1A6
100
AcDbEntity
  8
USP-GEO
100
AcDbPolyline
 90
        2
 70
   128
 43
0.0
 10
62.00981262403246
 20
1.036994676571513
 10
62.00981262403246
 20
0.938233278802798
  0
LWPOLYLINE
  5
1A7
100
AcDbEntity
  8
USP-GEO
100
AcDbPolyline
 90
        2
 70
   128
 43
0.0
 10
62.20733541956989
 20
1.036994676571513
 10
62.20733541956989
 20
0.938233278802798
  0
ARC
  5
1A8
100
AcDbEntity
  8
USP-GEO
100
AcDbCircle
 10
62.11325747390767
 20
0.9380549220920642
 30
0.0
 40
0.0859
100
AcDbArc
 50
267.2800551856258
 51
0.1086234872350067
  0
ARC
  5
1A9
100
AcDbEntity
  8
USP-GEO
100
AcDbCircle
 10
62.11325747390767
 20
0.9380549220920642
 30
0.0
 40
0.0859
100
AcDbArc
 50
179.9012123207786
 51
267.2800551856258
  0
ARC
  5
1AA
100
AcDbEntity
  8
USP-GEO
100
AcDbCircle
 10
62.11325747390767
 20
1.016254922092059
 30
0.0
 40
0.0859
100
AcDbArc
 50
93.82119705189946
 51
168.6630235459873
  0
ARC
  5
1AB
100
AcDbEntity
  8
USP-GEO
100
AcDbCircle
 10
62.11325747390767
 20
1.016254922092059
 30
0.0
 40
0.0859
100
AcDbArc
 50
12.4321666170812
 51
93.82119705189946
  0
ARC
  5
1AC
100
AcDbEntity
  8
USP-GEO
100
AcDbCircle
 10
39.61325747390772
 20
2.094454922092047
 30
0.0
 40
0.0859
100
AcDbArc
 50
344.3254568972772
 51
79.64787347944083
  0
ARC
  5
1AD
100
AcDbEntity
  8
USP-GEO
100
AcDbCircle
 10
39.61325747390771
 20
2.094454922092047
 30
0.0
 40
0.0859
100
AcDbArc
 50
79.64787347943595
 51
192.0913766790362
  0
ARC
  5
1AE
100
AcDbEntity
  8
USP-GEO
100
AcDbCircle
 10
42.61325747390771
 20
2.094454922092047
 30
0.0
 40
0.0859
100
AcDbArc
 50
346.7379748155727
 51
105.5043523606757
  0
ARC
  5
1AF
100
AcDbEntity
  8
USP-GEO
100
AcDbCircle
 10
42.6132574739077
 20
2.094454922092047
 30
0.0
 40
0.0859
100
AcDbArc
 50
105.504352360671
 51
194.0739384772899
  0
ARC
  5
1B0
100
AcDbEntity
  8
USP-GEO
100
AcDbCircle
 10
39.61325747390771
 20
2.016254922092052
 30
0.0
 40
0.0859
100
AcDbArc
 50
172.6590101019019
 51
279.5237662025638
  0
ARC
  5
1B1
100
AcDbEntity
  8
USP-GEO
100
AcDbCircle
 10
39.61325747390771
 20
2.016254922092052
 30
0.0
 40
0.0859
100
AcDbArc
 50
279.5237662025638
 51
9.578545541609546
  0
LWPOLYLINE
  5
1B2
100
AcDbEntity
  8
USP-GEO
100
AcDbPolyline
 90
        2
 70
   128
 43
0.0
 10
39.52924945692851
 20
2.07645838808725
 10
39.52924945692851
 20
2.02707768920289
  0
LWPOLYLINE
  5
1B3
100
AcDbEntity
  8
USP-GEO
100
AcDbPolyline
 90
        2
 70
   128
 43
0.0
 10
39.67739155358159
 20
2.07645838808725
 10
39.67739155358159
 20
2.02707768920289
  0
ARC
  5
1B4
100
AcDbEntity
  8
USP-GEO
100
AcDbCircle
 10
42.6132574739077
 20
2.016254922092052
 30
0.0
 40
0.0859
100
AcDbArc
 50
255.7064789120009
 51
8.067340730378994
  0
ARC
  5
1B5
100
AcDbEntity
  8
USP-GEO
100
AcDbCircle
 10
42.6132574739077
 20
2.016254922092052
 30
0.0
 40
0.0859
100
AcDbArc
 50
171.426338462841
 51
255.7064789120009
  0
LWPOLYLINE
  5
1B6
100
AcDbEntity
  8
USP-GEO
100
AcDbPolyline
 90
        2
 70
   128
 43
0.0
 10
42.54147208887435
 20
2.07645838808725
 10
42.54147208887435
 20
2.02707768920289
  0
LWPOLYLINE
  5
1B7
100
AcDbEntity
  8
USP-GEO
100
AcDbPolyline
 90
        2
 70
   128
 43
0.0
 10
42.68961418552742
 20
2.07645838808725
 10
42.68961418552742
 20
2.02707768920289
  0
ARC
  5
1B8
100
AcDbEntity
  8
USP-GEO
100
AcDbCircle
 10
41.11325747390771
 20
2.516254922092052
 30
0.0
 40
0.0859
100
AcDbArc
 50
92.11907684371642
 51
177.4159934947835
  0
ARC
  5
1B9
100
AcDbEntity
  8
USP-GEO
100
AcDbCircle
 10
41.11325747390771
 20
2.516254922092052
 30
0.0
 40
0.0859
100
AcDbArc
 50
2.791946140782461
 51
92.11907684371642
  0
ARC
  5
1BA
100
AcDbEntity
  8
USP-GEO
100
AcDbCircle
 10
41.11325747390771
 20
2.438054922092057
 30
0.0
 40
0.0859
100
AcDbArc
 50
266.6477455810251
 51
350.4736734631358
  0
ARC
  5
1BB
100
AcDbEntity
  8
USP-GEO
100
AcDbCircle
 10
41.11325747390771
 20
2.438054922092057
 30
0.0
 40
0.0859
100
AcDbArc
 50
188.8274483605815
 51
266.6477455810251
  0
LWPOLYLINE
  5
1BC
100
AcDbEntity
  8
USP-GEO
100
AcDbPolyline
 90
        2
 70
   128
 43
0.0
 10
41.01067042345925
 20
2.520884678046471
 10
41.01067042345925
 20
2.422123280277755
  0
LWPOLYLINE
  5
1BD
100
AcDbEntity
  8
USP-GEO
100
AcDbPolyline
 90
        2
 70
   128
 43
0.0
 10
41.20819321899668
 20
2.520884678046471
 10
41.20819321899668
 20
2.422123280277755
  0
ARC
  5
1BE
100
AcDbEntity
  8
USP-GEO
100
AcDbCircle
 10
44.11325747390771
 20
2.516254922092052
 30
0.0
 40
0.0859
100
AcDbArc
 50
84.00045708872619
 51
176.9848182323117
  0
ARC
  5
1BF
100
AcDbEntity
  8
USP-GEO
100
AcDbCircle
 10
44.11325747390771
 20
2.516254922092052
 30
0.0
 40
0.0859
100
AcDbArc
 50
2.418263261602279
 51
84.00045708872619
  0
ARC
  5
1C0
100
AcDbEntity
  8
USP-GEO
100
AcDbCircle
 10
44.11325747390771
 20
2.438054922092057
 30
0.0
 40
0.0859
100
AcDbArc
 50
279.4457831388455
 51
351.731356396516
  0
ARC
  5
1C1
100
AcDbEntity
  8
USP-GEO
100
AcDbCircle
 10
44.11325747390771
 20
2.438054922092057
 30
0.0
 40
0.0859
100
AcDbArc
 50
190.2737115559622
 51
279.4457831388455
  0
LWPOLYLINE
  5
1C2
100
AcDbEntity
  8
USP-GEO
100
AcDbPolyline
 90
        2
 70
   128
 43
0.0
 10
44.0253620903493
 20
2.520884678046471
 10
44.0253620903493
 20
2.422123280277755
  0
LWPOLYLINE
  5
1C3
100
AcDbEntity
  8
USP-GEO
100
AcDbPolyline
 90
        2
 70
   128
 43
0.0
 10
44.22288488588673
 20
2.520884678046471
 10
44.22288488588673
 20
2.422123280277755
  0
ARC
  5
1C4
100
AcDbEntity
  8
USP-GEO
100
AcDbCircle
 10
45.6132574739077
 20
2.094454922092047
 30
0.0
 40
0.0859
100
AcDbArc
 50
348.8190944430311
 51
95.45518507771754
  0
ARC
  5
1C5
100
AcDbEntity
  8
USP-GEO
100
AcDbCircle
 10
45.6132574739077
 20
2.094454922092047
 30
0.0
 40
0.0859
100
AcDbArc
 50
95.45518507771255
 51
189.5935830856603
  0
ARC
  5
1C6
100
AcDbEntity
  8
USP-GEO
100
AcDbCircle
 10
48.6132574739077
 20
2.094454922092047
 30
0.0
 40
0.0859
100
AcDbArc
 50
350.3410398430791
 51
85.06151111463683
  0
ARC
  5
1C7
100
AcDbEntity
  8
USP-GEO
100
AcDbCircle
 10
48.61325747390769
 20
2.094454922092047
 30
0.0
 40
0.0859
100
AcDbArc
 50
85.06151111463182
 51
191.0936727144241
  0
ARC
  5
1C8
100
AcDbEntity
  8
USP-GEO
100
AcDbCircle
 10
45.6132574739077
 20
2.016254922092052
 30
0.0
 40
0.0859
100
AcDbArc
 50
264.9874653832613
 51
6.778844418811417
  0
ARC
  5
1C9
100
AcDbEntity
  8
USP-GEO
100
AcDbCircle
 10
45.6132574739077
 20
2.016254922092052
 30
0.0
 40
0.0859
100
AcDbArc
 50
174.1960105644417
 51
264.9874653832613
  0
LWPOLYLINE
  5
1CA
100
AcDbEntity
  8
USP-GEO
100
AcDbPolyline
 90
        2
 70
   128
 43
0.0
 10
45.50678305688005
 20
2.07645838808725
 10
45.50678305688005
 20
2.02707768920289
  0
LWPOLYLINE
  5
1CB
100
AcDbEntity
  8
USP-GEO
100
AcDbPolyline
 90
        2
 70
   128
 43
0.0
 10
45.70430585241747
 20
2.07645838808725
 10
45.70430585241747
 20
2.02707768920289
  0
ARC
  5
1CC
100
AcDbEntity
  8
USP-GEO
100
AcDbCircle
 10
48.61325747390769
 20
2.016254922092052
 30
0.0
 40
0.0859
100
AcDbArc
 50
274.5373783505214
 51
5.844020490173596
  0
ARC
  5
1CD
100
AcDbEntity
  8
USP-GEO
100
AcDbCircle
 10
48.61325747390769
 20
2.016254922092052
 30
0.0
 40
0.0859
100
AcDbArc
 50
173.2748956665245
 51
274.5373783505214
  0
LWPOLYLINE
  5
1CE
100
AcDbEntity
  8
USP-GEO
100
AcDbPolyline
 90
        2
 70
   128
 43
0.0
 10
48.71899751930753
 20
2.07645838808725
 10
48.71899751930753
 20
2.02707768920289
  0
LWPOLYLINE
  5
1CF
100
AcDbEntity
  8
USP-GEO
100
AcDbPolyline
 90
        2
 70
   128
 43
0.0
 10
48.52147472377009
 20
2.07645838808725
 10
48.52147472377009
 20
2.02707768920289
  0
ARC
  5
1D0
100
AcDbEntity
  8
USP-GEO
100
AcDbCircle
 10
47.1132574739077
 20
2.516254922092052
 30
0.0
 40
0.0859
100
AcDbArc
 50
76.11516662532243
 51
176.4989347422788
  0
ARC
  5
1D1
100
AcDbEntity
  8
USP-GEO
100
AcDbCircle
 10
47.1132574739077
 20
2.516254922092052
 30
0.0
 40
0.0859
100
AcDbArc
 50
3.535287958329127
 51
76.11516662532243
  0
ARC
  5
1D2
100
AcDbEntity
  8
USP-GEO
100
AcDbCircle
 10
47.1132574739077
 20
2.438054922092057
 30
0.0
 40
0.0859
100
AcDbArc
 50
291.3711382354654
 51
347.997807334957
  0
ARC
  5
1D3
100
AcDbEntity
  8
USP-GEO
100
AcDbCircle
 10
47.1132574739077
 20
2.438054922092057
 30
0.0
 40
0.0859
100
AcDbArc
 50
191.8890468023264
 51
291.3711382354654
  0
LWPOLYLINE
  5
1D4
100
AcDbEntity
  8
USP-GEO
100
AcDbPolyline
 90
        2
 70
   128
 43
0.0
 10
47.18819585389243
 20
2.520884678046471
 10
47.18819585389243
 20
2.422123280277755
  0
LWPOLYLINE
  5
1D5
100
AcDbEntity
  8
USP-GEO
100
AcDbPolyline
 90
        2
 70
   128
 43
0.0
 10
47.03758472229513
 20
2.520884678046471
 10
47.03758472229513
 20
2.422123280277755
  0
ARC
  5
1D6
100
AcDbEntity
  8
USP-GEO
100
AcDbCircle
 10
50.11325747390769
 20
2.516254922092052
 30
0.0
 40
0.0859
100
AcDbArc
 50
96.40175664871364
 51
175.6583657488784
  0
ARC
  5
1D7
100
AcDbEntity
  8
USP-GEO
100
AcDbCircle
 10
50.11325747390769
 20
2.516254922092052
 30
0.0
 40
0.0859
100
AcDbArc
 50
3.04053859188148
 51
96.40175664871364
  0
ARC
  5
1D8
100
AcDbEntity
  8
USP-GEO
100
AcDbCircle
 10
50.11325747390769
 20
2.438054922092057
 30
0.0
 40
0.0859
100
AcDbArc
 50
259.9284987633584
 51
349.6415939700709
  0
ARC
  5
1D9
100
AcDbEntity
  8
USP-GEO
100
AcDbCircle
 10
50.11325747390769
 20
2.438054922092057
 30
0.0
 40
0.0859
100
AcDbArc
 50
194.6415738080216
 51
259.9284987633584
  0
LWPOLYLINE
  5
1DA
100
AcDbEntity
  8
USP-GEO
100
AcDbPolyline
 90
        2
 70
   128
 43
0.0
 10
50.20041848583826
 20
2.520884678046471
 10
50.20041848583826
 20
2.422123280277755
  0
LWPOLYLINE
  5
1DB
100
AcDbEntity
  8
USP-GEO
100
AcDbPolyline
 90
        2
 70
   128
 43
0.0
 10
50.05227638918519
 20
2.520884678046471
 10
50.05227638918519
 20
2.422123280277755
  0
ARC
  5
1DC
100
AcDbEntity
  8
USP-GEO
100
AcDbCircle
 10
51.61325747390769
 20
2.094454922092047
 30
0.0
 40
0.0859
100
AcDbArc
 50
74.9805192898291
 51
193.1400941163231
  0
ARC
  5
1DD
100
AcDbEntity
  8
USP-GEO
100
AcDbCircle
 10
51.61325747390769
 20
2.094454922092047
 30
0.0
 40
0.0859
100
AcDbArc
 50
345.7864623431238
 51
74.98051928983381
  0
ARC
  5
1DE
100
AcDbEntity
  8
USP-GEO
100
AcDbCircle
 10
54.61325747390767
 20
2.094454922092062
 30
0.0
 40
0.0859
100
AcDbArc
 50
100.8554557141841
 51
195.5056757677034
  0
ARC
  5
1DF
100
AcDbEntity
  8
USP-GEO
100
AcDbCircle
 10
54.61325747390769
 20
2.094454922092062
 30
0.0
 40
0.0859
100
AcDbArc
 50
347.8051701557159
 51
100.8554557141939
  0
ARC
  5
1E0
100
AcDbEntity
  8
USP-GEO
100
AcDbCircle
 10
51.61325747390769
 20
2.016254922092052
 30
0.0
 40
0.0859
100
AcDbArc
 50
172.0085114671818
 51
283.8433214598241
  0
ARC
  5
1E1
100
AcDbEntity
  8
USP-GEO
100
AcDbCircle
 10
51.61325747390769
 20
2.016254922092052
 30
0.0
 40
0.0859
100
AcDbArc
 50
283.8433214598241
 51
8.660940449783922
  0
LWPOLYLINE
  5
1E2
100
AcDbEntity
  8
USP-GEO
100
AcDbPolyline
 90
        2
 70
   128
 43
0.0
 10
51.68430848731322
 20
2.07645838808725
 10
51.68430848731322
 20
2.02707768920289
  0
LWPOLYLINE
  5
1E3
100
AcDbEntity
  8
USP-GEO
100
AcDbPolyline
 90
        2
 70
   128
 43
0.0
 10
51.53616639066015
 20
2.07645838808725
 10
51.53616639066015
 20
2.02707768920289
  0
ARC
  5
1E4
100
AcDbEntity
  8
USP-GEO
100
AcDbCircle
 10
54.61325747390767
 20
2.016254922092052
 30
0.0
 40
0.0859
100
AcDbArc
 50
170.5279166452347
 51
260.0115014351225
  0
ARC
  5
1E5
100
AcDbEntity
  8
USP-GEO
100
AcDbCircle
 10
54.61325747390767
 20
2.016254922092052
 30
0.0
 40
0.0859
100
AcDbArc
 50
260.0115014351225
 51
7.405013028633677
  0
LWPOLYLINE
  5
1E6
100
AcDbEntity
  8
USP-GEO
100
AcDbPolyline
 90
        2
 70
   128
 43
0.0
 10
54.69653111925905
 20
2.07645838808725
 10
54.69653111925905
 20
2.02707768920289
  0
LWPOLYLINE
  5
1E7
100
AcDbEntity
  8
USP-GEO
100
AcDbPolyline
 90
        2
 70
   128
 43
0.0
 10
54.54838902260598
 20
2.07645838808725
 10
54.54838902260598
 20
2.02707768920289
  0
ARC
  5
1E8
100
AcDbEntity
  8
USP-GEO
100
AcDbCircle
 10
53.11325747390768
 20
2.516254922092052
 30
0.0
 40
0.0859
100
AcDbArc
 50
2.602612016360322
 51
88.28742980591236
  0
ARC
  5
1E9
100
AcDbEntity
  8
USP-GEO
100
AcDbCircle
 10
53.11325747390768
 20
2.516254922092052
 30
0.0
 40
0.0859
100
AcDbArc
 50
88.28742980591236
 51
177.2294515452462
  0
ARC
  5
1EA
100
AcDbEntity
  8
USP-GEO
100
AcDbCircle
 10
53.11325747390768
 20
2.438054922092057
 30
0.0
 40
0.0859
100
AcDbArc
 50
189.4545268438945
 51
272.7098290126649
  0
ARC
  5
1EB
100
AcDbEntity
  8
USP-GEO
100
AcDbCircle
 10
53.11325747390768
 20
2.438054922092057
 30
0.0
 40
0.0859
100
AcDbArc
 50
272.7098290126649
 51
351.1099176212669
  0
LWPOLYLINE
  5
1EC
100
AcDbEntity
  8
USP-GEO
100
AcDbPolyline
 90
        2
 70
   128
 43
0.0
 10
53.01758735719088
 20
2.520884678046471
 10
53.01758735719088
 20
2.422123280277755
  0
LWPOLYLINE
  5
1ED
100
AcDbEntity
  8
USP-GEO
100
AcDbPolyline
 90
        2
 70
   128
 43
0.0
 10
53.21511015272831
 20
2.520884678046471
 10
53.21511015272831
 20
2.422123280277755
  0
ARC
  5
1EE
100
AcDbEntity
  8
USP-GEO
100
AcDbCircle
 10
56.11325747390767
 20
2.516254922092059
 30
0.0
 40
0.0859
100
AcDbArc
 50
80.24079662049489
 51
176.727808243304
  0
ARC
  5
1EF
100
AcDbEntity
  8
USP-GEO
100
AcDbCircle
 10
56.11325747390767
 20
2.516254922092059
 30
0.0
 40
0.0859
100
AcDbArc
 50
3.943301622372836
 51
80.24079662049489
  0
ARC
  5
1F0
100
AcDbEntity
  8
USP-GEO
100
AcDbCircle
 10
56.11325747390767
 20
2.438054922092049
 30
0.0
 40
0.0859
100
AcDbArc
 50
191.1301803813506
 51
285.2310214258797
  0
ARC
  5
1F1
100
AcDbEntity
  8
USP-GEO
100
AcDbCircle
 10
56.11325747390767
 20
2.438054922092049
 30
0.0
 40
0.0859
100
AcDbArc
 50
285.2310214258797
 51
346.6557105297472
  0
LWPOLYLINE
  5
1F2
100
AcDbEntity
  8
USP-GEO
100
AcDbPolyline
 90
        2
 70
   128
 43
0.0
 10
56.03227902408093
 20
2.520884678046471
 10
56.03227902408093
 20
2.422123280277755
  0
LWPOLYLINE
  5
1F3
100
AcDbEntity
  8
USP-GEO
100
AcDbPolyline
 90
        2
 70
   128
 43
0.0
 10
56.18042112073401
 20
2.520884678046471
 10
56.18042112073401
 20
2.422123280277755
  0
ARC
  5
1F4
100
AcDbEntity
  8
USP-GEO
100
AcDbCircle
 10
60.61325747390766
 20
2.094454922092054
 30
0.0
 40
0.0859
100
AcDbArc
 50
80.23784554904692
 51
191.9727044898877
  0
ARC
  5
1F5
100
AcDbEntity
  8
USP-GEO
100
AcDbCircle
 10
57.61325747390767
 20
2.094454922092054
 30
0.0
 40
0.0859
100
AcDbArc
 50
90.56473646605445
 51
190.246437989994
  0
ARC
  5
1F6
100
AcDbEntity
  8
USP-GEO
100
AcDbCircle
 10
57.61325747390767
 20
2.094454922092054
 30
0.0
 40
0.0859
100
AcDbArc
 50
349.5906450036638
 51
90.56473646605445
  0
ARC
  5
1F7
100
AcDbEntity
  8
USP-GEO
100
AcDbCircle
 10
60.61325747390768
 20
2.094454922092054
 30
0.0
 40
0.0859
100
AcDbArc
 50
350.9238975314517
 51
80.23784554905672
  0
ARC
  5
1F8
100
AcDbEntity
  8
USP-GEO
100
AcDbCircle
 10
57.61325747390767
 20
2.016254922092059
 30
0.0
 40
0.0859
100
AcDbArc
 50
173.79581180637
 51
269.4813303942089
  0
ARC
  5
1F9
100
AcDbEntity
  8
USP-GEO
100
AcDbCircle
 10
57.61325747390767
 20
2.016254922092059
 30
0.0
 40
0.0859
100
AcDbArc
 50
269.4813303942089
 51
6.304215675955647
  0
LWPOLYLINE
  5
1FA
100
AcDbEntity
  8
USP-GEO
100
AcDbPolyline
 90
        2
 70
   128
 43
0.0
 10
57.51369999061167
 20
2.07645838808725
 10
57.51369999061167
 20
2.02707768920289
  0
LWPOLYLINE
  5
1FB
100
AcDbEntity
  8
USP-GEO
100
AcDbPolyline
 90
        2
 70
   128
 43
0.0
 10
57.7112227861491
 20
2.07645838808725
 10
57.7112227861491
 20
2.02707768920289
  0
ARC
  5
1FC
100
AcDbEntity
  8
USP-GEO
100
AcDbCircle
 10
60.61325747390766
 20
2.016254922092059
 30
0.0
 40
0.0859
100
AcDbArc
 50
172.7324134199871
 51
278.9793231614507
  0
ARC
  5
1FD
100
AcDbEntity
  8
USP-GEO
100
AcDbCircle
 10
60.61325747390766
 20
2.016254922092059
 30
0.0
 40
0.0859
100
AcDbArc
 50
278.9793231614507
 51
5.487469317023279
  0
LWPOLYLINE
  5
1FE
100
AcDbEntity
  8
USP-GEO
100
AcDbPolyline
 90
        2
 70
   128
 43
0.0
 10
60.52839165750172
 20
2.07645838808725
 10
60.52839165750172
 20
2.02707768920289
  0
LWPOLYLINE
  5
1FF
100
AcDbEntity
  8
USP-GEO
100
AcDbPolyline
 90
        2
 70
   128
 43
0.0
 10
60.72591445303916
 20
2.07645838808725
 10
60.72591445303916
 20
2.02707768920289
  0
ARC
  5
200
100
AcDbEntity
  8
USP-GEO
100
AcDbCircle
 10
59.11325747390767
 20
2.516254922092059
 30
0.0
 40
0.0859
100
AcDbArc
 50
3.337671914102626
 51
100.613915029847
  0
ARC
  5
201
100
AcDbEntity
  8
USP-GEO
100
AcDbCircle
 10
59.11325747390767
 20
2.516254922092059
 30
0.0
 40
0.0859
100
AcDbArc
 50
100.613915029847
 51
176.1477348014201
  0
ARC
  5
202
100
AcDbEntity
  8
USP-GEO
100
AcDbCircle
 10
59.11325747390767
 20
2.438054922092049
 30
0.0
 40
0.0859
100
AcDbArc
 50
193.0459658398564
 51
253.47683840806
  0
ARC
  5
203
100
AcDbEntity
  8
USP-GEO
100
AcDbCircle
 10
59.11325747390767
 20
2.438054922092049
 30
0.0
 40
0.0859
100
AcDbArc
 50
253.47683840806
 51
348.6523299353687
  0
LWPOLYLINE
  5
204
100
AcDbEntity
  8
USP-GEO
100
AcDbPolyline
 90
        2
 70
   128
 43
0.0
 10
59.04450165602677
 20
2.520884678046471
 10
59.04450165602677
 20
2.422123280277755
  0
LWPOLYLINE
  5
205
100
AcDbEntity
  8
USP-GEO
100
AcDbPolyline
 90
        2
 70
   128
 43
0.0
 10
59.19264375267984
 20
2.520884678046471
 10
59.19264375267984
 20
2.422123280277755
  0
ARC
  5
206
100
AcDbEntity
  8
USP-GEO
100
AcDbCircle
 10
62.11325747390767
 20
2.516254922092059
 30
0.0
 40
0.0859
100
AcDbArc
 50
2.81736217801995
 51
92.59363315267194
  0
ARC
  5
207
100
AcDbEntity
  8
USP-GEO
100
AcDbCircle
 10
62.11325747390767
 20
2.516254922092059
 30
0.0
 40
0.0859
100
AcDbArc
 50
92.59363315267194
 51
177.437392260784
  0
ARC
  5
208
100
AcDbEntity
  8
USP-GEO
100
AcDbCircle
 10
62.11325747390767
 20
2.438054922092064
 30
0.0
 40
0.0859
100
AcDbArc
 50
188.7553870401392
 51
265.8984243736857
  0
ARC
  5
209
100
AcDbEntity
  8
USP-GEO
100
AcDbCircle
 10
62.11325747390767
 20
2.438054922092064
 30
0.0
 40
0.0859
100
AcDbArc
 50
265.8984243736857
 51
350.3884260784677
  0
LWPOLYLINE
  5
20A
100
AcDbEntity
  8
USP-GEO
100
AcDbPolyline
 90
        2
 70
   128
 43
0.0
 10
62.00981262403246
 20
2.520884678046471
 10
62.00981262403246
 20
2.422123280277755
  0
LWPOLYLINE
  5
20B
100
AcDbEntity
  8
USP-GEO
100
AcDbPolyline
 90
        2
 70
   128
 43
0.0
 10
62.20733541956989
 20
2.520884678046471
 10
62.20733541956989
 20
2.422123280277755
  0
LWPOLYLINE
  5
20C
100
AcDbEntity
  8
USP-GEO
100
AcDbPolyline
 90
        2
 70
   128
 43
0.0
 10
77.72275100903517
 20
2.767788172468261
 10
77.72275100903517
 20
0.2469034944217867
  0
ARC
  5
20D
100
AcDbEntity
  8
USP-GEO
100
AcDbCircle
 10
63.61325747390766
 20
0.5162549220920596
 30
0.0
 40
0.0859
100
AcDbArc
 50
159.003249726837
 51
291.7021786876999
  0
ARC
  5
20E
100
AcDbEntity
  8
USP-GEO
100
AcDbCircle
 10
63.61325747390767
 20
0.5944549220920692
 30
0.0
 40
0.0859
100
AcDbArc
 50
358.6139248496754
 51
73.55895491477586
  0
ARC
  5
20F
100
AcDbEntity
  8
USP-GEO
100
AcDbCircle
 10
63.61325747390766
 20
0.5944549220920692
 30
0.0
 40
0.0859
100
AcDbArc
 50
73.55895491476811
 51
181.5399473005904
  0
LWPOLYLINE
  5
210
100
AcDbEntity
  8
USP-GEO
100
AcDbPolyline
 90
        2
 70
   128
 43
0.0
 10
63.54308332439178
 20
0.5925683866122924
 10
63.54308332439178
 20
0.5431876877279365
  0
LWPOLYLINE
  5
211
100
AcDbEntity
  8
USP-GEO
100
AcDbPolyline
 90
        2
 70
   128
 43
0.0
 10
63.69122542104484
 20
0.5925683866122924
 10
63.69122542104484
 20
0.5431876877279365
  0
ARC
  5
212
100
AcDbEntity
  8
USP-GEO
100
AcDbCircle
 10
63.61325747390766
 20
0.5162549220920596
 30
0.0
 40
0.0859
100
AcDbArc
 50
291.7021786876999
 51
19.05664350711309
  0
ARC
  5
213
100
AcDbEntity
  8
USP-GEO
100
AcDbCircle
 10
66.61325747390765
 20
0.5162549220920738
 30
0.0
 40
0.0859
100
AcDbArc
 50
155.0735152167709
 51
263.1954597464285
  0
ARC
  5
214
100
AcDbEntity
  8
USP-GEO
100
AcDbCircle
 10
66.61325747390765
 20
0.5162549220920738
 30
0.0
 40
0.0859
100
AcDbArc
 50
263.1954597464285
 51
16.62670912682592
  0
ARC
  5
215
100
AcDbEntity
  8
USP-GEO
100
AcDbCircle
 10
66.61325747390765
 20
0.5944549220920692
 30
0.0
 40
0.0859
100
AcDbArc
 50
95.05597039446847
 51
181.8645303346547
  0
ARC
  5
216
100
AcDbEntity
  8
USP-GEO
100
AcDbCircle
 10
66.61325747390766
 20
0.5944549220920692
 30
0.0
 40
0.0859
100
AcDbArc
 50
358.8017067652143
 51
95.0559703944768
  0
LWPOLYLINE
  5
217
100
AcDbEntity
  8
USP-GEO
100
AcDbPolyline
 90
        2
 70
   128
 43
0.0
 10
66.7034480529907
 20
0.5925683866122924
 10
66.7034480529907
 20
0.5431876877279365
  0
LWPOLYLINE
  5
218
100
AcDbEntity
  8
USP-GEO
100
AcDbPolyline
 90
        2
 70
   128
 43
0.0
 10
66.5553059563376
 20
0.5925683866122924
 10
66.5553059563376
 20
0.5431876877279365
  0
LWPOLYLINE
  5
219
100
AcDbEntity
  8
USP-GEO
100
AcDbPolyline
 90
        2
 70
   128
 43
0.0
 10
65.02450429092252
 20
1.036994676571513
 10
65.02450429092252
 20
0.938233278802798
  0
LWPOLYLINE
  5
21A
100
AcDbEntity
  8
USP-GEO
100
AcDbPolyline
 90
        2
 70
   128
 43
0.0
 10
65.22202708645995
 20
1.036994676571513
 10
65.22202708645995
 20
0.938233278802798
  0
ARC
  5
21B
100
AcDbEntity
  8
USP-GEO
100
AcDbCircle
 10
65.11325747390767
 20
0.9380549220920642
 30
0.0
 40
0.0859
100
AcDbArc
 50
179.884859644771
 51
275.796844488211
  0
ARC
  5
21C
100
AcDbEntity
  8
USP-GEO
100
AcDbCircle
 10
65.11325747390767
 20
0.9380549220920642
 30
0.0
 40
0.0859
100
AcDbArc
 50
275.796844488211
 51
0.0939515860539591
  0
ARC
  5
21D
100
AcDbEntity
  8
USP-GEO
100
AcDbCircle
 10
65.11325747390767
 20
1.016254922092059
 30
0.0
 40
0.0859
100
AcDbArc
 50
81.87709890840942
 51
166.8471968469564
  0
ARC
  5
21E
100
AcDbEntity
  8
USP-GEO
100
AcDbCircle
 10
65.11325747390767
 20
1.016254922092059
 30
0.0
 40
0.0859
100
AcDbArc
 50
10.79534480725215
 51
81.87709890840942
  0
LWPOLYLINE
  5
21F
100
AcDbEntity
  8
USP-GEO
100
AcDbPolyline
 90
        2
 70
   128
 43
0.0
 10
68.03919595781258
 20
1.036994676571513
 10
68.03919595781258
 20
0.938233278802798
  0
LWPOLYLINE
  5
220
100
AcDbEntity
  8
USP-GEO
100
AcDbPolyline
 90
        2
 70
   128
 43
0.0
 10
68.18733805446564
 20
1.036994676571513
 10
68.18733805446564
 20
0.938233278802798
  0
ARC
  5
221
100
AcDbEntity
  8
USP-GEO
100
AcDbCircle
 10
68.11325747390765
 20
0.9380549220920784
 30
0.0
 40
0.0859
100
AcDbArc
 50
284.0658443357238
 51
0.1379452880902338
  0
ARC
  5
222
100
AcDbEntity
  8
USP-GEO
100
AcDbCircle
 10
68.11325747390765
 20
0.9380549220920784
 30
0.0
 40
0.0859
100
AcDbArc
 50
179.8620192030139
 51
284.0658443357238
  0
ARC
  5
223
100
AcDbEntity
  8
USP-GEO
100
AcDbCircle
 10
68.11325747390765
 20
1.016254922092073
 30
0.0
 40
0.0859
100
AcDbArc
 50
70.59522258449354
 51
164.3559386032672
  0
ARC
  5
224
100
AcDbEntity
  8
USP-GEO
100
AcDbCircle
 10
68.11325747390765
 20
1.016254922092073
 30
0.0
 40
0.0859
100
AcDbArc
 50
15.64023249354241
 51
70.59522258449354
  0
ARC
  5
225
100
AcDbEntity
  8
USP-GEO
100
AcDbCircle
 10
69.61325747390763
 20
0.5162549220920738
 30
0.0
 40
0.0859
100
AcDbArc
 50
163.7896216187178
 51
274.8706702115691
  0
ARC
  5
226
100
AcDbEntity
  8
USP-GEO
100
AcDbCircle
 10
69.61325747390763
 20
0.5162549220920738
 30
0.0
 40
0.0859
100
AcDbArc
 50
274.8706702115691
 51
14.401835707453
  0
ARC
  5
227
100
AcDbEntity
  8
USP-GEO
100
AcDbCircle
 10
69.61325747390763
 20
0.5944549220920834
 30
0.0
 40
0.0859
100
AcDbArc
 50
86.38468431261774
 51
181.1666120680759
  0
ARC
  5
228
100
AcDbEntity
  8
USP-GEO
100
AcDbCircle
 10
69.61325747390765
 20
0.5944549220920834
 30
0.0
 40
0.0859
100
AcDbArc
 50
358.9695218194057
 51
86.38468431262612
  0
LWPOLYLINE
  5
229
100
AcDbEntity
  8
USP-GEO
100
AcDbPolyline
 90
        2
 70
   128
 43
0.0
 10
69.5206169243433
 20
0.5925683866122924
 10
69.5206169243433
 20
0.5431876877279365
  0
LWPOLYLINE
  5
22A
100
AcDbEntity
  8
USP-GEO
100
AcDbPolyline
 90
        2
 70
   128
 43
0.0
 10
69.71813971988075
 20
0.5925683866122924
 10
69.71813971988075
 20
0.5431876877279365
  0
ARC
  5
22B
100
AcDbEntity
  8
USP-GEO
100
AcDbCircle
 10
72.61325747390762
 20
0.516254922092088
 30
0.0
 40
0.0859
100
AcDbArc
 50
160.9390320036439
 51
286.1590696969258
  0
ARC
  5
22C
100
AcDbEntity
  8
USP-GEO
100
AcDbCircle
 10
72.61325747390762
 20
0.5944549220920834
 30
0.0
 40
0.0859
100
AcDbArc
 50
77.87492781386731
 51
181.3864140194125
  0
ARC
  5
22D
100
AcDbEntity
  8
USP-GEO
100
AcDbCircle
 10
72.61325747390763
 20
0.5944549220920834
 30
0.0
 40
0.0859
100
AcDbArc
 50
358.4604707474646
 51
77.87492781387533
  0
LWPOLYLINE
  5
22E
100
AcDbEntity
  8
USP-GEO
100
AcDbPolyline
 90
        2
 70
   128
 43
0.0
 10
72.68345068788642
 20
0.5925683866122924
 10
72.68345068788642
 20
0.5431876877279365
  0
LWPOLYLINE
  5
22F
100
AcDbEntity
  8
USP-GEO
100
AcDbPolyline
 90
        2
 70
   128
 43
0.0
 10
72.53530859123336
 20
0.5925683866122924
 10
72.53530859123336
 20
0.5431876877279365
  0
ARC
  5
230
100
AcDbEntity
  8
USP-GEO
100
AcDbCircle
 10
72.61325747390762
 20
0.516254922092088
 30
0.0
 40
0.0859
100
AcDbArc
 50
286.1590696969258
 51
20.99154440215611
  0
LWPOLYLINE
  5
231
100
AcDbEntity
  8
USP-GEO
100
AcDbPolyline
 90
        2
 70
   128
 43
0.0
 10
71.05141858975841
 20
1.036994676571513
 10
71.05141858975841
 20
0.938233278802798
  0
LWPOLYLINE
  5
232
100
AcDbEntity
  8
USP-GEO
100
AcDbPolyline
 90
        2
 70
   128
 43
0.0
 10
71.19956068641148
 20
1.036994676571513
 10
71.19956068641148
 20
0.938233278802798
  0
ARC
  5
233
100
AcDbEntity
  8
USP-GEO
100
AcDbCircle
 10
71.11325747390764
 20
0.9380549220920784
 30
0.0
 40
0.0859
100
AcDbArc
 50
262.7975681927168
 51
0.1184089436211263
  0
ARC
  5
234
100
AcDbEntity
  8
USP-GEO
100
AcDbCircle
 10
71.11325747390764
 20
0.9380549220920784
 30
0.0
 40
0.0859
100
AcDbArc
 50
179.8347470434453
 51
262.7975681927168
  0
ARC
  5
235
100
AcDbEntity
  8
USP-GEO
100
AcDbCircle
 10
71.11325747390764
 20
1.016254922092073
 30
0.0
 40
0.0859
100
AcDbArc
 50
100.0745202188254
 51
161.4593860804341
  0
ARC
  5
236
100
AcDbEntity
  8
USP-GEO
100
AcDbCircle
 10
71.11325747390764
 20
1.016254922092073
 30
0.0
 40
0.0859
100
AcDbArc
 50
13.51267046996299
 51
100.0745202188254
  0
LWPOLYLINE
  5
237
100
AcDbEntity
  8
USP-GEO
100
AcDbPolyline
 90
        2
 70
   128
 43
0.0
 10
74.01672955776411
 20
1.036994676571513
 10
74.01672955776411
 20
0.938233278802798
  0
LWPOLYLINE
  5
238
100
AcDbEntity
  8
USP-GEO
100
AcDbPolyline
 90
        2
 70
   128
 43
0.0
 10
74.21425235330153
 20
1.036994676571513
 10
74.21425235330153
 20
0.938233278802798
  0
ARC
  5
239
100
AcDbEntity
  8
USP-GEO
100
AcDbCircle
 10
74.11325747390762
 20
0.9380549220920926
 30
0.0
 40
0.0859
100
AcDbArc
 50
179.8941334740251
 51
271.2978619968796
  0
ARC
  5
23A
100
AcDbEntity
  8
USP-GEO
100
AcDbCircle
 10
74.11325747390762
 20
0.9380549220920926
 30
0.0
 40
0.0859
100
AcDbArc
 50
271.2978619968796
 51
0.1011841016991957
  0
ARC
  5
23B
100
AcDbEntity
  8
USP-GEO
100
AcDbCircle
 10
74.11325747390762
 20
1.016254922092088
 30
0.0
 40
0.0859
100
AcDbArc
 50
88.17562759883987
 51
167.8739195810058
  0
ARC
  5
23C
100
AcDbEntity
  8
USP-GEO
100
AcDbCircle
 10
74.11325747390762
 20
1.016254922092088
 30
0.0
 40
0.0859
100
AcDbArc
 50
11.60461788599103
 51
88.17562759883987
  0
LWPOLYLINE
  5
23D
100
AcDbEntity
  8
USP-GEO
100
AcDbPolyline
 90
        2
 70
   128
 43
0.0
 10
77.72275100903517
 20
0.2469034944217867
 10
77.47584751461338
 20
0.0
  0
ARC
  5
23E
100
AcDbEntity
  8
USP-GEO
100
AcDbCircle
 10
75.61325747390762
 20
0.516254922092088
 30
0.0
 40
0.0859
100
AcDbArc
 50
157.7175638694258
 51
257.1799106611637
  0
ARC
  5
23F
100
AcDbEntity
  8
USP-GEO
100
AcDbCircle
 10
75.61325747390762
 20
0.516254922092088
 30
0.0
 40
0.0859
100
AcDbArc
 50
257.1799106611637
 51
18.09693162957768
  0
ARC
  5
240
100
AcDbEntity
  8
USP-GEO
100
AcDbCircle
 10
75.61325747390762
 20
0.5944549220920976
 30
0.0
 40
0.0859
100
AcDbArc
 50
99.57722610828625
 51
181.6441049142964
  0
ARC
  5
241
100
AcDbEntity
  8
USP-GEO
100
AcDbCircle
 10
75.61325747390762
 20
0.5944549220920976
 30
0.0
 40
0.0859
100
AcDbArc
 50
358.6887030425519
 51
99.57722610828625
  0
LWPOLYLINE
  5
242
100
AcDbEntity
  8
USP-GEO
100
AcDbPolyline
 90
        2
 70
   128
 43
0.0
 10
75.69567331983228
 20
0.5925683866122924
 10
75.69567331983228
 20
0.5431876877279365
  0
LWPOLYLINE
  5
243
100
AcDbEntity
  8
USP-GEO
100
AcDbPolyline
 90
        2
 70
   128
 43
0.0
 10
75.54753122317919
 20
0.5925683866122924
 10
75.54753122317919
 20
0.5431876877279365
  0
LWPOLYLINE
  5
244
100
AcDbEntity
  8
USP-GEO
100
AcDbPolyline
 90
        2
 70
   128
 43
0.0
 10
77.03142122465414
 20
1.036994676571513
 10
77.03142122465414
 20
0.938233278802798
  0
LWPOLYLINE
  5
245
100
AcDbEntity
  8
USP-GEO
100
AcDbPolyline
 90
        2
 70
   128
 43
0.0
 10
77.22894402019159
 20
1.036994676571513
 10
77.22894402019159
 20
0.938233278802798
  0
ARC
  5
246
100
AcDbEntity
  8
USP-GEO
100
AcDbCircle
 10
77.11325747390763
 20
0.9380549220920926
 30
0.0
 40
0.0859
100
AcDbArc
 50
279.7418051041444
 51
0.0883342013647907
  0
ARC
  5
247
100
AcDbEntity
  8
USP-GEO
100
AcDbCircle
 10
77.11325747390763
 20
0.9380549220920926
 30
0.0
 40
0.0859
100
AcDbArc
 50
179.8751278231281
 51
279.7418051041444
  0
ARC
  5
248
100
AcDbEntity
  8
USP-GEO
100
AcDbCircle
 10
77.11325747390763
 20
1.016254922092088
 30
0.0
 40
0.0859
100
AcDbArc
 50
76.42993481060499
 51
165.7789461304307
  0
ARC
  5
249
100
AcDbEntity
  8
USP-GEO
100
AcDbCircle
 10
77.11325747390763
 20
1.016254922092088
 30
0.0
 40
0.0859
100
AcDbArc
 50
10.16375630323659
 51
76.42993481060499
  0
ARC
  5
24A
100
AcDbEntity
  8
USP-GEO
100
AcDbCircle
 10
63.61325747390766
 20
2.094454922092054
 30
0.0
 40
0.0859
100
AcDbArc
 50
70.50825192978487
 51
194.3838172635995
  0
ARC
  5
24B
100
AcDbEntity
  8
USP-GEO
100
AcDbCircle
 10
63.61325747390767
 20
2.094454922092054
 30
0.0
 40
0.0859
100
AcDbArc
 50
347.0026406772582
 51
70.50825192979385
  0
ARC
  5
24C
100
AcDbEntity
  8
USP-GEO
100
AcDbCircle
 10
66.61325747390765
 20
2.094454922092069
 30
0.0
 40
0.0859
100
AcDbArc
 50
96.05759305883248
 51
197.2519022056663
  0
ARC
  5
24D
100
AcDbEntity
  8
USP-GEO
100
AcDbCircle
 10
66.61325747390766
 20
2.094454922092069
 30
0.0
 40
0.0859
100
AcDbArc
 50
348.7154696484082
 51
96.05759305884246
  0
ARC
  5
24E
100
AcDbEntity
  8
USP-GEO
100
AcDbCircle
 10
63.61325747390766
 20
2.016254922092059
 30
0.0
 40
0.0859
100
AcDbArc
 50
171.2325078135742
 51
288.0084004959504
  0
ARC
  5
24F
100
AcDbEntity
  8
USP-GEO
100
AcDbCircle
 10
63.61325747390766
 20
2.016254922092059
 30
0.0
 40
0.0859
100
AcDbArc
 50
288.0084004959504
 51
7.902754416983485
  0
LWPOLYLINE
  5
250
100
AcDbEntity
  8
USP-GEO
100
AcDbPolyline
 90
        2
 70
   128
 43
0.0
 10
63.54308332439178
 20
2.07645838808725
 10
63.54308332439178
 20
2.02707768920289
  0
LWPOLYLINE
  5
251
100
AcDbEntity
  8
USP-GEO
100
AcDbPolyline
 90
        2
 70
   128
 43
0.0
 10
63.69122542104484
 20
2.07645838808725
 10
63.69122542104484
 20
2.02707768920289
  0
ARC
  5
252
100
AcDbEntity
  8
USP-GEO
100
AcDbCircle
 10
66.61325747390765
 20
2.016254922092073
 30
0.0
 40
0.0859
100
AcDbArc
 50
169.4215559030116
 51
264.4333268151991
  0
ARC
  5
253
100
AcDbEntity
  8
USP-GEO
100
AcDbCircle
 10
66.61325747390765
 20
2.016254922092073
 30
0.0
 40
0.0859
100
AcDbArc
 50
264.4333268151991
 51
6.84270929701963
  0
LWPOLYLINE
  5
254
100
AcDbEntity
  8
USP-GEO
100
AcDbPolyline
 90
        2
 70
   128
 43
0.0
 10
66.7034480529907
 20
2.07645838808725
 10
66.7034480529907
 20
2.02707768920289
  0
LWPOLYLINE
  5
255
100
AcDbEntity
  8
USP-GEO
100
AcDbPolyline
 90
        2
 70
   128
 43
0.0
 10
66.5553059563376
 20
2.07645838808725
 10
66.5553059563376
 20
2.02707768920289
  0
ARC
  5
256
100
AcDbEntity
  8
USP-GEO
100
AcDbCircle
 10
65.11325747390767
 20
2.516254922092059
 30
0.0
 40
0.0859
100
AcDbArc
 50
84.47102181555102
 51
177.013906963403
  0
ARC
  5
257
100
AcDbEntity
  8
USP-GEO
100
AcDbCircle
 10
65.11325747390767
 20
2.516254922092059
 30
0.0
 40
0.0859
100
AcDbArc
 50
2.437311716031735
 51
84.47102181555102
  0
ARC
  5
258
100
AcDbEntity
  8
USP-GEO
100
AcDbCircle
 10
65.11325747390767
 20
2.438054922092064
 30
0.0
 40
0.0859
100
AcDbArc
 50
190.1765010780924
 51
278.7120192955382
  0
ARC
  5
259
100
AcDbEntity
  8
USP-GEO
100
AcDbCircle
 10
65.11325747390767
 20
2.438054922092064
 30
0.0
 40
0.0859
100
AcDbArc
 50
278.7120192955382
 51
351.6670588193619
  0
LWPOLYLINE
  5
25A
100
AcDbEntity
  8
USP-GEO
100
AcDbPolyline
 90
        2
 70
   128
 43
0.0
 10
65.02450429092252
 20
2.520884678046471
 10
65.02450429092252
 20
2.422123280277755
  0
LWPOLYLINE
  5
25B
100
AcDbEntity
  8
USP-GEO
100
AcDbPolyline
 90
        2
 70
   128
 43
0.0
 10
65.22202708645995
 20
2.520884678046471
 10
65.22202708645995
 20
2.422123280277755
  0
ARC
  5
25C
100
AcDbEntity
  8
USP-GEO
100
AcDbCircle
 10
68.11325747390765
 20
2.516254922092073
 30
0.0
 40
0.0859
100
AcDbArc
 50
3.576118403959352
 51
76.56401328778786
  0
ARC
  5
25D
100
AcDbEntity
  8
USP-GEO
100
AcDbCircle
 10
68.11325747390765
 20
2.516254922092073
 30
0.0
 40
0.0859
100
AcDbArc
 50
76.56401328778786
 51
176.4229634432839
  0
ARC
  5
25E
100
AcDbEntity
  8
USP-GEO
100
AcDbCircle
 10
68.11325747390765
 20
2.438054922092078
 30
0.0
 40
0.0859
100
AcDbArc
 50
192.1401030729573
 51
290.7156620352614
  0
ARC
  5
25F
100
AcDbEntity
  8
USP-GEO
100
AcDbCircle
 10
68.11325747390765
 20
2.438054922092078
 30
0.0
 40
0.0859
100
AcDbArc
 50
290.7156620352614
 51
347.8629285160735
  0
LWPOLYLINE
  5
260
100
AcDbEntity
  8
USP-GEO
100
AcDbPolyline
 90
        2
 70
   128
 43
0.0
 10
68.03919595781258
 20
2.520884678046471
 10
68.03919595781258
 20
2.422123280277755
  0
LWPOLYLINE
  5
261
100
AcDbEntity
  8
USP-GEO
100
AcDbPolyline
 90
        2
 70
   128
 43
0.0
 10
68.18733805446564
 20
2.520884678046471
 10
68.18733805446564
 20
2.422123280277755
  0
ARC
  5
262
100
AcDbEntity
  8
USP-GEO
100
AcDbCircle
 10
69.61325747390763
 20
2.094454922092069
 30
0.0
 40
0.0859
100
AcDbArc
 50
85.66606514519557
 51
190.9934653943191
  0
ARC
  5
263
100
AcDbEntity
  8
USP-GEO
100
AcDbCircle
 10
69.61325747390765
 20
2.094454922092069
 30
0.0
 40
0.0859
100
AcDbArc
 50
350.2635483148067
 51
85.66606514520559
  0
ARC
  5
264
100
AcDbEntity
  8
USP-GEO
100
AcDbCircle
 10
72.61325747390762
 20
2.094454922092083
 30
0.0
 40
0.0859
100
AcDbArc
 50
75.54968149659226
 51
193.0004301954939
  0
ARC
  5
265
100
AcDbEntity
  8
USP-GEO
100
AcDbCircle
 10
72.61325747390763
 20
2.094454922092083
 30
0.0
 40
0.0859
100
AcDbArc
 50
345.6199273572345
 51
75.54968149660173
  0
ARC
  5
266
100
AcDbEntity
  8
USP-GEO
100
AcDbCircle
 10
69.61325747390763
 20
2.016254922092073
 30
0.0
 40
0.0859
100
AcDbArc
 50
173.3366038060437
 51
273.9815729179637
  0
ARC
  5
267
100
AcDbEntity
  8
USP-GEO
100
AcDbCircle
 10
69.61325747390763
 20
2.016254922092073
 30
0.0
 40
0.0859
100
AcDbArc
 50
273.9815729179637
 51
5.891482079588911
  0
LWPOLYLINE
  5
268
100
AcDbEntity
  8
USP-GEO
100
AcDbPolyline
 90
        2
 70
   128
 43
0.0
 10
69.5206169243433
 20
2.07645838808725
 10
69.5206169243433
 20
2.02707768920289
  0
LWPOLYLINE
  5
269
100
AcDbEntity
  8
USP-GEO
100
AcDbPolyline
 90
        2
 70
   128
 43
0.0
 10
69.71813971988075
 20
2.07645838808725
 10
69.71813971988075
 20
2.02707768920289
  0
ARC
  5
26A
100
AcDbEntity
  8
USP-GEO
100
AcDbCircle
 10
72.61325747390762
 20
2.016254922092088
 30
0.0
 40
0.0859
100
AcDbArc
 50
172.09533718491
 51
283.3152427300247
  0
ARC
  5
26B
100
AcDbEntity
  8
USP-GEO
100
AcDbCircle
 10
72.61325747390762
 20
2.016254922092088
 30
0.0
 40
0.0859
100
AcDbArc
 50
283.3152427300247
 51
8.765147921058726
  0
LWPOLYLINE
  5
26C
100
AcDbEntity
  8
USP-GEO
100
AcDbPolyline
 90
        2
 70
   128
 43
0.0
 10
72.68345068788642
 20
2.07645838808725
 10
72.68345068788642
 20
2.02707768920289
  0
LWPOLYLINE
  5
26D
100
AcDbEntity
  8
USP-GEO
100
AcDbPolyline
 90
        2
 70
   128
 43
0.0
 10
72.53530859123336
 20
2.07645838808725
 10
72.53530859123336
 20
2.02707768920289
  0
ARC
  5
26E
100
AcDbEntity
  8
USP-GEO
100
AcDbCircle
 10
71.11325747390764
 20
2.516254922092073
 30
0.0
 40
0.0859
100
AcDbArc
 50
3.070702072872405
 51
96.87076782895246
  0
ARC
  5
26F
100
AcDbEntity
  8
USP-GEO
100
AcDbCircle
 10
71.11325747390764
 20
2.516254922092073
 30
0.0
 40
0.0859
100
AcDbArc
 50
96.87076782895246
 51
175.7183652948255
  0
ARC
  5
270
100
AcDbEntity
  8
USP-GEO
100
AcDbCircle
 10
71.11325747390764
 20
2.438054922092078
 30
0.0
 40
0.0859
100
AcDbArc
 50
194.4470284618275
 51
259.2006856768089
  0
ARC
  5
271
100
AcDbEntity
  8
USP-GEO
100
AcDbCircle
 10
71.11325747390764
 20
2.438054922092078
 30
0.0
 40
0.0859
100
AcDbArc
 50
259.2006856768089
 51
349.5408991685654
  0
LWPOLYLINE
  5
272
100
AcDbEntity
  8
USP-GEO
100
AcDbPolyline
 90
        2
 70
   128
 43
0.0
 10
71.05141858975841
 20
2.520884678046471
 10
71.05141858975841
 20
2.422123280277755
  0
LWPOLYLINE
  5
273
100
AcDbEntity
  8
USP-GEO
100
AcDbPolyline
 90
        2
 70
   128
 43
0.0
 10
71.19956068641148
 20
2.520884678046471
 10
71.19956068641148
 20
2.422123280277755
  0
ARC
  5
274
100
AcDbEntity
  8
USP-GEO
100
AcDbCircle
 10
74.11325747390762
 20
2.516254922092088
 30
0.0
 40
0.0859
100
AcDbArc
 50
88.76247468173419
 51
177.2540342896312
  0
ARC
  5
275
100
AcDbEntity
  8
USP-GEO
100
AcDbCircle
 10
74.11325747390762
 20
2.516254922092088
 30
0.0
 40
0.0859
100
AcDbArc
 50
2.624686504059243
 51
88.76247468173419
  0
ARC
  5
276
100
AcDbEntity
  8
USP-GEO
100
AcDbCircle
 10
74.11325747390762
 20
2.438054922092092
 30
0.0
 40
0.0859
100
AcDbArc
 50
189.3720059360758
 51
271.9585765985192
  0
ARC
  5
277
100
AcDbEntity
  8
USP-GEO
100
AcDbCircle
 10
74.11325747390762
 20
2.438054922092092
 30
0.0
 40
0.0859
100
AcDbArc
 50
271.9585765985192
 51
351.0356309473649
  0
LWPOLYLINE
  5
278
100
AcDbEntity
  8
USP-GEO
100
AcDbPolyline
 90
        2
 70
   128
 43
0.0
 10
74.01672955776411
 20
2.520884678046471
 10
74.01672955776411
 20
2.422123280277755
  0
LWPOLYLINE
  5
279
100
AcDbEntity
  8
USP-GEO
100
AcDbPolyline
 90
        2
 70
   128
 43
0.0
 10
74.21425235330153
 20
2.520884678046471
 10
74.21425235330153
 20
2.422123280277755
  0
LWPOLYLINE
  5
27A
100
AcDbEntity
  8
USP-GEO
100
AcDbPolyline
 90
        2
 70
   128
 43
0.0
 10
77.47584751461338
 20
3.014691666890051
 10
77.72275100903517
 20
2.767788172468261
  0
ARC
  5
27B
100
AcDbEntity
  8
USP-GEO
100
AcDbCircle
 10
75.61325747390762
 20
2.094454922092083
 30
0.0
 40
0.0859
100
AcDbArc
 50
101.4412359135083
 51
195.3128674963162
  0
ARC
  5
27C
100
AcDbEntity
  8
USP-GEO
100
AcDbCircle
 10
75.61325747390762
 20
2.094454922092083
 30
0.0
 40
0.0859
100
AcDbArc
 50
347.6821001056264
 51
101.4412359135083
  0
ARC
  5
27D
100
AcDbEntity
  8
USP-GEO
100
AcDbCircle
 10
75.61325747390762
 20
2.016254922092088
 30
0.0
 40
0.0859
100
AcDbArc
 50
170.6493402969139
 51
259.4703405976437
  0
ARC
  5
27E
100
AcDbEntity
  8
USP-GEO
100
AcDbCircle
 10
75.61325747390762
 20
2.016254922092088
 30
0.0
 40
0.0859
100
AcDbArc
 50
259.4703405976437
 51
7.481217167787431
  0
LWPOLYLINE
  5
27F
100
AcDbEntity
  8
USP-GEO
100
AcDbPolyline
 90
        2
 70
   128
 43
0.0
 10
75.69567331983228
 20
2.07645838808725
 10
75.69567331983228
 20
2.02707768920289
  0
LWPOLYLINE
  5
280
100
AcDbEntity
  8
USP-GEO
100
AcDbPolyline
 90
        2
 70
   128
 43
0.0
 10
75.54753122317919
 20
2.07645838808725
 10
75.54753122317919
 20
2.02707768920289
  0
ARC
  5
281
100
AcDbEntity
  8
USP-GEO
100
AcDbCircle
 10
77.11325747390763
 20
2.516254922092088
 30
0.0
 40
0.0859
100
AcDbArc
 50
2.291744421262623
 51
80.70313143999959
  0
ARC
  5
282
100
AcDbEntity
  8
USP-GEO
100
AcDbCircle
 10
77.11325747390763
 20
2.516254922092088
 30
0.0
 40
0.0859
100
AcDbArc
 50
80.70313143999959
 51
176.7620336657644
  0
ARC
  5
283
100
AcDbEntity
  8
USP-GEO
100
AcDbCircle
 10
77.11325747390763
 20
2.438054922092092
 30
0.0
 40
0.0859
100
AcDbArc
 50
191.0163835800119
 51
284.5281414333128
  0
ARC
  5
284
100
AcDbEntity
  8
USP-GEO
100
AcDbCircle
 10
77.11325747390763
 20
2.438054922092092
 30
0.0
 40
0.0859
100
AcDbArc
 50
284.5281414333128
 51
352.1588974524977
  0
LWPOLYLINE
  5
285
100
AcDbEntity
  8
USP-GEO
100
AcDbPolyline
 90
        2
 70
   128
 43
0.0
 10
77.03142122465414
 20
2.520884678046471
 10
77.03142122465414
 20
2.422123280277755
  0
LWPOLYLINE
  5
286
100
AcDbEntity
  8
USP-GEO
100
AcDbPolyline
 90
        2
 70
   128
 43
0.0
 10
77.22894402019159
 20
2.520884678046471
 10
77.22894402019159
 20
2.422123280277755
  0
ENDBLK
  5
289
100
AcDbEntity
  8
0
100
AcDbBlockEnd
  0
ENDSEC
  0
SECTION
  2
ENTITIES
  0
INSERT
  5
3
100
AcDbEntity
  8
USP
100
AcDbBlockReference
  2
MSTC78_F
 10
0.0143832141398324
 20
5.838086098161724
 30
0.0
  0
ENDSEC
  0
SECTION
  2
OBJECTS
  0
DICTIONARY
  5
2A2
102
{ACAD_XDICTIONARY
360
2A3
102
}
100
AcDbDictionary
  3
ACAD_GROUP
350
2A0
  3
ACAD_MLINESTYLE
350
2A1
  0
DICTIONARY
  5
E
100
AcDbDictionary
280
     1
  3
ACAD_XREC_ROUNDTRIP
360
F
  0
DICTIONARY
  5
9
100
AcDbDictionary
280
     1
  3
ACAD_XREC_ROUNDTRIP
360
A
  0
DICTIONARY
  5
28A
100
AcDbDictionary
280
     1
  3
ACAD_LAYOUTSELFREF
360
28B
  0
DICTIONARY
  5
28F
100
AcDbDictionary
280
     1
  3
ACAD_LAYOUTSELFREF
360
290
  0
DICTIONARY
  5
2A3
100
AcDbDictionary
280
     1
  3
ACAD_XREC_ROUNDTRIP
360
2A4
  0
DICTIONARY
  5
2A0
102
{ACAD_REACTORS
330
2A2
102
}
100
AcDbDictionary
  0
DICTIONARY
  5
2A1
102
{ACAD_REACTORS
330
2A2
102
}
100
AcDbDictionary
  3
STANDARD
350
2A5
  0
XRECORD
  5
F
102
{ACAD_REACTORS
330
E
102
}
100
AcDbXrecord
102
EXTNAMES
  1
USP-GEO
  2
USP-Geo
  0
XRECORD
  5
A
102
{ACAD_REACTORS
330
9
102
}
100
AcDbXrecord
102
EXTNAMES
  1
USP-TXT
  2
USP-Txt
  0
XRECORD
  5
28B
102
{ACAD_REACTORS
330
28A
102
}
100
AcDbXrecord
340
18
  0
XRECORD
  5
290
102
{ACAD_REACTORS
330
28F
102
}
100
AcDbXrecord
340
15
  0
XRECORD
  5
2A4
102
{ACAD_REACTORS
330
2A3
102
}
100
AcDbXrecord
102
EXTNAMES
  1
ACDBVARIABLEDICTIONARY
  2
AcDbVariableDictionary
  0
MLINESTYLE
  5
2A5
102
{ACAD_REACTORS
330
2A1
102
}
100
AcDbMlineStyle
  2
STANDARD
 70
     0
  3

 62
     0
 51
90.0
 52
90.0
 71
     2
 49
0.5
 62
   256
  6
BYLAYER
 49
-0.5
 62
   256
  6
BYLAYER
  0
ENDSEC
  0
EOF
