  0
SECTION
  2
HEADER
  9
$ACADVER
  1
AC1014
  9
$ACADMAINTVER
 70
     9
  9
$DWGCODEPAGE
  3
ANSI_1252
  9
$INSBASE
 10
0.0
 20
0.0
 30
0.0
  9
$EXTMIN
 10
0.0115505461916584
 20
0.0001249600513837
 30
0.0
  9
$EXTMAX
 10
65.7400279452025
 20
7.806994369075479
 30
4.196879291630274
  9
$LIMMIN
 10
0.0
 20
0.0
  9
$LIMMAX
 10
12.0
 20
9.0
  9
$ORTHOMODE
 70
     1
  9
$REGENMODE
 70
     1
  9
$FILLMODE
 70
     1
  9
$QTEXTMODE
 70
     0
  9
$MIRRTEXT
 70
     0
  9
$DRAGMODE
 70
     2
  9
$LTSCALE
 40
1.5
  9
$OSMODE
 70
     0
  9
$ATTMODE
 70
     1
  9
$TEXTSIZE
 40
0.75
  9
$TRACEWID
 40
0.05
  9
$TEXTSTYLE
  7
STANDARD
  9
$CLAYER
  8
USP
  9
$CELTYPE
  6
BYLAYER
  9
$CECOLOR
 62
   256
  9
$CELTSCALE
 40
1.0
  9
$DELOBJ
 70
     1
  9
$DISPSILH
 70
     1
  9
$DIMSCALE
 40
3.0
  9
$DIMASZ
 40
0.125
  9
$DIMEXO
 40
0.0625
  9
$DIMDLI
 40
0.37890625
  9
$DIMRND
 40
0.0
  9
$DIMDLE
 40
0.0
  9
$DIMEXE
 40
0.09375
  9
$DIMTP
 40
0.0
  9
$DIMTM
 40
0.0
  9
$DIMTXT
 40
0.109375
  9
$DIMCEN
 40
0.0
  9
$DIMTSZ
 40
0.0
  9
$DIMTOL
 70
     0
  9
$DIMLIM
 70
     0
  9
$DIMTIH
 70
     1
  9
$DIMTOH
 70
     1
  9
$DIMSE1
 70
     0
  9
$DIMSE2
 70
     0
  9
$DIMTAD
 70
     0
  9
$DIMZIN
 70
     8
  9
$DIMBLK
  1

  9
$DIMASO
 70
     1
  9
$DIMSHO
 70
     1
  9
$DIMPOST
  1

  9
$DIMAPOST
  1

  9
$DIMALT
 70
     0
  9
$DIMALTD
 70
     2
  9
$DIMALTF
 40
25.4
  9
$DIMLFAC
 40
1.0
  9
$DIMTOFL
 70
     0
  9
$DIMTVP
 40
0.0
  9
$DIMTIX
 70
     0
  9
$DIMSOXD
 70
     0
  9
$DIMSAH
 70
     0
  9
$DIMBLK1
  1

  9
$DIMBLK2
  1

  9
$DIMSTYLE
  2
STANDARD
  9
$DIMCLRD
 70
     0
  9
$DIMCLRE
 70
     0
  9
$DIMCLRT
 70
   256
  9
$DIMTFAC
 40
1.0
  9
$DIMGAP
 40
0.08984375
  9
$DIMJUST
 70
     0
  9
$DIMSD1
 70
     0
  9
$DIMSD2
 70
     0
  9
$DIMTOLJ
 70
     1
  9
$DIMTZIN
 70
     0
  9
$DIMALTZ
 70
     0
  9
$DIMALTTZ
 70
     0
  9
$DIMFIT
 70
     3
  9
$DIMUPT
 70
     1
  9
$DIMUNIT
 70
     7
  9
$DIMDEC
 70
     4
  9
$DIMTDEC
 70
     4
  9
$DIMALTU
 70
     2
  9
$DIMALTTD
 70
     2
  9
$DIMTXSTY
  7
STANDARD
  9
$DIMAUNIT
 70
     0
  9
$LUNITS
 70
     5
  9
$LUPREC
 70
     6
  9
$SKETCHINC
 40
0.1
  9
$FILLETRAD
 40
0.0
  9
$AUNITS
 70
     0
  9
$AUPREC
 70
     1
  9
$MENU
  1
CUSTOM
  9
$ELEVATION
 40
0.0
  9
$PELEVATION
 40
0.0
  9
$THICKNESS
 40
0.0
  9
$LIMCHECK
 70
     0
  9
$BLIPMODE
 70
     0
  9
$CHAMFERA
 40
0.0
  9
$CHAMFERB
 40
0.0
  9
$CHAMFERC
 40
0.0
  9
$CHAMFERD
 40
0.0
  9
$SKPOLY
 70
     0
  9
$TDCREATE
 40
2451263.663231366
  9
$TDUPDATE
 40
2452768.666395752
  9
$TDINDWG
 40
0.6218428819
  9
$TDUSRTIMER
 40
0.6218428819
  9
$USRTIMER
 70
     1
  9
$ANGBASE
 50
0.0
  9
$ANGDIR
 70
     0
  9
$PDMODE
 70
     0
  9
$PDSIZE
 40
0.0
  9
$PLINEWID
 40
0.0
  9
$COORDS
 70
     2
  9
$SPLFRAME
 70
     0
  9
$SPLINETYPE
 70
     6
  9
$SPLINESEGS
 70
     8
  9
$ATTDIA
 70
     0
  9
$ATTREQ
 70
     0
  9
$HANDLING
 70
     1
  9
$HANDSEED
  5
24A
  9
$SURFTAB1
 70
     6
  9
$SURFTAB2
 70
     6
  9
$SURFTYPE
 70
     6
  9
$SURFU
 70
     6
  9
$SURFV
 70
     6
  9
$UCSNAME
  2

  9
$UCSORG
 10
0.0
 20
0.0
 30
0.0
  9
$UCSXDIR
 10
1.0
 20
0.0
 30
0.0
  9
$UCSYDIR
 10
0.0
 20
1.0
 30
0.0
  9
$PUCSNAME
  2

  9
$PUCSORG
 10
0.0
 20
0.0
 30
0.0
  9
$PUCSXDIR
 10
1.0
 20
0.0
 30
0.0
  9
$PUCSYDIR
 10
0.0
 20
1.0
 30
0.0
  9
$USERI1
 70
     0
  9
$USERI2
 70
     0
  9
$USERI3
 70
     0
  9
$USERI4
 70
     0
  9
$USERI5
 70
     0
  9
$USERR1
 40
0.0
  9
$USERR2
 40
0.0
  9
$USERR3
 40
0.0
  9
$USERR4
 40
0.0
  9
$USERR5
 40
0.0
  9
$WORLDVIEW
 70
     1
  9
$SHADEDGE
 70
     3
  9
$SHADEDIF
 70
    70
  9
$TILEMODE
 70
     1
  9
$MAXACTVP
 70
    16
  9
$PINSBASE
 10
0.0
 20
0.0
 30
0.0
  9
$PLIMCHECK
 70
     0
  9
$PEXTMIN
 10
1.000000000000000E+20
 20
1.000000000000000E+20
 30
1.000000000000000E+20
  9
$PEXTMAX
 10
-1.000000000000000E+20
 20
-1.000000000000000E+20
 30
-1.000000000000000E+20
  9
$PLIMMIN
 10
0.0
 20
0.0
  9
$PLIMMAX
 10
12.0
 20
9.0
  9
$UNITMODE
 70
     0
  9
$VISRETAIN
 70
     0
  9
$PLINEGEN
 70
     0
  9
$PSLTSCALE
 70
     0
  9
$TREEDEPTH
 70
  3020
  9
$PICKSTYLE
 70
     0
  9
$CMLSTYLE
  2
STANDARD
  9
$CMLJUST
 70
     0
  9
$CMLSCALE
 40
1.0
  9
$PROXYGRAPHICS
 70
     1
  9
$MEASUREMENT
 70
     0
  0
ENDSEC
  0
SECTION
  2
CLASSES
  0
CLASS
  1
ACDBDICTIONARYWDFLT
  2
AcDbDictionaryWithDefault
  3
AutoCAD 2000
 90
        0
280
     0
281
     0
  0
CLASS
  1
ACDBPLACEHOLDER
  2
AcDbPlaceHolder
  3
AutoCAD 2000
 90
        0
280
     0
281
     0
  0
CLASS
  1
LAYOUT
  2
AcDbLayout
  3
AutoCAD 2000
 90
        0
280
     0
281
     0
  0
CLASS
  1
DICTIONARYVAR
  2
AcDbDictionaryVar
  3
"AutoCAD"
 90
        0
280
     0
281
     0
  0
CLASS
  1
LONG_TRANSACTION
  2
AcDbLongTransaction
  3
AutoCAD 2000
 90
        0
280
     0
281
     0
  0
CLASS
  1
LWPOLYLINE
  2
AcDbPolyline
  3
"AutoCAD"
 90
        0
280
     0
281
     1
  0
CLASS
  1
HATCH
  2
AcDbHatch
  3
"ACAD_SEDONA"
 90
        0
280
     0
281
     1
  0
CLASS
  1
XRECORD
  2
AcDbXrecord
  3
"<Built In>"
 90
        0
280
     0
281
     0
  0
CLASS
  1
LONG_TRANSACTION
  2
AcDbLongTransaction
  3
AutoCAD 2000
 90
        0
280
     0
281
     0
  0
CLASS
  1
LWPOLYLINE
  2
AcDbPolyline
  3
"AutoCAD"
 90
        0
280
     0
281
     1
  0
CLASS
  1
HATCH
  2
AcDbHatch
  3
"ACAD_SEDONA"
 90
        0
280
     0
281
     1
  0
CLASS
  1
XRECORD
  2
AcDbXrecord
  3
"<Built In>"
 90
        0
280
     0
281
     0
  0
ENDSEC
  0
SECTION
  2
TABLES
  0
TABLE
  2
VPORT
  5
23A
100
AcDbSymbolTable
 70
     1
  0
VPORT
  5
23B
100
AcDbSymbolTableRecord
100
AcDbViewportTableRecord
  2
*ACTIVE
 70
     0
 10
0.0
 20
0.0
 11
1.0
 21
1.0
 12
14.81808721170546
 22
-1.694430208962444
 13
0.0
 23
0.0
 14
1.0
 24
1.0
 15
0.0
 25
0.0
 16
0.0
 26
0.0
 36
1.0
 17
18.06596660309899
 27
8.119903606830565
 37
5.823974399722915
 40
63.3392363055334
 41
1.457627118644067
 42
50.0
 43
10.55307667737539
 44
10.55307667737539
 50
0.0
 51
0.0
 71
     0
 72
   100
 73
     1
 74
     1
 75
     0
 76
     0
 77
     0
 78
     0
  0
ENDTAB
  0
TABLE
  2
LTYPE
  5
235
100
AcDbSymbolTable
 70
     1
  0
LTYPE
  5
236
100
AcDbSymbolTableRecord
100
AcDbLinetypeTableRecord
  2
BYBLOCK
 70
     0
  3

 72
    65
 73
     0
 40
0.0
  0
LTYPE
  5
237
100
AcDbSymbolTableRecord
100
AcDbLinetypeTableRecord
  2
BYLAYER
 70
     0
  3

 72
    65
 73
     0
 40
0.0
  0
LTYPE
  5
5
100
AcDbSymbolTableRecord
100
AcDbLinetypeTableRecord
  2
CONTINUOUS
 70
     0
  3
Solid line
 72
    65
 73
     0
 40
0.0
  0
ENDTAB
  0
TABLE
  2
LAYER
  5
233
100
AcDbSymbolTable
 70
     4
  0
LAYER
  5
228
100
AcDbSymbolTableRecord
100
AcDbLayerTableRecord
  2
0
 70
     0
 62
     7
  6
CONTINUOUS
  0
LAYER
  5
D
102
{ACAD_XDICTIONARY
360
E
102
}
100
AcDbSymbolTableRecord
100
AcDbLayerTableRecord
  2
USP-GEO
 70
     0
 62
     7
  6
CONTINUOUS
  0
LAYER
  5
8
102
{ACAD_XDICTIONARY
360
9
102
}
100
AcDbSymbolTableRecord
100
AcDbLayerTableRecord
  2
USP-TXT
 70
     0
 62
     7
  6
CONTINUOUS
  0
LAYER
  5
4
100
AcDbSymbolTableRecord
100
AcDbLayerTableRecord
  2
USP
 70
     0
 62
     7
  6
CONTINUOUS
  0
ENDTAB
  0
TABLE
  2
STYLE
  5
234
100
AcDbSymbolTable
 70
     1
  0
STYLE
  5
B
100
AcDbSymbolTableRecord
100
AcDbTextStyleTableRecord
  2
STANDARD
 70
     0
 40
0.0
 41
1.0
 50
0.0
 71
     0
 42
0.75
  3
txt
  4

  0
ENDTAB
  0
TABLE
  2
VIEW
  5
238
100
AcDbSymbolTable
 70
     0
  0
ENDTAB
  0
TABLE
  2
UCS
  5
239
100
AcDbSymbolTable
 70
     0
  0
ENDTAB
  0
TABLE
  2
APPID
  5
23C
100
AcDbSymbolTable
 70
     1
  0
APPID
  5
23D
100
AcDbSymbolTableRecord
100
AcDbRegAppTableRecord
  2
ACAD
 70
     0
  0
ENDTAB
  0
TABLE
  2
DIMSTYLE
  5
23E
100
AcDbSymbolTable
 70
     1
  0
DIMSTYLE
105
246
100
AcDbSymbolTableRecord
100
AcDbDimStyleTableRecord
  2
STANDARD
 70
     0
  3

  4

  5

  6

  7

 40
1.0
 41
0.18
 42
0.0625
 43
0.38
 44
0.18
 45
0.0
 46
0.0
 47
0.0
 48
0.0
140
0.18
141
0.09
142
0.0
143
25.4
144
1.0
145
0.0
146
1.0
147
0.09
 71
     0
 72
     0
 73
     1
 74
     1
 75
     0
 76
     0
 77
     0
 78
     0
170
     0
171
     2
172
     0
173
     0
174
     0
175
     0
176
     0
177
     0
178
     0
270
     2
271
     4
272
     4
273
     2
274
     2
340
B
275
     0
280
     0
281
     0
282
     0
283
     1
284
     0
285
     0
286
     0
287
     3
288
     0
  0
ENDTAB
  0
TABLE
  2
BLOCK_RECORD
  5
1
100
AcDbSymbolTable
 70
     1
  0
BLOCK_RECORD
  5
2
102
{ACAD_XDICTIONARY
360
22A
102
}
100
AcDbSymbolTableRecord
100
AcDbBlockTableRecord
  2
*MODEL_SPACE
  0
BLOCK_RECORD
  5
22E
102
{ACAD_XDICTIONARY
360
22F
102
}
100
AcDbSymbolTableRecord
100
AcDbBlockTableRecord
  2
*PAPER_SPACE
  0
BLOCK_RECORD
  5
6
100
AcDbSymbolTableRecord
100
AcDbBlockTableRecord
  2
MSTC66_F
  0
ENDTAB
  0
ENDSEC
  0
SECTION
  2
BLOCKS
  0
BLOCK
  5
22C
100
AcDbEntity
  8
0
100
AcDbBlockBegin
  2
*MODEL_SPACE
 70
     0
 10
0.0
 20
0.0
 30
0.0
  3
*MODEL_SPACE
  1

  0
ENDBLK
  5
22D
100
AcDbEntity
  8
0
100
AcDbBlockEnd
  0
BLOCK
  5
231
100
AcDbEntity
 67
     1
  8
0
100
AcDbBlockBegin
  2
*PAPER_SPACE
 70
     0
 10
0.0
 20
0.0
 30
0.0
  3
*PAPER_SPACE
  1

  0
ENDBLK
  5
232
100
AcDbEntity
 67
     1
  8
0
100
AcDbBlockEnd
  0
BLOCK
  5
227
100
AcDbEntity
  8
0
100
AcDbBlockBegin
  2
MSTC66_F
 70
     0
 10
0.0
 20
0.0
 30
0.0
  3
MSTC66_F
  1

  0
TEXT
  5
7
100
AcDbEntity
  8
USP-TXT
100
AcDbText
 10
27.22361369950542
 20
-4.798046513380189
 30
4.196879291630274
 40
0.59375
  1
MSTC66 - FRONT VIEW
 72
     1
 11
32.86423869950542
 21
-4.798046513380189
 31
4.196879291630274
100
AcDbText
  0
LWPOLYLINE
  5
C
100
AcDbEntity
  8
USP-GEO
100
AcDbPolyline
 90
        2
 70
   128
 43
0.0
 10
0.2505612404422409
 20
3.008822895643906
 10
65.4779161585686
 20
3.008822895643906
  0
LWPOLYLINE
  5
10
100
AcDbEntity
  8
USP-GEO
100
AcDbPolyline
 90
        2
 70
   128
 43
0.0
 10
0.2505612404422409
 20
0.0
 10
65.4779161585686
 20
0.0
  0
LWPOLYLINE
  5
11
100
AcDbEntity
  8
USP-GEO
100
AcDbPolyline
 90
        2
 70
   128
 43
0.0
 10
0.0
 20
2.758261655201668
 10
0.0
 20
0.2505612404422379
  0
ARC
  5
12
100
AcDbEntity
  8
USP-GEO
100
AcDbCircle
 10
2.115539748423329
 20
2.501026456944458
 30
0.0
 40
0.0859
100
AcDbArc
 50
6.555202938515806
 51
105.7523287626234
  0
ARC
  5
13
100
AcDbEntity
  8
USP-GEO
100
AcDbCircle
 10
2.115539748423314
 20
2.501026456944458
 30
0.0
 40
0.0859
100
AcDbArc
 50
105.752328762615
 51
176.4949877378485
  0
ARC
  5
14
100
AcDbEntity
  8
USP-GEO
100
AcDbCircle
 10
5.115539748423328
 20
2.501026456944458
 30
0.0
 40
0.0859
100
AcDbArc
 50
5.696828279979971
 51
100.4397810612402
  0
ARC
  5
15
100
AcDbEntity
  8
USP-GEO
100
AcDbCircle
 10
5.115539748423314
 20
2.501026456944458
 30
0.0
 40
0.0859
100
AcDbArc
 50
100.4397810612315
 51
176.2647051353796
  0
ARC
  5
16
100
AcDbEntity
  8
USP-GEO
100
AcDbCircle
 10
8.115539748423314
 20
2.501026456944458
 30
0.0
 40
0.0859
100
AcDbArc
 50
5.178765824269059
 51
96.25359677081078
  0
ARC
  5
17
100
AcDbEntity
  8
USP-GEO
100
AcDbCircle
 10
8.115539748423314
 20
2.501026456944458
 30
0.0
 40
0.0859
100
AcDbArc
 50
96.25359677081078
 51
175.9130154501199
  0
ARC
  5
18
100
AcDbEntity
  8
USP-GEO
100
AcDbCircle
 10
11.11553974842331
 20
2.501026456944444
 30
0.0
 40
0.0859
100
AcDbArc
 50
90.67379186748331
 51
175.4883680846029
  0
ARC
  5
19
100
AcDbEntity
  8
USP-GEO
100
AcDbCircle
 10
11.11553974842331
 20
2.501026456944444
 30
0.0
 40
0.0859
100
AcDbArc
 50
4.62720538136294
 51
90.67379186748331
  0
ARC
  5
1A
100
AcDbEntity
  8
USP-GEO
100
AcDbCircle
 10
2.115539748423329
 20
2.422826456944449
 30
0.0
 40
0.0859
100
AcDbArc
 50
179.2882975621371
 51
252.7958599326337
  0
ARC
  5
1B
100
AcDbEntity
  8
USP-GEO
100
AcDbCircle
 10
2.115539748423314
 20
1.001026456944458
 30
0.0
 40
0.0859
100
AcDbArc
 50
106.7114795469766
 51
179.3592959699683
  0
ARC
  5
1C
100
AcDbEntity
  8
USP-GEO
100
AcDbCircle
 10
2.115539748423329
 20
0.922826456944449
 30
0.0
 40
0.0859
100
AcDbArc
 50
182.1559032108108
 51
253.8091881683588
  0
ARC
  5
1D
100
AcDbEntity
  8
USP-GEO
100
AcDbCircle
 10
0.6155397484233291
 20
0.5010264569444587
 30
0.0
 40
0.0859
100
AcDbArc
 50
277.4191916628072
 51
0.0582914289273743
  0
ARC
  5
1E
100
AcDbEntity
  8
USP-GEO
100
AcDbCircle
 10
0.6155397484233291
 20
0.5010264569444587
 30
0.0
 40
0.0859
100
AcDbArc
 50
179.9519149047861
 51
277.4191916628072
  0
LWPOLYLINE
  5
1F
100
AcDbEntity
  8
USP-GEO
100
AcDbPolyline
 90
        2
 70
   128
 43
0.0
 10
0.2505612404422409
 20
0.0
 10
0.0
 20
0.2505612404422379
  0
LWPOLYLINE
  5
20
100
AcDbEntity
  8
USP-GEO
100
AcDbPolyline
 90
        2
 70
   128
 43
0.0
 10
0.5011224808844818
 20
0.5846428943652278
 10
0.5011224808844818
 20
0.5011224808844795
  0
LWPOLYLINE
  5
21
100
AcDbEntity
  8
USP-GEO
100
AcDbPolyline
 90
        2
 70
   128
 43
0.0
 10
0.7099235145863493
 20
0.5846428943652278
 10
0.7099235145863493
 20
0.5011224808844795
  0
ARC
  5
22
100
AcDbEntity
  8
USP-GEO
100
AcDbCircle
 10
0.6155397484233291
 20
0.5792264569444541
 30
0.0
 40
0.0859
100
AcDbArc
 50
3.284452479207439
 51
83.03600047024799
  0
ARC
  5
23
100
AcDbEntity
  8
USP-GEO
100
AcDbCircle
 10
0.6155397484233291
 20
0.5792264569444541
 30
0.0
 40
0.0859
100
AcDbArc
 50
83.03600047024799
 51
177.2896792805525
  0
LWPOLYLINE
  5
24
100
AcDbEntity
  8
USP-GEO
100
AcDbPolyline
 90
        2
 70
   128
 43
0.0
 10
2.006577933874945
 20
1.002244961768962
 10
2.006577933874945
 20
0.918724548288214
  0
ARC
  5
25
100
AcDbEntity
  8
USP-GEO
100
AcDbCircle
 10
0.6155397484233291
 20
2.079226456944454
 30
0.0
 40
0.0859
100
AcDbArc
 50
6.570835065894523
 51
83.4348686393101
  0
ARC
  5
26
100
AcDbEntity
  8
USP-GEO
100
AcDbCircle
 10
0.6155397484233291
 20
2.079226456944454
 30
0.0
 40
0.0859
100
AcDbArc
 50
83.4348686393101
 51
174.5720708698839
  0
ARC
  5
27
100
AcDbEntity
  8
USP-GEO
100
AcDbCircle
 10
0.6155397484233291
 20
2.001026456944458
 30
0.0
 40
0.0859
100
AcDbArc
 50
177.222211669606
 51
277.931913998918
  0
ARC
  5
28
100
AcDbEntity
  8
USP-GEO
100
AcDbCircle
 10
0.6155397484233291
 20
2.001026456944458
 30
0.0
 40
0.0859
100
AcDbArc
 50
277.931913998918
 51
3.366152549547757
  0
LWPOLYLINE
  5
29
100
AcDbEntity
  8
USP-GEO
100
AcDbPolyline
 90
        2
 70
   128
 43
0.0
 10
0.5011224808844818
 20
2.090098347355691
 10
0.5011224808844818
 20
2.006577933874943
  0
LWPOLYLINE
  5
2A
100
AcDbEntity
  8
USP-GEO
100
AcDbPolyline
 90
        2
 70
   128
 43
0.0
 10
0.7099235145863493
 20
2.090098347355691
 10
0.7099235145863493
 20
2.006577933874943
  0
LWPOLYLINE
  5
2B
100
AcDbEntity
  8
USP-GEO
100
AcDbPolyline
 90
        2
 70
   128
 43
0.0
 10
2.006577933874945
 20
2.507700414759426
 10
2.006577933874945
 20
2.424180001278678
  0
ARC
  5
2C
100
AcDbEntity
  8
USP-GEO
100
AcDbCircle
 10
2.115539748423329
 20
1.001026456944458
 30
0.0
 40
0.0859
100
AcDbArc
 50
1.2018961781774
 51
106.7114795469854
  0
ARC
  5
2D
100
AcDbEntity
  8
USP-GEO
100
AcDbCircle
 10
5.115539748423328
 20
1.001026456944458
 30
0.0
 40
0.0859
100
AcDbArc
 50
1.043430113168435
 51
101.0956966780424
  0
ARC
  5
2E
100
AcDbEntity
  8
USP-GEO
100
AcDbCircle
 10
8.115539748423314
 20
1.001026456944458
 30
0.0
 40
0.0859
100
AcDbArc
 50
0.9480153787165578
 51
96.65269932946088
  0
ARC
  5
2F
100
AcDbEntity
  8
USP-GEO
100
AcDbCircle
 10
3.615539748423314
 20
0.5010264569444445
 30
0.0
 40
0.0859
100
AcDbArc
 50
255.1792762308255
 51
0.0895375007658863
  0
ARC
  5
30
100
AcDbEntity
  8
USP-GEO
100
AcDbCircle
 10
6.615539748423314
 20
0.5010264569444445
 30
0.0
 40
0.0859
100
AcDbArc
 50
260.9745839600993
 51
0.0782953452111317
  0
ARC
  5
31
100
AcDbEntity
  8
USP-GEO
100
AcDbCircle
 10
6.615539748423314
 20
0.5010264569444587
 30
0.0
 40
0.0859
100
AcDbArc
 50
179.9431468351744
 51
260.9745839601009
  0
LWPOLYLINE
  5
32
100
AcDbEntity
  8
USP-GEO
100
AcDbPolyline
 90
        2
 70
   128
 43
0.0
 10
3.676986203489884
 20
0.5846428943652278
 10
3.676986203489884
 20
0.5011224808844795
  0
LWPOLYLINE
  5
33
100
AcDbEntity
  8
USP-GEO
100
AcDbPolyline
 90
        2
 70
   128
 43
0.0
 10
3.509945376528391
 20
0.5846428943652278
 10
3.509945376528391
 20
0.5011224808844795
  0
ARC
  5
34
100
AcDbEntity
  8
USP-GEO
100
AcDbCircle
 10
3.615539748423314
 20
0.5010264569444587
 30
0.0
 40
0.0859
100
AcDbArc
 50
179.9478971759562
 51
255.1792762308279
  0
ARC
  5
35
100
AcDbEntity
  8
USP-GEO
100
AcDbCircle
 10
3.615539748423314
 20
0.5792264569444541
 30
0.0
 40
0.0859
100
AcDbArc
 50
103.9390347042759
 51
177.0636006018871
  0
ARC
  5
36
100
AcDbEntity
  8
USP-GEO
100
AcDbCircle
 10
3.615539748423329
 20
0.5792264569444541
 30
0.0
 40
0.0859
100
AcDbArc
 50
5.037539252123306
 51
103.9390347042845
  0
LWPOLYLINE
  5
37
100
AcDbEntity
  8
USP-GEO
100
AcDbPolyline
 90
        2
 70
   128
 43
0.0
 10
2.173618760836439
 20
1.002244961768962
 10
2.173618760836439
 20
0.918724548288214
  0
ARC
  5
38
100
AcDbEntity
  8
USP-GEO
100
AcDbCircle
 10
2.115539748423329
 20
0.922826456944449
 30
0.0
 40
0.0859
100
AcDbArc
 50
253.8091881683588
 51
355.960116402453
  0
LWPOLYLINE
  5
39
100
AcDbEntity
  8
USP-GEO
100
AcDbPolyline
 90
        2
 70
   128
 43
0.0
 10
6.518768272172299
 20
0.5846428943652278
 10
6.518768272172299
 20
0.5011224808844795
  0
LWPOLYLINE
  5
3A
100
AcDbEntity
  8
USP-GEO
100
AcDbPolyline
 90
        2
 70
   128
 43
0.0
 10
6.685809099133793
 20
0.5846428943652278
 10
6.685809099133793
 20
0.5011224808844795
  0
ARC
  5
3B
100
AcDbEntity
  8
USP-GEO
100
AcDbCircle
 10
6.615539748423314
 20
0.5792264569444541
 30
0.0
 40
0.0859
100
AcDbArc
 50
98.47438963932347
 51
176.7964161827636
  0
ARC
  5
3C
100
AcDbEntity
  8
USP-GEO
100
AcDbCircle
 10
6.615539748423314
 20
0.5792264569444541
 30
0.0
 40
0.0859
100
AcDbArc
 50
4.407704884680168
 51
98.47438963932347
  0
LWPOLYLINE
  5
3D
100
AcDbEntity
  8
USP-GEO
100
AcDbPolyline
 90
        2
 70
   128
 43
0.0
 10
5.182441656480348
 20
1.002244961768962
 10
5.182441656480348
 20
0.918724548288214
  0
LWPOLYLINE
  5
3E
100
AcDbEntity
  8
USP-GEO
100
AcDbPolyline
 90
        2
 70
   128
 43
0.0
 10
5.013312819181836
 20
1.002244961768962
 10
5.013312819181836
 20
0.918724548288214
  0
ARC
  5
3F
100
AcDbEntity
  8
USP-GEO
100
AcDbCircle
 10
5.115539748423328
 20
0.922826456944449
 30
0.0
 40
0.0859
100
AcDbArc
 50
259.2608006776659
 51
356.4914570413372
  0
ARC
  5
40
100
AcDbEntity
  8
USP-GEO
100
AcDbCircle
 10
5.115539748423328
 20
0.922826456944449
 30
0.0
 40
0.0859
100
AcDbArc
 50
182.2977902633774
 51
259.2608006776659
  0
ARC
  5
41
100
AcDbEntity
  8
USP-GEO
100
AcDbCircle
 10
5.115539748423314
 20
1.001026456944458
 30
0.0
 40
0.0859
100
AcDbArc
 50
101.0956966780331
 51
179.3170891644481
  0
ARC
  5
42
100
AcDbEntity
  8
USP-GEO
100
AcDbCircle
 10
9.615539748423314
 20
0.5010264569444445
 30
0.0
 40
0.0859
100
AcDbArc
 50
266.9615910782414
 51
0.0695613545783831
  0
ARC
  5
43
100
AcDbEntity
  8
USP-GEO
100
AcDbCircle
 10
9.615539748423314
 20
0.5010264569444587
 30
0.0
 40
0.0859
100
AcDbArc
 50
179.9374433985032
 51
266.9615910782419
  0
LWPOLYLINE
  5
44
100
AcDbEntity
  8
USP-GEO
100
AcDbPolyline
 90
        2
 70
   128
 43
0.0
 10
9.527591167816208
 20
0.5846428943652278
 10
9.527591167816208
 20
0.5011224808844795
  0
LWPOLYLINE
  5
45
100
AcDbEntity
  8
USP-GEO
100
AcDbPolyline
 90
        2
 70
   128
 43
0.0
 10
9.694631994777703
 20
0.5846428943652278
 10
9.694631994777703
 20
0.5011224808844795
  0
ARC
  5
46
100
AcDbEntity
  8
USP-GEO
100
AcDbCircle
 10
9.615539748423314
 20
0.5792264569444541
 30
0.0
 40
0.0859
100
AcDbArc
 50
3.917643391603085
 51
92.85040384041355
  0
ARC
  5
47
100
AcDbEntity
  8
USP-GEO
100
AcDbCircle
 10
9.615539748423314
 20
0.5792264569444541
 30
0.0
 40
0.0859
100
AcDbArc
 50
92.85040384041355
 51
176.4758097014553
  0
LWPOLYLINE
  5
48
100
AcDbEntity
  8
USP-GEO
100
AcDbPolyline
 90
        2
 70
   128
 43
0.0
 10
8.189176541787238
 20
1.002244961768962
 10
8.189176541787238
 20
0.918724548288214
  0
LWPOLYLINE
  5
49
100
AcDbEntity
  8
USP-GEO
100
AcDbPolyline
 90
        2
 70
   128
 43
0.0
 10
8.022135714825745
 20
1.002244961768962
 10
8.022135714825745
 20
0.918724548288214
  0
ARC
  5
4A
100
AcDbEntity
  8
USP-GEO
100
AcDbCircle
 10
8.115539748423314
 20
0.922826456944449
 30
0.0
 40
0.0859
100
AcDbArc
 50
263.5643547429765
 51
356.8116561923523
  0
ARC
  5
4B
100
AcDbEntity
  8
USP-GEO
100
AcDbCircle
 10
8.115539748423314
 20
0.922826456944449
 30
0.0
 40
0.0859
100
AcDbArc
 50
182.5145717176987
 51
263.5643547429765
  0
ARC
  5
4C
100
AcDbEntity
  8
USP-GEO
100
AcDbCircle
 10
8.115539748423314
 20
1.001026456944458
 30
0.0
 40
0.0859
100
AcDbArc
 50
96.65269932946088
 51
179.2525887698961
  0
ARC
  5
4D
100
AcDbEntity
  8
USP-GEO
100
AcDbCircle
 10
11.11553974842331
 20
1.001026456944458
 30
0.0
 40
0.0859
100
AcDbArc
 50
90.71716588755164
 51
179.174634485022
  0
ARC
  5
4E
100
AcDbEntity
  8
USP-GEO
100
AcDbCircle
 10
11.11553974842331
 20
0.922826456944449
 30
0.0
 40
0.0859
100
AcDbArc
 50
182.7764826434542
 51
269.306431677317
  0
LWPOLYLINE
  5
4F
100
AcDbEntity
  8
USP-GEO
100
AcDbPolyline
 90
        2
 70
   128
 43
0.0
 10
11.03095861046965
 20
1.002244961768962
 10
11.03095861046965
 20
0.918724548288214
  0
LWPOLYLINE
  5
50
100
AcDbEntity
  8
USP-GEO
100
AcDbPolyline
 90
        2
 70
   128
 43
0.0
 10
11.19799943743114
 20
1.002244961768962
 10
11.19799943743114
 20
0.918724548288214
  0
ARC
  5
51
100
AcDbEntity
  8
USP-GEO
100
AcDbCircle
 10
11.11553974842331
 20
0.922826456944449
 30
0.0
 40
0.0859
100
AcDbArc
 50
269.306431677317
 51
357.1522026149062
  0
ARC
  5
52
100
AcDbEntity
  8
USP-GEO
100
AcDbCircle
 10
11.11553974842331
 20
1.001026456944458
 30
0.0
 40
0.0859
100
AcDbArc
 50
0.8465967271341821
 51
90.71716588755164
  0
ARC
  5
53
100
AcDbEntity
  8
USP-GEO
100
AcDbCircle
 10
3.615539748423314
 20
2.079226456944454
 30
0.0
 40
0.0859
100
AcDbArc
 50
103.1622765250252
 51
174.1215971720969
  0
ARC
  5
54
100
AcDbEntity
  8
USP-GEO
100
AcDbCircle
 10
3.615539748423329
 20
2.079226456944454
 30
0.0
 40
0.0859
100
AcDbArc
 50
10.03365808347821
 51
103.1622765250334
  0
ARC
  5
55
100
AcDbEntity
  8
USP-GEO
100
AcDbCircle
 10
3.615539748423314
 20
2.001026456944458
 30
0.0
 40
0.0859
100
AcDbArc
 50
176.9905249209691
 51
254.1925343493884
  0
ARC
  5
56
100
AcDbEntity
  8
USP-GEO
100
AcDbCircle
 10
3.615539748423314
 20
2.001026456944458
 30
0.0
 40
0.0859
100
AcDbArc
 50
254.1925343493884
 51
5.162461837415862
  0
LWPOLYLINE
  5
57
100
AcDbEntity
  8
USP-GEO
100
AcDbPolyline
 90
        2
 70
   128
 43
0.0
 10
3.676986203489884
 20
2.090098347355691
 10
3.676986203489884
 20
2.006577933874943
  0
LWPOLYLINE
  5
58
100
AcDbEntity
  8
USP-GEO
100
AcDbPolyline
 90
        2
 70
   128
 43
0.0
 10
3.509945376528391
 20
2.090098347355691
 10
3.509945376528391
 20
2.006577933874943
  0
ARC
  5
59
100
AcDbEntity
  8
USP-GEO
100
AcDbCircle
 10
2.115539748423329
 20
2.422826456944449
 30
0.0
 40
0.0859
100
AcDbArc
 50
252.7958599326337
 51
1.335049248565946
  0
LWPOLYLINE
  5
5A
100
AcDbEntity
  8
USP-GEO
100
AcDbPolyline
 90
        2
 70
   128
 43
0.0
 10
2.173618760836439
 20
2.507700414759426
 10
2.173618760836439
 20
2.424180001278678
  0
ARC
  5
5B
100
AcDbEntity
  8
USP-GEO
100
AcDbCircle
 10
6.615539748423314
 20
2.079226456944454
 30
0.0
 40
0.0859
100
AcDbArc
 50
8.794919742517128
 51
97.99112454592247
  0
ARC
  5
5C
100
AcDbEntity
  8
USP-GEO
100
AcDbCircle
 10
6.615539748423314
 20
2.079226456944454
 30
0.0
 40
0.0859
100
AcDbArc
 50
97.99112454592247
 51
173.5899254400118
  0
ARC
  5
5D
100
AcDbEntity
  8
USP-GEO
100
AcDbCircle
 10
6.615539748423314
 20
2.001026456944458
 30
0.0
 40
0.0859
100
AcDbArc
 50
176.7167188854424
 51
260.3545661840796
  0
ARC
  5
5E
100
AcDbEntity
  8
USP-GEO
100
AcDbCircle
 10
6.615539748423314
 20
2.001026456944458
 30
0.0
 40
0.0859
100
AcDbArc
 50
260.3545661840796
 51
4.517145958728901
  0
LWPOLYLINE
  5
5F
100
AcDbEntity
  8
USP-GEO
100
AcDbPolyline
 90
        2
 70
   128
 43
0.0
 10
6.518768272172299
 20
2.090098347355691
 10
6.518768272172299
 20
2.006577933874943
  0
LWPOLYLINE
  5
60
100
AcDbEntity
  8
USP-GEO
100
AcDbPolyline
 90
        2
 70
   128
 43
0.0
 10
6.685809099133793
 20
2.090098347355691
 10
6.685809099133793
 20
2.006577933874943
  0
ARC
  5
61
100
AcDbEntity
  8
USP-GEO
100
AcDbCircle
 10
5.115539748423328
 20
2.422826456944449
 30
0.0
 40
0.0859
100
AcDbArc
 50
258.565992526766
 51
1.159037181703327
  0
ARC
  5
62
100
AcDbEntity
  8
USP-GEO
100
AcDbCircle
 10
5.115539748423328
 20
2.422826456944449
 30
0.0
 40
0.0859
100
AcDbArc
 50
179.2414146956683
 51
258.565992526766
  0
LWPOLYLINE
  5
63
100
AcDbEntity
  8
USP-GEO
100
AcDbPolyline
 90
        2
 70
   128
 43
0.0
 10
5.013312819181836
 20
2.507700414759426
 10
5.013312819181836
 20
2.424180001278678
  0
LWPOLYLINE
  5
64
100
AcDbEntity
  8
USP-GEO
100
AcDbPolyline
 90
        2
 70
   128
 43
0.0
 10
5.182441656480348
 20
2.507700414759426
 10
5.182441656480348
 20
2.424180001278678
  0
ARC
  5
65
100
AcDbEntity
  8
USP-GEO
100
AcDbCircle
 10
9.615539748423314
 20
2.079226456944454
 30
0.0
 40
0.0859
100
AcDbArc
 50
7.826734926514253
 51
92.68591187178088
  0
ARC
  5
66
100
AcDbEntity
  8
USP-GEO
100
AcDbCircle
 10
9.615539748423314
 20
2.079226456944454
 30
0.0
 40
0.0859
100
AcDbArc
 50
92.68591187178088
 51
172.9530494903498
  0
ARC
  5
67
100
AcDbEntity
  8
USP-GEO
100
AcDbCircle
 10
9.615539748423314
 20
2.001026456944458
 30
0.0
 40
0.0859
100
AcDbArc
 50
176.3881763770202
 51
266.7494359397446
  0
ARC
  5
68
100
AcDbEntity
  8
USP-GEO
100
AcDbCircle
 10
9.615539748423314
 20
2.001026456944458
 30
0.0
 40
0.0859
100
AcDbArc
 50
266.7494359397446
 51
4.015000260642772
  0
LWPOLYLINE
  5
69
100
AcDbEntity
  8
USP-GEO
100
AcDbPolyline
 90
        2
 70
   128
 43
0.0
 10
9.694631994777703
 20
2.090098347355691
 10
9.694631994777703
 20
2.006577933874943
  0
LWPOLYLINE
  5
6A
100
AcDbEntity
  8
USP-GEO
100
AcDbPolyline
 90
        2
 70
   128
 43
0.0
 10
9.527591167816208
 20
2.090098347355691
 10
9.527591167816208
 20
2.006577933874943
  0
ARC
  5
6B
100
AcDbEntity
  8
USP-GEO
100
AcDbCircle
 10
8.115539748423314
 20
2.422826456944449
 30
0.0
 40
0.0859
100
AcDbArc
 50
263.14100710655
 51
1.053055702768286
  0
ARC
  5
6C
100
AcDbEntity
  8
USP-GEO
100
AcDbCircle
 10
8.115539748423314
 20
2.422826456944449
 30
0.0
 40
0.0859
100
AcDbArc
 50
179.1697687258713
 51
263.14100710655
  0
LWPOLYLINE
  5
6D
100
AcDbEntity
  8
USP-GEO
100
AcDbPolyline
 90
        2
 70
   128
 43
0.0
 10
8.189176541787238
 20
2.507700414759426
 10
8.189176541787238
 20
2.424180001278678
  0
LWPOLYLINE
  5
6E
100
AcDbEntity
  8
USP-GEO
100
AcDbPolyline
 90
        2
 70
   128
 43
0.0
 10
8.022135714825745
 20
2.507700414759426
 10
8.022135714825745
 20
2.424180001278678
  0
ARC
  5
6F
100
AcDbEntity
  8
USP-GEO
100
AcDbCircle
 10
11.11553974842331
 20
2.422826456944449
 30
0.0
 40
0.0859
100
AcDbArc
 50
179.0831790583805
 51
269.2603873022047
  0
LWPOLYLINE
  5
70
100
AcDbEntity
  8
USP-GEO
100
AcDbPolyline
 90
        2
 70
   128
 43
0.0
 10
11.03095861046965
 20
2.507700414759426
 10
11.03095861046965
 20
2.424180001278678
  0
ARC
  5
71
100
AcDbEntity
  8
USP-GEO
100
AcDbCircle
 10
11.11553974842331
 20
2.422826456944449
 30
0.0
 40
0.0859
100
AcDbArc
 50
269.2603873022047
 51
0.940403906008354
  0
LWPOLYLINE
  5
72
100
AcDbEntity
  8
USP-GEO
100
AcDbPolyline
 90
        2
 70
   128
 43
0.0
 10
11.19799943743114
 20
2.507700414759426
 10
11.19799943743114
 20
2.424180001278678
  0
LWPOLYLINE
  5
73
100
AcDbEntity
  8
USP-GEO
100
AcDbPolyline
 90
        2
 70
   128
 43
0.0
 10
0.2505612404422409
 20
3.008822895643906
 10
0.0
 20
2.758261655201668
  0
ARC
  5
74
100
AcDbEntity
  8
USP-GEO
100
AcDbCircle
 10
14.1155397484233
 20
2.501026456944444
 30
0.0
 40
0.0859
100
AcDbArc
 50
4.18163481121276
 51
85.08121714359596
  0
ARC
  5
75
100
AcDbEntity
  8
USP-GEO
100
AcDbCircle
 10
14.1155397484233
 20
2.501026456944444
 30
0.0
 40
0.0859
100
AcDbArc
 50
85.08121714359596
 51
174.9654985806164
  0
ARC
  5
76
100
AcDbEntity
  8
USP-GEO
100
AcDbCircle
 10
17.1155397484233
 20
2.501026456944444
 30
0.0
 40
0.0859
100
AcDbArc
 50
3.81422249132397
 51
105.595532343688
  0
ARC
  5
77
100
AcDbEntity
  8
USP-GEO
100
AcDbCircle
 10
17.1155397484233
 20
2.501026456944444
 30
0.0
 40
0.0859
100
AcDbArc
 50
105.595532343688
 51
176.486423326088
  0
ARC
  5
78
100
AcDbEntity
  8
USP-GEO
100
AcDbCircle
 10
20.11553974842329
 20
2.501026456944444
 30
0.0
 40
0.0859
100
AcDbArc
 50
100.2761072178942
 51
176.1769121546052
  0
ARC
  5
79
100
AcDbEntity
  8
USP-GEO
100
AcDbCircle
 10
20.1155397484233
 20
2.501026456944444
 30
0.0
 40
0.0859
100
AcDbArc
 50
5.674393166281121
 51
100.2761072179029
  0
ARC
  5
7A
100
AcDbEntity
  8
USP-GEO
100
AcDbCircle
 10
23.11553974842329
 20
2.501026456944444
 30
0.0
 40
0.0859
100
AcDbArc
 50
94.77193813881077
 51
175.8077104429688
  0
ARC
  5
7B
100
AcDbEntity
  8
USP-GEO
100
AcDbCircle
 10
23.11553974842329
 20
2.501026456944444
 30
0.0
 40
0.0859
100
AcDbArc
 50
5.019155551648015
 51
94.77193813881077
  0
ARC
  5
7C
100
AcDbEntity
  8
USP-GEO
100
AcDbCircle
 10
29.11553974842329
 20
2.501026456944444
 30
0.0
 40
0.0859
100
AcDbArc
 50
84.91336166307661
 51
174.947833570453
  0
ARC
  5
7D
100
AcDbEntity
  8
USP-GEO
100
AcDbCircle
 10
26.11553974842329
 20
2.501026456944444
 30
0.0
 40
0.0859
100
AcDbArc
 50
89.17833339091188
 51
175.3597499807135
  0
ARC
  5
7E
100
AcDbEntity
  8
USP-GEO
100
AcDbCircle
 10
26.11553974842329
 20
2.501026456944444
 30
0.0
 40
0.0859
100
AcDbArc
 50
4.499297970568451
 51
89.17833339091188
  0
ARC
  5
7F
100
AcDbEntity
  8
USP-GEO
100
AcDbCircle
 10
29.11553974842329
 20
2.501026456944444
 30
0.0
 40
0.0859
100
AcDbArc
 50
4.169515876795486
 51
84.91336166307661
  0
ARC
  5
80
100
AcDbEntity
  8
USP-GEO
100
AcDbCircle
 10
32.11553974842327
 20
2.501026456944437
 30
0.0
 40
0.0859
100
AcDbArc
 50
79.41724116794954
 51
176.4778170108141
  0
ARC
  5
81
100
AcDbEntity
  8
USP-GEO
100
AcDbCircle
 10
32.11553974842327
 20
2.501026456944437
 30
0.0
 40
0.0859
100
AcDbArc
 50
3.804134061191694
 51
79.41724116794954
  0
ARC
  5
82
100
AcDbEntity
  8
USP-GEO
100
AcDbCircle
 10
14.1155397484233
 20
1.001026456944444
 30
0.0
 40
0.0859
100
AcDbArc
 50
84.7662540108881
 51
179.0785271385034
  0
ARC
  5
83
100
AcDbEntity
  8
USP-GEO
100
AcDbCircle
 10
17.1155397484233
 20
1.001026456944444
 30
0.0
 40
0.0859
100
AcDbArc
 50
0.6973817603205271
 51
106.5461920036228
  0
ARC
  5
84
100
AcDbEntity
  8
USP-GEO
100
AcDbCircle
 10
20.1155397484233
 20
1.001026456944444
 30
0.0
 40
0.0859
100
AcDbArc
 50
1.039294763974757
 51
100.922230877141
  0
ARC
  5
85
100
AcDbEntity
  8
USP-GEO
100
AcDbCircle
 10
12.6155397484233
 20
0.5010264569444445
 30
0.0
 40
0.0859
100
AcDbArc
 50
273.0155073606297
 51
0.0625803949506324
  0
ARC
  5
86
100
AcDbEntity
  8
USP-GEO
100
AcDbCircle
 10
12.6155397484233
 20
0.5010264569444445
 30
0.0
 40
0.0859
100
AcDbArc
 50
179.930468042104
 51
273.0155073606297
  0
ARC
  5
87
100
AcDbEntity
  8
USP-GEO
100
AcDbCircle
 10
15.6155397484233
 20
0.5010264569444445
 30
0.0
 40
0.0859
100
AcDbArc
 50
179.9217418949067
 51
279.0030142105421
  0
ARC
  5
88
100
AcDbEntity
  8
USP-GEO
100
AcDbCircle
 10
15.6155397484233
 20
0.5010264569444445
 30
0.0
 40
0.0859
100
AcDbArc
 50
279.0030142105421
 51
0.0568728167674963
  0
LWPOLYLINE
  5
89
100
AcDbEntity
  8
USP-GEO
100
AcDbPolyline
 90
        2
 70
   128
 43
0.0
 10
12.53641406346011
 20
0.5846428943652278
 10
12.53641406346011
 20
0.5011224808844795
  0
LWPOLYLINE
  5
8A
100
AcDbEntity
  8
USP-GEO
100
AcDbPolyline
 90
        2
 70
   128
 43
0.0
 10
12.70345489042161
 20
0.5846428943652278
 10
12.70345489042161
 20
0.5011224808844795
  0
ARC
  5
8B
100
AcDbEntity
  8
USP-GEO
100
AcDbCircle
 10
12.61553974842331
 20
0.5792264569444541
 30
0.0
 40
0.0859
100
AcDbArc
 50
3.525527347498217
 51
87.17108543991887
  0
ARC
  5
8C
100
AcDbEntity
  8
USP-GEO
100
AcDbCircle
 10
12.6155397484233
 20
0.5792264569444541
 30
0.0
 40
0.0859
100
AcDbArc
 50
87.17108543990972
 51
176.0840070570147
  0
LWPOLYLINE
  5
8D
100
AcDbEntity
  8
USP-GEO
100
AcDbPolyline
 90
        2
 70
   128
 43
0.0
 10
14.20682233307505
 20
1.002244961768962
 10
14.20682233307505
 20
0.918724548288214
  0
LWPOLYLINE
  5
8E
100
AcDbEntity
  8
USP-GEO
100
AcDbPolyline
 90
        2
 70
   128
 43
0.0
 10
14.03978150611356
 20
1.002244961768962
 10
14.03978150611356
 20
0.918724548288214
  0
ARC
  5
8F
100
AcDbEntity
  8
USP-GEO
100
AcDbCircle
 10
14.1155397484233
 20
0.922826456944449
 30
0.0
 40
0.0859
100
AcDbArc
 50
275.0624282111465
 51
357.4270661308569
  0
ARC
  5
90
100
AcDbEntity
  8
USP-GEO
100
AcDbCircle
 10
14.1155397484233
 20
0.922826456944449
 30
0.0
 40
0.0859
100
AcDbArc
 50
183.0992375539039
 51
275.0624282111465
  0
ARC
  5
91
100
AcDbEntity
  8
USP-GEO
100
AcDbCircle
 10
14.1155397484233
 20
1.001026456944444
 30
0.0
 40
0.0859
100
AcDbArc
 50
0.7647793686637235
 51
84.7662540108881
  0
LWPOLYLINE
  5
92
100
AcDbEntity
  8
USP-GEO
100
AcDbPolyline
 90
        2
 70
   128
 43
0.0
 10
15.71227778606552
 20
0.5846428943652278
 10
15.71227778606552
 20
0.5011224808844795
  0
LWPOLYLINE
  5
93
100
AcDbEntity
  8
USP-GEO
100
AcDbPolyline
 90
        2
 70
   128
 43
0.0
 10
15.54523695910402
 20
0.5846428943652278
 10
15.54523695910402
 20
0.5011224808844795
  0
ARC
  5
94
100
AcDbEntity
  8
USP-GEO
100
AcDbCircle
 10
15.6155397484233
 20
0.5792264569444541
 30
0.0
 40
0.0859
100
AcDbArc
 50
81.5466858330137
 51
175.5943833272054
  0
ARC
  5
95
100
AcDbEntity
  8
USP-GEO
100
AcDbCircle
 10
15.6155397484233
 20
0.5792264569444541
 30
0.0
 40
0.0859
100
AcDbArc
 50
3.204688864931286
 51
81.5466858330137
  0
LWPOLYLINE
  5
96
100
AcDbEntity
  8
USP-GEO
100
AcDbPolyline
 90
        2
 70
   128
 43
0.0
 10
17.21564522871896
 20
1.002244961768962
 10
17.21564522871896
 20
0.918724548288214
  0
LWPOLYLINE
  5
97
100
AcDbEntity
  8
USP-GEO
100
AcDbPolyline
 90
        2
 70
   128
 43
0.0
 10
17.0068441950171
 20
1.002244961768962
 10
17.0068441950171
 20
0.918724548288214
  0
ARC
  5
98
100
AcDbEntity
  8
USP-GEO
100
AcDbCircle
 10
17.1155397484233
 20
0.922826456944449
 30
0.0
 40
0.0859
100
AcDbArc
 50
253.9698884580988
 51
357.6535685167957
  0
ARC
  5
99
100
AcDbEntity
  8
USP-GEO
100
AcDbCircle
 10
17.1155397484233
 20
0.922826456944449
 30
0.0
 40
0.0859
100
AcDbArc
 50
182.1611793198335
 51
253.9698884580988
  0
ARC
  5
9A
100
AcDbEntity
  8
USP-GEO
100
AcDbCircle
 10
17.1155397484233
 20
1.001026456944444
 30
0.0
 40
0.0859
100
AcDbArc
 50
106.5461920036228
 51
179.3577266296511
  0
ARC
  5
9B
100
AcDbEntity
  8
USP-GEO
100
AcDbCircle
 10
18.6155397484233
 20
0.5010264569444445
 30
0.0
 40
0.0859
100
AcDbArc
 50
255.3503132918888
 51
0.0891511894815696
  0
ARC
  5
9C
100
AcDbEntity
  8
USP-GEO
100
AcDbCircle
 10
21.61553974842329
 20
0.5010264569444445
 30
0.0
 40
0.0859
100
AcDbArc
 50
179.9429899754708
 51
261.1530392912367
  0
ARC
  5
9D
100
AcDbEntity
  8
USP-GEO
100
AcDbCircle
 10
21.61553974842329
 20
0.5010264569444445
 30
0.0
 40
0.0859
100
AcDbArc
 50
261.1530392912367
 51
0.0779997926286559
  0
ARC
  5
9E
100
AcDbEntity
  8
USP-GEO
100
AcDbCircle
 10
20.11553974842329
 20
1.001026456944444
 30
0.0
 40
0.0859
100
AcDbArc
 50
100.9222308771317
 51
179.3009926686771
  0
ARC
  5
9F
100
AcDbEntity
  8
USP-GEO
100
AcDbCircle
 10
20.1155397484233
 20
0.922826456944449
 30
0.0
 40
0.0859
100
AcDbArc
 50
182.3518953347427
 51
259.4289551513985
  0
LWPOLYLINE
  5
A0
100
AcDbEntity
  8
USP-GEO
100
AcDbPolyline
 90
        2
 70
   128
 43
0.0
 10
18.51021163767054
 20
0.5846428943652278
 10
18.51021163767054
 20
0.5011224808844795
  0
LWPOLYLINE
  5
A1
100
AcDbEntity
  8
USP-GEO
100
AcDbPolyline
 90
        2
 70
   128
 43
0.0
 10
18.67725246463204
 20
0.5846428943652278
 10
18.67725246463204
 20
0.5011224808844795
  0
ARC
  5
A2
100
AcDbEntity
  8
USP-GEO
100
AcDbCircle
 10
18.6155397484233
 20
0.5010264569444445
 30
0.0
 40
0.0859
100
AcDbArc
 50
179.9477654641987
 51
255.3503132918888
  0
ARC
  5
A3
100
AcDbEntity
  8
USP-GEO
100
AcDbCircle
 10
18.6155397484233
 20
0.5792264569444541
 30
0.0
 40
0.0859
100
AcDbArc
 50
5.015915773515196
 51
103.7773422480267
  0
ARC
  5
A4
100
AcDbEntity
  8
USP-GEO
100
AcDbCircle
 10
18.6155397484233
 20
0.5792264569444541
 30
0.0
 40
0.0859
100
AcDbArc
 50
103.7773422480267
 51
177.056190656456
  0
LWPOLYLINE
  5
A5
100
AcDbEntity
  8
USP-GEO
100
AcDbPolyline
 90
        2
 70
   128
 43
0.0
 10
20.01566709066101
 20
1.002244961768962
 10
20.01566709066101
 20
0.918724548288214
  0
LWPOLYLINE
  5
A6
100
AcDbEntity
  8
USP-GEO
100
AcDbPolyline
 90
        2
 70
   128
 43
0.0
 10
21.68607536027594
 20
0.5846428943652278
 10
21.68607536027594
 20
0.5011224808844795
  0
LWPOLYLINE
  5
A7
100
AcDbEntity
  8
USP-GEO
100
AcDbPolyline
 90
        2
 70
   128
 43
0.0
 10
21.51903453331445
 20
0.5846428943652278
 10
21.51903453331445
 20
0.5011224808844795
  0
ARC
  5
A8
100
AcDbEntity
  8
USP-GEO
100
AcDbCircle
 10
21.61553974842329
 20
0.5792264569444541
 30
0.0
 40
0.0859
100
AcDbArc
 50
98.30650868123152
 51
176.7875958732172
  0
ARC
  5
A9
100
AcDbEntity
  8
USP-GEO
100
AcDbCircle
 10
21.61553974842329
 20
0.5792264569444541
 30
0.0
 40
0.0859
100
AcDbArc
 50
4.391131671257363
 51
98.30650868123152
  0
LWPOLYLINE
  5
AA
100
AcDbEntity
  8
USP-GEO
100
AcDbPolyline
 90
        2
 70
   128
 43
0.0
 10
20.1827079176225
 20
1.002244961768962
 10
20.1827079176225
 20
0.918724548288214
  0
ARC
  5
AB
100
AcDbEntity
  8
USP-GEO
100
AcDbCircle
 10
20.1155397484233
 20
0.922826456944449
 30
0.0
 40
0.0859
100
AcDbArc
 50
259.4289551513985
 51
356.5053307092588
  0
ARC
  5
AC
100
AcDbEntity
  8
USP-GEO
100
AcDbCircle
 10
12.61553974842331
 20
2.079226456944454
 30
0.0
 40
0.0859
100
AcDbArc
 50
7.049603860173514
 51
87.33434100394296
  0
ARC
  5
AD
100
AcDbEntity
  8
USP-GEO
100
AcDbCircle
 10
12.6155397484233
 20
2.079226456944454
 30
0.0
 40
0.0859
100
AcDbArc
 50
87.33434100393434
 51
172.176531693081
  0
ARC
  5
AE
100
AcDbEntity
  8
USP-GEO
100
AcDbCircle
 10
12.6155397484233
 20
2.001026456944444
 30
0.0
 40
0.0859
100
AcDbArc
 50
273.2260699790935
 51
3.613193745018308
  0
ARC
  5
AF
100
AcDbEntity
  8
USP-GEO
100
AcDbCircle
 10
12.6155397484233
 20
2.001026456944444
 30
0.0
 40
0.0859
100
AcDbArc
 50
175.9866909376232
 51
273.2260699790935
  0
LWPOLYLINE
  5
B0
100
AcDbEntity
  8
USP-GEO
100
AcDbPolyline
 90
        2
 70
   128
 43
0.0
 10
12.53641406346011
 20
2.090098347355691
 10
12.53641406346011
 20
2.006577933874943
  0
LWPOLYLINE
  5
B1
100
AcDbEntity
  8
USP-GEO
100
AcDbPolyline
 90
        2
 70
   128
 43
0.0
 10
12.70345489042161
 20
2.090098347355691
 10
12.70345489042161
 20
2.006577933874943
  0
ARC
  5
B2
100
AcDbEntity
  8
USP-GEO
100
AcDbCircle
 10
14.1155397484233
 20
2.422826456944449
 30
0.0
 40
0.0859
100
AcDbArc
 50
275.3966239528127
 51
0.8495234323820966
  0
ARC
  5
B3
100
AcDbEntity
  8
USP-GEO
100
AcDbCircle
 10
14.1155397484233
 20
2.422826456944449
 30
0.0
 40
0.0859
100
AcDbArc
 50
178.9764265252957
 51
275.3966239528127
  0
LWPOLYLINE
  5
B4
100
AcDbEntity
  8
USP-GEO
100
AcDbPolyline
 90
        2
 70
   128
 43
0.0
 10
14.20682233307505
 20
2.507700414759426
 10
14.20682233307505
 20
2.424180001278678
  0
LWPOLYLINE
  5
B5
100
AcDbEntity
  8
USP-GEO
100
AcDbPolyline
 90
        2
 70
   128
 43
0.0
 10
14.03978150611356
 20
2.507700414759426
 10
14.03978150611356
 20
2.424180001278678
  0
ARC
  5
B6
100
AcDbEntity
  8
USP-GEO
100
AcDbCircle
 10
15.6155397484233
 20
2.079226456944454
 30
0.0
 40
0.0859
100
AcDbArc
 50
82.02878126432763
 51
171.2091980910951
  0
ARC
  5
B7
100
AcDbEntity
  8
USP-GEO
100
AcDbCircle
 10
15.6155397484233
 20
2.079226456944454
 30
0.0
 40
0.0859
100
AcDbArc
 50
6.412271823726886
 51
82.02878126432763
  0
ARC
  5
B8
100
AcDbEntity
  8
USP-GEO
100
AcDbCircle
 10
15.6155397484233
 20
2.001026456944444
 30
0.0
 40
0.0859
100
AcDbArc
 50
175.4849936775479
 51
279.6215494604445
  0
ARC
  5
B9
100
AcDbEntity
  8
USP-GEO
100
AcDbCircle
 10
15.6155397484233
 20
2.001026456944444
 30
0.0
 40
0.0859
100
AcDbArc
 50
279.6215494604445
 51
3.284413534072904
  0
LWPOLYLINE
  5
BA
100
AcDbEntity
  8
USP-GEO
100
AcDbPolyline
 90
        2
 70
   128
 43
0.0
 10
15.71227778606552
 20
2.090098347355691
 10
15.71227778606552
 20
2.006577933874943
  0
LWPOLYLINE
  5
BB
100
AcDbEntity
  8
USP-GEO
100
AcDbPolyline
 90
        2
 70
   128
 43
0.0
 10
15.54523695910402
 20
2.090098347355691
 10
15.54523695910402
 20
2.006577933874943
  0
ARC
  5
BC
100
AcDbEntity
  8
USP-GEO
100
AcDbCircle
 10
17.1155397484233
 20
2.422826456944449
 30
0.0
 40
0.0859
100
AcDbArc
 50
252.9654383897631
 51
0.7746594084769996
  0
ARC
  5
BD
100
AcDbEntity
  8
USP-GEO
100
AcDbCircle
 10
17.1155397484233
 20
2.422826456944449
 30
0.0
 40
0.0859
100
AcDbArc
 50
179.2865543524608
 51
252.9654383897631
  0
LWPOLYLINE
  5
BE
100
AcDbEntity
  8
USP-GEO
100
AcDbPolyline
 90
        2
 70
   128
 43
0.0
 10
17.21564522871896
 20
2.507700414759426
 10
17.21564522871896
 20
2.424180001278678
  0
LWPOLYLINE
  5
BF
100
AcDbEntity
  8
USP-GEO
100
AcDbPolyline
 90
        2
 70
   128
 43
0.0
 10
17.0068441950171
 20
2.507700414759426
 10
17.0068441950171
 20
2.424180001278678
  0
ARC
  5
C0
100
AcDbEntity
  8
USP-GEO
100
AcDbCircle
 10
20.1155397484233
 20
2.422826456944449
 30
0.0
 40
0.0859
100
AcDbArc
 50
179.2235349310523
 51
258.7444744220718
  0
ARC
  5
C1
100
AcDbEntity
  8
USP-GEO
100
AcDbCircle
 10
18.6155397484233
 20
2.079226456944454
 30
0.0
 40
0.0859
100
AcDbArc
 50
9.99124170455488
 51
103.0089417161423
  0
ARC
  5
C2
100
AcDbEntity
  8
USP-GEO
100
AcDbCircle
 10
18.6155397484233
 20
2.079226456944454
 30
0.0
 40
0.0859
100
AcDbArc
 50
103.0089417161423
 51
174.1068414874223
  0
ARC
  5
C3
100
AcDbEntity
  8
USP-GEO
100
AcDbCircle
 10
18.6155397484233
 20
2.001026456944444
 30
0.0
 40
0.0859
100
AcDbArc
 50
176.9829312435992
 51
254.373839932197
  0
ARC
  5
C4
100
AcDbEntity
  8
USP-GEO
100
AcDbCircle
 10
18.6155397484233
 20
2.001026456944444
 30
0.0
 40
0.0859
100
AcDbArc
 50
254.373839932197
 51
5.140307841257849
  0
LWPOLYLINE
  5
C5
100
AcDbEntity
  8
USP-GEO
100
AcDbPolyline
 90
        2
 70
   128
 43
0.0
 10
18.67725246463204
 20
2.090098347355691
 10
18.67725246463204
 20
2.006577933874943
  0
LWPOLYLINE
  5
C6
100
AcDbEntity
  8
USP-GEO
100
AcDbPolyline
 90
        2
 70
   128
 43
0.0
 10
18.51021163767054
 20
2.090098347355691
 10
18.51021163767054
 20
2.006577933874943
  0
LWPOLYLINE
  5
C7
100
AcDbEntity
  8
USP-GEO
100
AcDbPolyline
 90
        2
 70
   128
 43
0.0
 10
20.01566709066101
 20
2.507700414759426
 10
20.01566709066101
 20
2.424180001278678
  0
ARC
  5
C8
100
AcDbEntity
  8
USP-GEO
100
AcDbCircle
 10
21.61553974842329
 20
2.079226456944454
 30
0.0
 40
0.0859
100
AcDbArc
 50
97.83256738392628
 51
173.5723876368252
  0
ARC
  5
C9
100
AcDbEntity
  8
USP-GEO
100
AcDbCircle
 10
21.61553974842329
 20
2.079226456944454
 30
0.0
 40
0.0859
100
AcDbArc
 50
8.762236438426448
 51
97.83256738392628
  0
ARC
  5
CA
100
AcDbEntity
  8
USP-GEO
100
AcDbCircle
 10
21.61553974842329
 20
2.001026456944444
 30
0.0
 40
0.0859
100
AcDbArc
 50
176.7076801020025
 51
260.5448429794202
  0
ARC
  5
CB
100
AcDbEntity
  8
USP-GEO
100
AcDbCircle
 10
21.61553974842329
 20
2.001026456944444
 30
0.0
 40
0.0859
100
AcDbArc
 50
260.5448429794202
 51
4.500164596016245
  0
LWPOLYLINE
  5
CC
100
AcDbEntity
  8
USP-GEO
100
AcDbPolyline
 90
        2
 70
   128
 43
0.0
 10
21.68607536027594
 20
2.090098347355691
 10
21.68607536027594
 20
2.006577933874943
  0
LWPOLYLINE
  5
CD
100
AcDbEntity
  8
USP-GEO
100
AcDbPolyline
 90
        2
 70
   128
 43
0.0
 10
21.51903453331445
 20
2.090098347355691
 10
21.51903453331445
 20
2.006577933874943
  0
ARC
  5
CE
100
AcDbEntity
  8
USP-GEO
100
AcDbCircle
 10
20.1155397484233
 20
2.422826456944449
 30
0.0
 40
0.0859
100
AcDbArc
 50
258.7444744220718
 51
1.154443891703216
  0
LWPOLYLINE
  5
CF
100
AcDbEntity
  8
USP-GEO
100
AcDbPolyline
 90
        2
 70
   128
 43
0.0
 10
20.1827079176225
 20
2.507700414759426
 10
20.1827079176225
 20
2.424180001278678
  0
ARC
  5
D0
100
AcDbEntity
  8
USP-GEO
100
AcDbCircle
 10
23.11553974842329
 20
1.001026456944444
 30
0.0
 40
0.0859
100
AcDbArc
 50
0.9186501240627906
 51
95.07759555146092
  0
ARC
  5
D1
100
AcDbEntity
  8
USP-GEO
100
AcDbCircle
 10
29.11553974842329
 20
1.001026456944444
 30
0.0
 40
0.0859
100
AcDbArc
 50
84.58777246921361
 51
179.0752776557997
  0
ARC
  5
D2
100
AcDbEntity
  8
USP-GEO
100
AcDbCircle
 10
32.11553974842327
 20
1.001026456944437
 30
0.0
 40
0.0859
100
AcDbArc
 50
78.75279086870651
 51
179.3561495829014
  0
ARC
  5
D3
100
AcDbEntity
  8
USP-GEO
100
AcDbCircle
 10
24.61553974842329
 20
0.5010264569444445
 30
0.0
 40
0.0859
100
AcDbArc
 50
267.143975354735
 51
0.069327964760477
  0
ARC
  5
D4
100
AcDbEntity
  8
USP-GEO
100
AcDbCircle
 10
24.61553974842329
 20
0.5010264569444445
 30
0.0
 40
0.0859
100
AcDbArc
 50
179.9372534356944
 51
267.143975354735
  0
ARC
  5
D5
100
AcDbEntity
  8
USP-GEO
100
AcDbCircle
 10
27.61553974842329
 20
0.5010264569444445
 30
0.0
 40
0.0859
100
AcDbArc
 50
273.1978379638282
 51
0.0623914354461483
  0
ARC
  5
D6
100
AcDbEntity
  8
USP-GEO
100
AcDbCircle
 10
27.61553974842329
 20
0.5010264569444445
 30
0.0
 40
0.0859
100
AcDbArc
 50
179.9302332744712
 51
273.1978379638282
  0
LWPOLYLINE
  5
D7
100
AcDbEntity
  8
USP-GEO
100
AcDbPolyline
 90
        2
 70
   128
 43
0.0
 10
24.52785742895836
 20
0.5846428943652278
 10
24.52785742895836
 20
0.5011224808844795
  0
LWPOLYLINE
  5
D8
100
AcDbEntity
  8
USP-GEO
100
AcDbPolyline
 90
        2
 70
   128
 43
0.0
 10
24.69489825591986
 20
0.5846428943652278
 10
24.69489825591986
 20
0.5011224808844795
  0
ARC
  5
D9
100
AcDbEntity
  8
USP-GEO
100
AcDbCircle
 10
24.61553974842329
 20
0.5792264569444541
 30
0.0
 40
0.0859
100
AcDbArc
 50
3.904539764445304
 51
92.67926969833036
  0
ARC
  5
DA
100
AcDbEntity
  8
USP-GEO
100
AcDbCircle
 10
24.61553974842329
 20
0.5792264569444541
 30
0.0
 40
0.0859
100
AcDbArc
 50
92.67926969833036
 51
176.4651350381216
  0
LWPOLYLINE
  5
DB
100
AcDbEntity
  8
USP-GEO
100
AcDbPolyline
 90
        2
 70
   128
 43
0.0
 10
23.19153081326641
 20
1.002244961768962
 10
23.19153081326641
 20
0.918724548288214
  0
LWPOLYLINE
  5
DC
100
AcDbEntity
  8
USP-GEO
100
AcDbPolyline
 90
        2
 70
   128
 43
0.0
 10
23.02448998630491
 20
1.002244961768962
 10
23.02448998630491
 20
0.918724548288214
  0
ARC
  5
DD
100
AcDbEntity
  8
USP-GEO
100
AcDbCircle
 10
23.11553974842329
 20
0.922826456944449
 30
0.0
 40
0.0859
100
AcDbArc
 50
182.5795042200833
 51
265.0886627394601
  0
ARC
  5
DE
100
AcDbEntity
  8
USP-GEO
100
AcDbCircle
 10
23.11553974842329
 20
0.922826456944449
 30
0.0
 40
0.0859
100
AcDbArc
 50
265.0886627394601
 51
356.9102395088499
  0
ARC
  5
DF
100
AcDbEntity
  8
USP-GEO
100
AcDbCircle
 10
23.11553974842329
 20
1.001026456944444
 30
0.0
 40
0.0859
100
AcDbArc
 50
95.07759555146092
 51
179.2332652540109
  0
LWPOLYLINE
  5
E0
100
AcDbEntity
  8
USP-GEO
100
AcDbPolyline
 90
        2
 70
   128
 43
0.0
 10
27.53668032460227
 20
0.5846428943652278
 10
27.53668032460227
 20
0.5011224808844795
  0
LWPOLYLINE
  5
E1
100
AcDbEntity
  8
USP-GEO
100
AcDbPolyline
 90
        2
 70
   128
 43
0.0
 10
27.70372115156376
 20
0.5846428943652278
 10
27.70372115156376
 20
0.5011224808844795
  0
ARC
  5
E2
100
AcDbEntity
  8
USP-GEO
100
AcDbCircle
 10
27.61553974842329
 20
0.5792264569444541
 30
0.0
 40
0.0859
100
AcDbArc
 50
3.51490885027609
 51
86.99999562638254
  0
ARC
  5
E3
100
AcDbEntity
  8
USP-GEO
100
AcDbCircle
 10
27.61553974842329
 20
0.5792264569444541
 30
0.0
 40
0.0859
100
AcDbArc
 50
86.99999562638254
 51
176.0708264345962
  0
LWPOLYLINE
  5
E4
100
AcDbEntity
  8
USP-GEO
100
AcDbPolyline
 90
        2
 70
   128
 43
0.0
 10
26.20035370891032
 20
1.002244961768962
 10
26.20035370891032
 20
0.918724548288214
  0
LWPOLYLINE
  5
E5
100
AcDbEntity
  8
USP-GEO
100
AcDbPolyline
 90
        2
 70
   128
 43
0.0
 10
26.03331288194882
 20
1.002244961768962
 10
26.03331288194882
 20
0.918724548288214
  0
ARC
  5
E6
100
AcDbEntity
  8
USP-GEO
100
AcDbCircle
 10
26.11553974842329
 20
0.922826456944449
 30
0.0
 40
0.0859
100
AcDbArc
 50
182.8558474951865
 51
270.8457822024295
  0
ARC
  5
E7
100
AcDbEntity
  8
USP-GEO
100
AcDbCircle
 10
26.11553974842329
 20
0.922826456944449
 30
0.0
 40
0.0859
100
AcDbArc
 50
270.8457822024295
 51
357.2311271929978
  0
ARC
  5
E8
100
AcDbEntity
  8
USP-GEO
100
AcDbCircle
 10
26.11553974842329
 20
1.001026456944444
 30
0.0
 40
0.0859
100
AcDbArc
 50
89.12544283624521
 51
179.1510065138241
  0
ARC
  5
E9
100
AcDbEntity
  8
USP-GEO
100
AcDbCircle
 10
26.11553974842329
 20
1.001026456944444
 30
0.0
 40
0.0859
100
AcDbArc
 50
0.8231001188774826
 51
89.12544283624521
  0
ARC
  5
EA
100
AcDbEntity
  8
USP-GEO
100
AcDbCircle
 10
30.61553974842327
 20
0.5010264569444374
 30
0.0
 40
0.0859
100
AcDbArc
 50
179.9214443777777
 51
279.1813154722474
  0
ARC
  5
EB
100
AcDbEntity
  8
USP-GEO
100
AcDbCircle
 10
30.61553974842327
 20
0.5010264569444374
 30
0.0
 40
0.0859
100
AcDbArc
 50
279.1813154722474
 51
0.0567167101719332
  0
LWPOLYLINE
  5
EC
100
AcDbEntity
  8
USP-GEO
100
AcDbPolyline
 90
        2
 70
   128
 43
0.0
 10
29.04004776725571
 20
1.002244961768962
 10
29.04004776725571
 20
0.918724548288214
  0
LWPOLYLINE
  5
ED
100
AcDbEntity
  8
USP-GEO
100
AcDbPolyline
 90
        2
 70
   128
 43
0.0
 10
29.20708859421721
 20
1.002244961768962
 10
29.20708859421721
 20
0.918724548288214
  0
ARC
  5
EE
100
AcDbEntity
  8
USP-GEO
100
AcDbCircle
 10
29.11553974842329
 20
0.922826456944449
 30
0.0
 40
0.0859
100
AcDbArc
 50
183.1101471802325
 51
275.2351326501023
  0
ARC
  5
EF
100
AcDbEntity
  8
USP-GEO
100
AcDbCircle
 10
29.11553974842329
 20
0.922826456944449
 30
0.0
 40
0.0859
100
AcDbArc
 50
275.2351326501023
 51
357.4345392528546
  0
ARC
  5
F0
100
AcDbEntity
  8
USP-GEO
100
AcDbCircle
 10
29.11553974842329
 20
1.001026456944444
 30
0.0
 40
0.0859
100
AcDbArc
 50
0.7625553433816621
 51
84.58777246921361
  0
LWPOLYLINE
  5
F1
100
AcDbEntity
  8
USP-GEO
100
AcDbPolyline
 90
        2
 70
   128
 43
0.0
 10
30.71254404720767
 20
0.5846428943652278
 10
30.71254404720767
 20
0.5011224808844795
  0
LWPOLYLINE
  5
F2
100
AcDbEntity
  8
USP-GEO
100
AcDbPolyline
 90
        2
 70
   128
 43
0.0
 10
30.54550322024618
 20
0.5846428943652278
 10
30.54550322024618
 20
0.5011224808844795
  0
ARC
  5
F3
100
AcDbEntity
  8
USP-GEO
100
AcDbCircle
 10
30.61553974842327
 20
0.579226456944447
 30
0.0
 40
0.0859
100
AcDbArc
 50
81.37893278826318
 51
175.577700603778
  0
ARC
  5
F4
100
AcDbEntity
  8
USP-GEO
100
AcDbCircle
 10
30.61553974842329
 20
0.579226456944447
 30
0.0
 40
0.0859
100
AcDbArc
 50
3.19591077043447
 51
81.37893278827212
  0
LWPOLYLINE
  5
F5
100
AcDbEntity
  8
USP-GEO
100
AcDbPolyline
 90
        2
 70
   128
 43
0.0
 10
32.00711045615925
 20
1.002244961768962
 10
32.00711045615925
 20
0.918724548288214
  0
LWPOLYLINE
  5
F6
100
AcDbEntity
  8
USP-GEO
100
AcDbPolyline
 90
        2
 70
   128
 43
0.0
 10
32.21591148986112
 20
1.002244961768962
 10
32.21591148986112
 20
0.918724548288214
  0
ARC
  5
F7
100
AcDbEntity
  8
USP-GEO
100
AcDbCircle
 10
32.11553974842327
 20
0.9228264569444419
 30
0.0
 40
0.0859
100
AcDbArc
 50
182.1664813041502
 51
280.8860828373174
  0
ARC
  5
F8
100
AcDbEntity
  8
USP-GEO
100
AcDbCircle
 10
32.11553974842327
 20
0.9228264569444419
 30
0.0
 40
0.0859
100
AcDbArc
 50
280.8860828373174
 51
357.6597860834056
  0
ARC
  5
F9
100
AcDbEntity
  8
USP-GEO
100
AcDbCircle
 10
32.11553974842327
 20
1.001026456944437
 30
0.0
 40
0.0859
100
AcDbArc
 50
0.6955319628067747
 51
78.75279086870651
  0
ARC
  5
FA
100
AcDbEntity
  8
USP-GEO
100
AcDbCircle
 10
24.61553974842329
 20
2.079226456944454
 30
0.0
 40
0.0859
100
AcDbArc
 50
7.800798763084671
 51
92.52462637917874
  0
ARC
  5
FB
100
AcDbEntity
  8
USP-GEO
100
AcDbCircle
 10
24.61553974842329
 20
2.079226456944454
 30
0.0
 40
0.0859
100
AcDbArc
 50
92.52462637917874
 51
172.9318664405737
  0
ARC
  5
FC
100
AcDbEntity
  8
USP-GEO
100
AcDbCircle
 10
24.61553974842329
 20
2.001026456944444
 30
0.0
 40
0.0859
100
AcDbArc
 50
176.3772376720623
 51
266.94450685217
  0
ARC
  5
FD
100
AcDbEntity
  8
USP-GEO
100
AcDbCircle
 10
24.61553974842329
 20
2.001026456944444
 30
0.0
 40
0.0859
100
AcDbArc
 50
266.94450685217
 51
4.001573095066461
  0
LWPOLYLINE
  5
FE
100
AcDbEntity
  8
USP-GEO
100
AcDbPolyline
 90
        2
 70
   128
 43
0.0
 10
24.69489825591986
 20
2.090098347355691
 10
24.69489825591986
 20
2.006577933874943
  0
LWPOLYLINE
  5
FF
100
AcDbEntity
  8
USP-GEO
100
AcDbPolyline
 90
        2
 70
   128
 43
0.0
 10
24.52785742895836
 20
2.090098347355691
 10
24.52785742895836
 20
2.006577933874943
  0
ARC
  5
100
100
AcDbEntity
  8
USP-GEO
100
AcDbCircle
 10
23.11553974842329
 20
2.422826456944449
 30
0.0
 40
0.0859
100
AcDbArc
 50
264.7643317721719
 51
1.020438099492249
  0
ARC
  5
101
100
AcDbEntity
  8
USP-GEO
100
AcDbCircle
 10
23.11553974842329
 20
2.422826456944449
 30
0.0
 40
0.0859
100
AcDbArc
 50
179.1483045784181
 51
264.7643317721719
  0
LWPOLYLINE
  5
102
100
AcDbEntity
  8
USP-GEO
100
AcDbPolyline
 90
        2
 70
   128
 43
0.0
 10
23.19153081326641
 20
2.507700414759426
 10
23.19153081326641
 20
2.424180001278678
  0
LWPOLYLINE
  5
103
100
AcDbEntity
  8
USP-GEO
100
AcDbPolyline
 90
        2
 70
   128
 43
0.0
 10
23.02448998630491
 20
2.507700414759426
 10
23.02448998630491
 20
2.424180001278678
  0
ARC
  5
104
100
AcDbEntity
  8
USP-GEO
100
AcDbCircle
 10
27.61553974842329
 20
2.079226456944454
 30
0.0
 40
0.0859
100
AcDbArc
 50
7.028531009369205
 51
87.17309261004038
  0
ARC
  5
105
100
AcDbEntity
  8
USP-GEO
100
AcDbCircle
 10
27.61553974842329
 20
2.079226456944454
 30
0.0
 40
0.0859
100
AcDbArc
 50
87.17309261004038
 51
172.1504452619683
  0
ARC
  5
106
100
AcDbEntity
  8
USP-GEO
100
AcDbCircle
 10
27.61553974842329
 20
2.001026456944444
 30
0.0
 40
0.0859
100
AcDbArc
 50
175.9731848943402
 51
273.4210751981933
  0
ARC
  5
107
100
AcDbEntity
  8
USP-GEO
100
AcDbCircle
 10
27.61553974842329
 20
2.001026456944444
 30
0.0
 40
0.0859
100
AcDbArc
 50
273.4210751981933
 51
3.602312584518221
  0
LWPOLYLINE
  5
108
100
AcDbEntity
  8
USP-GEO
100
AcDbPolyline
 90
        2
 70
   128
 43
0.0
 10
27.70372115156376
 20
2.090098347355691
 10
27.70372115156376
 20
2.006577933874943
  0
LWPOLYLINE
  5
109
100
AcDbEntity
  8
USP-GEO
100
AcDbPolyline
 90
        2
 70
   128
 43
0.0
 10
27.53668032460227
 20
2.090098347355691
 10
27.53668032460227
 20
2.006577933874943
  0
ARC
  5
10A
100
AcDbEntity
  8
USP-GEO
100
AcDbCircle
 10
26.11553974842329
 20
2.422826456944449
 30
0.0
 40
0.0859
100
AcDbArc
 50
179.0569338530171
 51
270.9019287564311
  0
ARC
  5
10B
100
AcDbEntity
  8
USP-GEO
100
AcDbCircle
 10
26.11553974842329
 20
2.422826456944449
 30
0.0
 40
0.0859
100
AcDbArc
 50
270.9019287564311
 51
0.9143046071879179
  0
LWPOLYLINE
  5
10C
100
AcDbEntity
  8
USP-GEO
100
AcDbPolyline
 90
        2
 70
   128
 43
0.0
 10
26.20035370891032
 20
2.507700414759426
 10
26.20035370891032
 20
2.424180001278678
  0
LWPOLYLINE
  5
10D
100
AcDbEntity
  8
USP-GEO
100
AcDbPolyline
 90
        2
 70
   128
 43
0.0
 10
26.03331288194882
 20
2.507700414759426
 10
26.03331288194882
 20
2.424180001278678
  0
ARC
  5
10E
100
AcDbEntity
  8
USP-GEO
100
AcDbCircle
 10
29.11553974842329
 20
2.422826456944449
 30
0.0
 40
0.0859
100
AcDbArc
 50
178.9728171412496
 51
275.5805917753184
  0
ARC
  5
10F
100
AcDbEntity
  8
USP-GEO
100
AcDbCircle
 10
29.11553974842329
 20
2.422826456944449
 30
0.0
 40
0.0859
100
AcDbArc
 50
275.5805917753184
 51
0.8470530345054381
  0
LWPOLYLINE
  5
110
100
AcDbEntity
  8
USP-GEO
100
AcDbPolyline
 90
        2
 70
   128
 43
0.0
 10
29.04004776725571
 20
2.507700414759426
 10
29.04004776725571
 20
2.424180001278678
  0
LWPOLYLINE
  5
111
100
AcDbEntity
  8
USP-GEO
100
AcDbPolyline
 90
        2
 70
   128
 43
0.0
 10
29.20708859421721
 20
2.507700414759426
 10
29.20708859421721
 20
2.424180001278678
  0
ARC
  5
112
100
AcDbEntity
  8
USP-GEO
100
AcDbCircle
 10
30.61553974842327
 20
2.079226456944432
 30
0.0
 40
0.0859
100
AcDbArc
 50
81.8703316166818
 51
171.176302633283
  0
ARC
  5
113
100
AcDbEntity
  8
USP-GEO
100
AcDbCircle
 10
30.61553974842329
 20
2.079226456944432
 30
0.0
 40
0.0859
100
AcDbArc
 50
6.394817173601257
 51
81.87033161669026
  0
ARC
  5
114
100
AcDbEntity
  8
USP-GEO
100
AcDbCircle
 10
30.61553974842327
 20
2.001026456944437
 30
0.0
 40
0.0859
100
AcDbArc
 50
279.8116388653113
 51
3.275418004526741
  0
ARC
  5
115
100
AcDbEntity
  8
USP-GEO
100
AcDbCircle
 10
30.61553974842327
 20
2.001026456944437
 30
0.0
 40
0.0859
100
AcDbArc
 50
175.4679001414542
 51
279.8116388653113
  0
LWPOLYLINE
  5
116
100
AcDbEntity
  8
USP-GEO
100
AcDbPolyline
 90
        2
 70
   128
 43
0.0
 10
30.71254404720767
 20
2.090098347355691
 10
30.71254404720767
 20
2.006577933874943
  0
LWPOLYLINE
  5
117
100
AcDbEntity
  8
USP-GEO
100
AcDbPolyline
 90
        2
 70
   128
 43
0.0
 10
30.54550322024618
 20
2.090098347355691
 10
30.54550322024618
 20
2.006577933874943
  0
ARC
  5
118
100
AcDbEntity
  8
USP-GEO
100
AcDbCircle
 10
32.11553974842327
 20
2.422826456944441
 30
0.0
 40
0.0859
100
AcDbArc
 50
179.2848025827901
 51
281.58989061207
  0
ARC
  5
119
100
AcDbEntity
  8
USP-GEO
100
AcDbCircle
 10
32.11553974842327
 20
2.422826456944441
 30
0.0
 40
0.0859
100
AcDbArc
 50
281.58989061207
 51
0.7726046801247552
  0
LWPOLYLINE
  5
11A
100
AcDbEntity
  8
USP-GEO
100
AcDbPolyline
 90
        2
 70
   128
 43
0.0
 10
32.00711045615925
 20
2.507700414759426
 10
32.00711045615925
 20
2.424180001278678
  0
LWPOLYLINE
  5
11B
100
AcDbEntity
  8
USP-GEO
100
AcDbPolyline
 90
        2
 70
   128
 43
0.0
 10
32.21591148986112
 20
2.507700414759426
 10
32.21591148986112
 20
2.424180001278678
  0
ARC
  5
11C
100
AcDbEntity
  8
USP-GEO
100
AcDbCircle
 10
35.11553974842327
 20
2.501026456944437
 30
0.0
 40
0.0859
100
AcDbArc
 50
100.1122636624813
 51
176.1667229604585
  0
ARC
  5
11D
100
AcDbEntity
  8
USP-GEO
100
AcDbCircle
 10
35.11553974842327
 20
2.501026456944437
 30
0.0
 40
0.0859
100
AcDbArc
 50
5.652133494918465
 51
100.1122636624813
  0
ARC
  5
11E
100
AcDbEntity
  8
USP-GEO
100
AcDbCircle
 10
38.11553974842326
 20
2.501026456944437
 30
0.0
 40
0.0859
100
AcDbArc
 50
94.60392623965102
 51
175.7954588052283
  0
ARC
  5
11F
100
AcDbEntity
  8
USP-GEO
100
AcDbCircle
 10
38.11553974842326
 20
2.501026456944437
 30
0.0
 40
0.0859
100
AcDbArc
 50
5.001719651701342
 51
94.60392623965102
  0
ARC
  5
120
100
AcDbEntity
  8
USP-GEO
100
AcDbCircle
 10
41.11553974842325
 20
2.501026456944437
 30
0.0
 40
0.0859
100
AcDbArc
 50
4.485274825991982
 51
89.00923400744181
  0
ARC
  5
121
100
AcDbEntity
  8
USP-GEO
100
AcDbCircle
 10
41.11553974842325
 20
2.501026456944437
 30
0.0
 40
0.0859
100
AcDbArc
 50
89.00923400744181
 51
175.3447415915167
  0
ARC
  5
122
100
AcDbEntity
  8
USP-GEO
100
AcDbCircle
 10
44.11553974842325
 20
2.501026456944437
 30
0.0
 40
0.0859
100
AcDbArc
 50
4.065335747239437
 51
83.43331400034719
  0
ARC
  5
123
100
AcDbEntity
  8
USP-GEO
100
AcDbCircle
 10
44.11553974842325
 20
2.501026456944437
 30
0.0
 40
0.0859
100
AcDbArc
 50
83.43331400034719
 51
174.7860889672552
  0
ARC
  5
124
100
AcDbEntity
  8
USP-GEO
100
AcDbCircle
 10
47.11553974842324
 20
2.501026456944437
 30
0.0
 40
0.0859
100
AcDbArc
 50
3.717198325730909
 51
77.97921891183772
  0
ARC
  5
125
100
AcDbEntity
  8
USP-GEO
100
AcDbCircle
 10
47.11553974842324
 20
2.501026456944437
 30
0.0
 40
0.0859
100
AcDbArc
 50
77.97921891183772
 51
174.0756128023404
  0
ARC
  5
126
100
AcDbEntity
  8
USP-GEO
100
AcDbCircle
 10
50.11553974842324
 20
2.501026456944437
 30
0.0
 40
0.0859
100
AcDbArc
 50
5.630047222613549
 51
99.94825281463073
  0
ARC
  5
127
100
AcDbEntity
  8
USP-GEO
100
AcDbCircle
 10
50.11553974842324
 20
2.501026456944437
 30
0.0
 40
0.0859
100
AcDbArc
 50
99.94825281463073
 51
176.1564793909371
  0
ARC
  5
128
100
AcDbEntity
  8
USP-GEO
100
AcDbCircle
 10
53.11553974842323
 20
2.501026456944437
 30
0.0
 40
0.0859
100
AcDbArc
 50
94.43583495644814
 51
175.7831354784233
  0
ARC
  5
129
100
AcDbEntity
  8
USP-GEO
100
AcDbCircle
 10
53.11553974842323
 20
2.501026456944437
 30
0.0
 40
0.0859
100
AcDbArc
 50
4.984404167823457
 51
94.43583495644814
  0
ARC
  5
12A
100
AcDbEntity
  8
USP-GEO
100
AcDbCircle
 10
35.11553974842327
 20
1.001026456944437
 30
0.0
 40
0.0859
100
AcDbArc
 50
1.035192060471623
 51
100.748562151041
  0
ARC
  5
12B
100
AcDbEntity
  8
USP-GEO
100
AcDbCircle
 10
38.11553974842326
 20
1.001026456944437
 30
0.0
 40
0.0859
100
AcDbArc
 50
0.9154430993069968
 51
94.89892575165075
  0
ARC
  5
12C
100
AcDbEntity
  8
USP-GEO
100
AcDbCircle
 10
33.61553974842327
 20
0.5010264569444374
 30
0.0
 40
0.0859
100
AcDbArc
 50
256.8739666695346
 51
0.0519881965732534
  0
ARC
  5
12D
100
AcDbEntity
  8
USP-GEO
100
AcDbCircle
 10
36.61553974842326
 20
0.5010264569444374
 30
0.0
 40
0.0859
100
AcDbArc
 50
262.738100205886
 51
0.075480479078434
  0
ARC
  5
12E
100
AcDbEntity
  8
USP-GEO
100
AcDbCircle
 10
36.61553974842326
 20
0.5010264569444374
 30
0.0
 40
0.0859
100
AcDbArc
 50
179.9415644243497
 51
262.738100205886
  0
LWPOLYLINE
  5
12F
100
AcDbEntity
  8
USP-GEO
100
AcDbPolyline
 90
        2
 70
   128
 43
0.0
 10
33.72136694285158
 20
0.5846428943652278
 10
33.72136694285158
 20
0.5011224808844795
  0
LWPOLYLINE
  5
130
100
AcDbEntity
  8
USP-GEO
100
AcDbPolyline
 90
        2
 70
   128
 43
0.0
 10
33.51256590914972
 20
0.5846428943652278
 10
33.51256590914972
 20
0.5011224808844795
  0
ARC
  5
131
100
AcDbEntity
  8
USP-GEO
100
AcDbCircle
 10
33.61553974842327
 20
0.5010264569444374
 30
0.0
 40
0.0859
100
AcDbArc
 50
179.9465712365323
 51
256.8739666695346
  0
ARC
  5
132
100
AcDbEntity
  8
USP-GEO
100
AcDbCircle
 10
33.61553974842327
 20
0.579226456944447
 30
0.0
 40
0.0859
100
AcDbArc
 50
102.3381587013119
 51
176.9890093640873
  0
ARC
  5
133
100
AcDbEntity
  8
USP-GEO
100
AcDbCircle
 10
33.61553974842328
 20
0.579226456944447
 30
0.0
 40
0.0859
100
AcDbArc
 50
2.929950513148188
 51
102.3381587013163
  0
LWPOLYLINE
  5
134
100
AcDbEntity
  8
USP-GEO
100
AcDbPolyline
 90
        2
 70
   128
 43
0.0
 10
35.18297417876466
 20
1.002244961768962
 10
35.18297417876466
 20
0.918724548288214
  0
LWPOLYLINE
  5
135
100
AcDbEntity
  8
USP-GEO
100
AcDbPolyline
 90
        2
 70
   128
 43
0.0
 10
35.01593335180316
 20
1.002244961768962
 10
35.01593335180316
 20
0.918724548288214
  0
ARC
  5
136
100
AcDbEntity
  8
USP-GEO
100
AcDbCircle
 10
35.11553974842327
 20
0.9228264569444419
 30
0.0
 40
0.0859
100
AcDbArc
 50
182.3581751756023
 51
259.597294025412
  0
ARC
  5
137
100
AcDbEntity
  8
USP-GEO
100
AcDbCircle
 10
35.11553974842327
 20
0.9228264569444419
 30
0.0
 40
0.0859
100
AcDbArc
 50
259.597294025412
 51
356.5190952238352
  0
ARC
  5
138
100
AcDbEntity
  8
USP-GEO
100
AcDbCircle
 10
35.11553974842327
 20
1.001026456944437
 30
0.0
 40
0.0859
100
AcDbArc
 50
100.748562151041
 51
179.2991243152808
  0
ARC
  5
139
100
AcDbEntity
  8
USP-GEO
100
AcDbCircle
 10
36.61553974842327
 20
0.579226456944447
 30
0.0
 40
0.0859
100
AcDbArc
 50
4.249830690723802
 51
96.81616698997855
  0
LWPOLYLINE
  5
13A
100
AcDbEntity
  8
USP-GEO
100
AcDbPolyline
 90
        2
 70
   128
 43
0.0
 10
36.68842963175512
 20
0.5846428943652278
 10
36.68842963175512
 20
0.5011224808844795
  0
LWPOLYLINE
  5
13B
100
AcDbEntity
  8
USP-GEO
100
AcDbPolyline
 90
        2
 70
   128
 43
0.0
 10
36.52138880479363
 20
0.5846428943652278
 10
36.52138880479363
 20
0.5011224808844795
  0
ARC
  5
13C
100
AcDbEntity
  8
USP-GEO
100
AcDbCircle
 10
36.61553974842326
 20
0.579226456944447
 30
0.0
 40
0.0859
100
AcDbArc
 50
96.81616698997403
 51
176.7074433618911
  0
ARC
  5
13D
100
AcDbEntity
  8
USP-GEO
100
AcDbCircle
 10
39.61553974842326
 20
0.5010264569444374
 30
0.0
 40
0.0859
100
AcDbArc
 50
179.9370623156739
 51
267.326417576486
  0
ARC
  5
13E
100
AcDbEntity
  8
USP-GEO
100
AcDbCircle
 10
39.61553974842326
 20
0.5010264569444374
 30
0.0
 40
0.0859
100
AcDbArc
 50
267.326417576486
 51
0.0690961358325995
  0
ARC
  5
13F
100
AcDbEntity
  8
USP-GEO
100
AcDbCircle
 10
42.61553974842325
 20
0.5010264569444374
 30
0.0
 40
0.0859
100
AcDbArc
 50
179.9299969161246
 51
273.3801037549977
  0
ARC
  5
140
100
AcDbEntity
  8
USP-GEO
100
AcDbCircle
 10
42.61553974842325
 20
0.5010264569444374
 30
0.0
 40
0.0859
100
AcDbArc
 50
273.3801037549977
 51
0.0622036136249292
  0
LWPOLYLINE
  5
141
100
AcDbEntity
  8
USP-GEO
100
AcDbPolyline
 90
        2
 70
   128
 43
0.0
 10
39.69516451706201
 20
0.5846428943652278
 10
39.69516451706201
 20
0.5011224808844795
  0
LWPOLYLINE
  5
142
100
AcDbEntity
  8
USP-GEO
100
AcDbPolyline
 90
        2
 70
   128
 43
0.0
 10
39.52812369010052
 20
0.5846428943652278
 10
39.52812369010052
 20
0.5011224808844795
  0
ARC
  5
143
100
AcDbEntity
  8
USP-GEO
100
AcDbCircle
 10
39.61553974842326
 20
0.579226456944447
 30
0.0
 40
0.0859
100
AcDbArc
 50
92.50808770300492
 51
176.454395594682
  0
ARC
  5
144
100
AcDbEntity
  8
USP-GEO
100
AcDbCircle
 10
39.61553974842326
 20
0.579226456944447
 30
0.0
 40
0.0859
100
AcDbArc
 50
3.89152336800378
 51
92.50808770300951
  0
LWPOLYLINE
  5
145
100
AcDbEntity
  8
USP-GEO
100
AcDbPolyline
 90
        2
 70
   128
 43
0.0
 10
38.19179707440857
 20
1.002244961768962
 10
38.19179707440857
 20
0.918724548288214
  0
LWPOLYLINE
  5
146
100
AcDbEntity
  8
USP-GEO
100
AcDbPolyline
 90
        2
 70
   128
 43
0.0
 10
38.02475624744707
 20
1.002244961768962
 10
38.02475624744707
 20
0.918724548288214
  0
ARC
  5
147
100
AcDbEntity
  8
USP-GEO
100
AcDbCircle
 10
38.11553974842326
 20
0.9228264569444419
 30
0.0
 40
0.0859
100
AcDbArc
 50
182.587059447203
 51
265.2615376346819
  0
ARC
  5
148
100
AcDbEntity
  8
USP-GEO
100
AcDbCircle
 10
38.11553974842326
 20
0.9228264569444419
 30
0.0
 40
0.0859
100
AcDbArc
 50
265.2615376346819
 51
356.9210069656045
  0
ARC
  5
149
100
AcDbEntity
  8
USP-GEO
100
AcDbCircle
 10
38.11553974842326
 20
1.001026456944437
 30
0.0
 40
0.0859
100
AcDbArc
 50
94.89892575165075
 51
179.2310167486314
  0
LWPOLYLINE
  5
14A
100
AcDbEntity
  8
USP-GEO
100
AcDbPolyline
 90
        2
 70
   128
 43
0.0
 10
42.53694658574443
 20
0.5846428943652278
 10
42.53694658574443
 20
0.5011224808844795
  0
LWPOLYLINE
  5
14B
100
AcDbEntity
  8
USP-GEO
100
AcDbPolyline
 90
        2
 70
   128
 43
0.0
 10
42.70398741270592
 20
0.5846428943652278
 10
42.70398741270592
 20
0.5011224808844795
  0
ARC
  5
14C
100
AcDbEntity
  8
USP-GEO
100
AcDbCircle
 10
42.61553974842325
 20
0.5792264569444328
 30
0.0
 40
0.0859
100
AcDbArc
 50
86.82895934501193
 51
176.0575569252094
  0
ARC
  5
14D
100
AcDbEntity
  8
USP-GEO
100
AcDbCircle
 10
42.61553974842326
 20
0.5792264569444328
 30
0.0
 40
0.0859
100
AcDbArc
 50
3.504354044925889
 51
86.82895934501649
  0
LWPOLYLINE
  5
14E
100
AcDbEntity
  8
USP-GEO
100
AcDbPolyline
 90
        2
 70
   128
 43
0.0
 10
41.03357914309098
 20
1.002244961768962
 10
41.03357914309098
 20
0.918724548288214
  0
LWPOLYLINE
  5
14F
100
AcDbEntity
  8
USP-GEO
100
AcDbPolyline
 90
        2
 70
   128
 43
0.0
 10
41.20061997005247
 20
1.002244961768962
 10
41.20061997005247
 20
0.918724548288214
  0
ARC
  5
150
100
AcDbEntity
  8
USP-GEO
100
AcDbCircle
 10
41.11553974842325
 20
0.9228264569444419
 30
0.0
 40
0.0859
100
AcDbArc
 50
271.0198426962552
 51
357.239779042881
  0
ARC
  5
151
100
AcDbEntity
  8
USP-GEO
100
AcDbCircle
 10
41.11553974842325
 20
0.9228264569444419
 30
0.0
 40
0.0859
100
AcDbArc
 50
182.8651097044276
 51
271.0198426962552
  0
ARC
  5
152
100
AcDbEntity
  8
USP-GEO
100
AcDbCircle
 10
41.11553974842325
 20
1.001026456944437
 30
0.0
 40
0.0859
100
AcDbArc
 50
0.8205245547465048
 51
88.94546291212817
  0
ARC
  5
153
100
AcDbEntity
  8
USP-GEO
100
AcDbCircle
 10
41.11553974842325
 20
1.001026456944437
 30
0.0
 40
0.0859
100
AcDbArc
 50
88.94546291212817
 51
179.1482488386477
  0
ARC
  5
154
100
AcDbEntity
  8
USP-GEO
100
AcDbCircle
 10
33.61553974842327
 20
2.079226456944432
 30
0.0
 40
0.0859
100
AcDbArc
 50
101.645114515275
 51
173.9730880355948
  0
ARC
  5
155
100
AcDbEntity
  8
USP-GEO
100
AcDbCircle
 10
33.61553974842328
 20
2.079226456944432
 30
0.0
 40
0.0859
100
AcDbArc
 50
5.865560459108705
 51
101.6451145152791
  0
ARC
  5
156
100
AcDbEntity
  8
USP-GEO
100
AcDbCircle
 10
33.61553974842327
 20
2.001026456944437
 30
0.0
 40
0.0859
100
AcDbArc
 50
255.9906005819095
 51
3.002866287810861
  0
ARC
  5
157
100
AcDbEntity
  8
USP-GEO
100
AcDbCircle
 10
33.61553974842327
 20
2.001026456944437
 30
0.0
 40
0.0859
100
AcDbArc
 50
176.9140844035335
 51
255.9906005819095
  0
LWPOLYLINE
  5
158
100
AcDbEntity
  8
USP-GEO
100
AcDbPolyline
 90
        2
 70
   128
 43
0.0
 10
33.51256590914972
 20
2.090098347355691
 10
33.51256590914972
 20
2.006577933874943
  0
LWPOLYLINE
  5
159
100
AcDbEntity
  8
USP-GEO
100
AcDbPolyline
 90
        2
 70
   128
 43
0.0
 10
33.72136694285158
 20
2.090098347355691
 10
33.72136694285158
 20
2.006577933874943
  0
ARC
  5
15A
100
AcDbEntity
  8
USP-GEO
100
AcDbCircle
 10
35.11553974842327
 20
2.422826456944441
 30
0.0
 40
0.0859
100
AcDbArc
 50
179.2214595918142
 51
258.9231778887973
  0
ARC
  5
15B
100
AcDbEntity
  8
USP-GEO
100
AcDbCircle
 10
35.11553974842327
 20
2.422826456944441
 30
0.0
 40
0.0859
100
AcDbArc
 50
258.9231778887973
 51
1.149886859749353
  0
LWPOLYLINE
  5
15C
100
AcDbEntity
  8
USP-GEO
100
AcDbPolyline
 90
        2
 70
   128
 43
0.0
 10
35.18297417876466
 20
2.507700414759426
 10
35.18297417876466
 20
2.424180001278678
  0
LWPOLYLINE
  5
15D
100
AcDbEntity
  8
USP-GEO
100
AcDbPolyline
 90
        2
 70
   128
 43
0.0
 10
35.01593335180316
 20
2.507700414759426
 10
35.01593335180316
 20
2.424180001278678
  0
ARC
  5
15E
100
AcDbEntity
  8
USP-GEO
100
AcDbCircle
 10
36.61553974842327
 20
2.079226456944432
 30
0.0
 40
0.0859
100
AcDbArc
 50
8.483410076684604
 51
96.42561749183295
  0
ARC
  5
15F
100
AcDbEntity
  8
USP-GEO
100
AcDbCircle
 10
36.61553974842326
 20
2.079226456944432
 30
0.0
 40
0.0859
100
AcDbArc
 50
96.42561749182867
 51
173.4130587671711
  0
ARC
  5
160
100
AcDbEntity
  8
USP-GEO
100
AcDbCircle
 10
36.61553974842326
 20
2.001026456944437
 30
0.0
 40
0.0859
100
AcDbArc
 50
262.2359865282264
 51
4.355382267031914
  0
ARC
  5
161
100
AcDbEntity
  8
USP-GEO
100
AcDbCircle
 10
36.61553974842326
 20
2.001026456944437
 30
0.0
 40
0.0859
100
AcDbArc
 50
176.6255426229339
 51
262.2359865282264
  0
LWPOLYLINE
  5
162
100
AcDbEntity
  8
USP-GEO
100
AcDbPolyline
 90
        2
 70
   128
 43
0.0
 10
36.68842963175512
 20
2.090098347355691
 10
36.68842963175512
 20
2.006577933874943
  0
LWPOLYLINE
  5
163
100
AcDbEntity
  8
USP-GEO
100
AcDbPolyline
 90
        2
 70
   128
 43
0.0
 10
36.52138880479363
 20
2.090098347355691
 10
36.52138880479363
 20
2.006577933874943
  0
ARC
  5
164
100
AcDbEntity
  8
USP-GEO
100
AcDbCircle
 10
39.61553974842326
 20
2.079226456944432
 30
0.0
 40
0.0859
100
AcDbArc
 50
92.36330084046391
 51
172.910556307344
  0
ARC
  5
165
100
AcDbEntity
  8
USP-GEO
100
AcDbCircle
 10
39.61553974842326
 20
2.079226456944432
 30
0.0
 40
0.0859
100
AcDbArc
 50
7.775032873005847
 51
92.36330084046819
  0
ARC
  5
166
100
AcDbEntity
  8
USP-GEO
100
AcDbCircle
 10
39.61553974842326
 20
2.001026456944437
 30
0.0
 40
0.0859
100
AcDbArc
 50
267.1396486928508
 51
3.988235293138377
  0
ARC
  5
167
100
AcDbEntity
  8
USP-GEO
100
AcDbCircle
 10
39.61553974842326
 20
2.001026456944437
 30
0.0
 40
0.0859
100
AcDbArc
 50
176.3662325974247
 51
267.1396486928508
  0
LWPOLYLINE
  5
168
100
AcDbEntity
  8
USP-GEO
100
AcDbPolyline
 90
        2
 70
   128
 43
0.0
 10
39.69516451706201
 20
2.090098347355691
 10
39.69516451706201
 20
2.006577933874943
  0
LWPOLYLINE
  5
169
100
AcDbEntity
  8
USP-GEO
100
AcDbPolyline
 90
        2
 70
   128
 43
0.0
 10
39.52812369010052
 20
2.090098347355691
 10
39.52812369010052
 20
2.006577933874943
  0
ARC
  5
16A
100
AcDbEntity
  8
USP-GEO
100
AcDbCircle
 10
38.11553974842326
 20
2.422826456944441
 30
0.0
 40
0.0859
100
AcDbArc
 50
179.145806989736
 51
264.9485058788085
  0
ARC
  5
16B
100
AcDbEntity
  8
USP-GEO
100
AcDbCircle
 10
38.11553974842326
 20
2.422826456944441
 30
0.0
 40
0.0859
100
AcDbArc
 50
264.9485058788085
 51
1.016875873061612
  0
LWPOLYLINE
  5
16C
100
AcDbEntity
  8
USP-GEO
100
AcDbPolyline
 90
        2
 70
   128
 43
0.0
 10
38.19179707440857
 20
2.507700414759426
 10
38.19179707440857
 20
2.424180001278678
  0
LWPOLYLINE
  5
16D
100
AcDbEntity
  8
USP-GEO
100
AcDbPolyline
 90
        2
 70
   128
 43
0.0
 10
38.02475624744707
 20
2.507700414759426
 10
38.02475624744707
 20
2.424180001278678
  0
ARC
  5
16E
100
AcDbEntity
  8
USP-GEO
100
AcDbCircle
 10
42.61553974842325
 20
2.079226456944432
 30
0.0
 40
0.0859
100
AcDbArc
 50
87.01188902024425
 51
172.1241853852653
  0
ARC
  5
16F
100
AcDbEntity
  8
USP-GEO
100
AcDbCircle
 10
42.61553974842326
 20
2.079226456944432
 30
0.0
 40
0.0859
100
AcDbArc
 50
7.0075831391336
 51
87.01188902024854
  0
ARC
  5
170
100
AcDbEntity
  8
USP-GEO
100
AcDbCircle
 10
42.61553974842325
 20
2.001026456944437
 30
0.0
 40
0.0859
100
AcDbArc
 50
175.9595877911974
 51
273.6160010981712
  0
ARC
  5
171
100
AcDbEntity
  8
USP-GEO
100
AcDbCircle
 10
42.61553974842325
 20
2.001026456944437
 30
0.0
 40
0.0859
100
AcDbArc
 50
273.6160010981712
 51
3.591496679041224
  0
LWPOLYLINE
  5
172
100
AcDbEntity
  8
USP-GEO
100
AcDbPolyline
 90
        2
 70
   128
 43
0.0
 10
42.53694658574443
 20
2.090098347355691
 10
42.53694658574443
 20
2.006577933874943
  0
LWPOLYLINE
  5
173
100
AcDbEntity
  8
USP-GEO
100
AcDbPolyline
 90
        2
 70
   128
 43
0.0
 10
42.70398741270592
 20
2.090098347355691
 10
42.70398741270592
 20
2.006577933874943
  0
ARC
  5
174
100
AcDbEntity
  8
USP-GEO
100
AcDbCircle
 10
41.11553974842325
 20
2.422826456944441
 30
0.0
 40
0.0859
100
AcDbArc
 50
179.0538707192348
 51
271.0875391934328
  0
ARC
  5
175
100
AcDbEntity
  8
USP-GEO
100
AcDbCircle
 10
41.11553974842325
 20
2.422826456944441
 30
0.0
 40
0.0859
100
AcDbArc
 50
271.0875391934328
 51
0.9114437465573107
  0
LWPOLYLINE
  5
176
100
AcDbEntity
  8
USP-GEO
100
AcDbPolyline
 90
        2
 70
   128
 43
0.0
 10
41.03357914309098
 20
2.507700414759426
 10
41.03357914309098
 20
2.424180001278678
  0
LWPOLYLINE
  5
177
100
AcDbEntity
  8
USP-GEO
100
AcDbPolyline
 90
        2
 70
   128
 43
0.0
 10
41.20061997005247
 20
2.507700414759426
 10
41.20061997005247
 20
2.424180001278678
  0
ARC
  5
178
100
AcDbEntity
  8
USP-GEO
100
AcDbCircle
 10
44.11553974842325
 20
1.001026456944437
 30
0.0
 40
0.0859
100
AcDbArc
 50
83.01460614417193
 51
179.0455166614869
  0
ARC
  5
179
100
AcDbEntity
  8
USP-GEO
100
AcDbCircle
 10
47.11553974842324
 20
1.001026456944437
 30
0.0
 40
0.0859
100
AcDbArc
 50
77.22997207894512
 51
178.9146072605627
  0
ARC
  5
17A
100
AcDbEntity
  8
USP-GEO
100
AcDbCircle
 10
50.11553974842324
 20
1.001026456944437
 30
0.0
 40
0.0859
100
AcDbArc
 50
1.0311216176481
 51
100.5746933401741
  0
ARC
  5
17B
100
AcDbEntity
  8
USP-GEO
100
AcDbCircle
 10
53.11553974842323
 20
1.001026456944437
 30
0.0
 40
0.0859
100
AcDbArc
 50
0.9122583863294975
 51
94.7201603912436
  0
ARC
  5
17C
100
AcDbEntity
  8
USP-GEO
100
AcDbCircle
 10
45.61553974842325
 20
0.5010264569444374
 30
0.0
 40
0.0859
100
AcDbArc
 50
179.9211445898563
 51
279.3594375495767
  0
ARC
  5
17D
100
AcDbEntity
  8
USP-GEO
100
AcDbCircle
 10
45.61553974842325
 20
0.5010264569444374
 30
0.0
 40
0.0859
100
AcDbArc
 50
279.3594375495767
 51
0.0565614582003418
  0
ARC
  5
17E
100
AcDbEntity
  8
USP-GEO
100
AcDbCircle
 10
45.61553974842325
 20
0.5792264569444328
 30
0.0
 40
0.0859
100
AcDbArc
 50
3.187180583978477
 51
81.21132854074932
  0
LWPOLYLINE
  5
17F
100
AcDbEntity
  8
USP-GEO
100
AcDbPolyline
 90
        2
 70
   128
 43
0.0
 10
45.54576948138833
 20
0.5846428943652278
 10
45.54576948138833
 20
0.5011224808844795
  0
ARC
  5
180
100
AcDbEntity
  8
USP-GEO
100
AcDbCircle
 10
45.61553974842325
 20
0.5792264569444328
 30
0.0
 40
0.0859
100
AcDbArc
 50
81.21132854074485
 51
175.5608913092114
  0
LWPOLYLINE
  5
181
100
AcDbEntity
  8
USP-GEO
100
AcDbPolyline
 90
        2
 70
   128
 43
0.0
 10
44.04240203873489
 20
1.002244961768962
 10
44.04240203873489
 20
0.918724548288214
  0
LWPOLYLINE
  5
182
100
AcDbEntity
  8
USP-GEO
100
AcDbPolyline
 90
        2
 70
   128
 43
0.0
 10
44.20944286569638
 20
1.002244961768962
 10
44.20944286569638
 20
0.918724548288214
  0
ARC
  5
183
100
AcDbEntity
  8
USP-GEO
100
AcDbCircle
 10
44.11553974842325
 20
0.9228264569444419
 30
0.0
 40
0.0859
100
AcDbArc
 50
276.7576856850905
 51
357.4987759075777
  0
ARC
  5
184
100
AcDbEntity
  8
USP-GEO
100
AcDbCircle
 10
44.11553974842325
 20
0.9228264569444419
 30
0.0
 40
0.0859
100
AcDbArc
 50
183.2100553681314
 51
276.7576856850905
  0
ARC
  5
185
100
AcDbEntity
  8
USP-GEO
100
AcDbCircle
 10
44.11553974842325
 20
1.001026456944437
 30
0.0
 40
0.0859
100
AcDbArc
 50
0.7434392771532459
 51
83.01460614417193
  0
LWPOLYLINE
  5
186
100
AcDbEntity
  8
USP-GEO
100
AcDbPolyline
 90
        2
 70
   128
 43
0.0
 10
45.71281030834983
 20
0.5846428943652278
 10
45.71281030834983
 20
0.5011224808844795
  0
LWPOLYLINE
  5
187
100
AcDbEntity
  8
USP-GEO
100
AcDbPolyline
 90
        2
 70
   128
 43
0.0
 10
47.0512249343788
 20
1.002244961768962
 10
47.0512249343788
 20
0.918724548288214
  0
LWPOLYLINE
  5
188
100
AcDbEntity
  8
USP-GEO
100
AcDbPolyline
 90
        2
 70
   128
 43
0.0
 10
47.2182657613403
 20
1.002244961768962
 10
47.2182657613403
 20
0.918724548288214
  0
ARC
  5
189
100
AcDbEntity
  8
USP-GEO
100
AcDbCircle
 10
47.11553974842324
 20
0.9228264569444419
 30
0.0
 40
0.0859
100
AcDbArc
 50
282.3629334737445
 51
357.7133614331991
  0
ARC
  5
18A
100
AcDbEntity
  8
USP-GEO
100
AcDbCircle
 10
47.11553974842324
 20
0.9228264569444419
 30
0.0
 40
0.0859
100
AcDbArc
 50
183.6493017321415
 51
282.3629334737445
  0
ARC
  5
18B
100
AcDbEntity
  8
USP-GEO
100
AcDbCircle
 10
47.11553974842324
 20
1.001026456944437
 30
0.0
 40
0.0859
100
AcDbArc
 50
0.6795932960592092
 51
77.22997207894512
  0
ARC
  5
18C
100
AcDbEntity
  8
USP-GEO
100
AcDbCircle
 10
48.61553974842323
 20
0.5010264569444374
 30
0.0
 40
0.0859
100
AcDbArc
 50
179.9464327268374
 51
285.1405894649501
  0
ARC
  5
18D
100
AcDbEntity
  8
USP-GEO
100
AcDbCircle
 10
51.61553974842323
 20
0.5010264569444374
 30
0.0
 40
0.0859
100
AcDbArc
 50
179.9413986985692
 51
262.9181176152599
  0
ARC
  5
18E
100
AcDbEntity
  8
USP-GEO
100
AcDbCircle
 10
51.61553974842323
 20
0.5010264569444374
 30
0.0
 40
0.0859
100
AcDbArc
 50
262.9181176152599
 51
0.0752057585393557
  0
LWPOLYLINE
  5
18F
100
AcDbEntity
  8
USP-GEO
100
AcDbPolyline
 90
        2
 70
   128
 43
0.0
 10
48.51283217029187
 20
0.5846428943652278
 10
48.51283217029187
 20
0.5011224808844795
  0
LWPOLYLINE
  5
190
100
AcDbEntity
  8
USP-GEO
100
AcDbPolyline
 90
        2
 70
   128
 43
0.0
 10
48.72163320399374
 20
0.5846428943652278
 10
48.72163320399374
 20
0.5011224808844795
  0
ARC
  5
191
100
AcDbEntity
  8
USP-GEO
100
AcDbCircle
 10
48.61553974842323
 20
0.5010264569444374
 30
0.0
 40
0.0859
100
AcDbArc
 50
285.1405894649501
 51
0.0518577226533089
  0
ARC
  5
192
100
AcDbEntity
  8
USP-GEO
100
AcDbCircle
 10
48.61553974842323
 20
0.5792264569444328
 30
0.0
 40
0.0859
100
AcDbArc
 50
75.75849763344493
 51
176.9812180320083
  0
ARC
  5
193
100
AcDbEntity
  8
USP-GEO
100
AcDbCircle
 10
48.61553974842324
 20
0.5792264569444328
 30
0.0
 40
0.0859
100
AcDbArc
 50
2.922610025111083
 51
75.75849763344923
  0
LWPOLYLINE
  5
194
100
AcDbEntity
  8
USP-GEO
100
AcDbPolyline
 90
        2
 70
   128
 43
0.0
 10
50.01619961294532
 20
1.002244961768962
 10
50.01619961294532
 20
0.918724548288214
  0
LWPOLYLINE
  5
195
100
AcDbEntity
  8
USP-GEO
100
AcDbPolyline
 90
        2
 70
   128
 43
0.0
 10
50.18324043990681
 20
1.002244961768962
 10
50.18324043990681
 20
0.918724548288214
  0
ARC
  5
196
100
AcDbEntity
  8
USP-GEO
100
AcDbCircle
 10
50.11553974842324
 20
0.9228264569444419
 30
0.0
 40
0.0859
100
AcDbArc
 50
259.7658146921722
 51
356.5327518666088
  0
ARC
  5
197
100
AcDbEntity
  8
USP-GEO
100
AcDbCircle
 10
50.11553974842324
 20
0.9228264569444419
 30
0.0
 40
0.0859
100
AcDbArc
 50
182.3644886230069
 51
259.7658146921722
  0
ARC
  5
198
100
AcDbEntity
  8
USP-GEO
100
AcDbCircle
 10
50.11553974842324
 20
1.001026456944437
 30
0.0
 40
0.0859
100
AcDbArc
 50
100.5746933401741
 51
179.2972459479042
  0
LWPOLYLINE
  5
199
100
AcDbEntity
  8
USP-GEO
100
AcDbPolyline
 90
        2
 70
   128
 43
0.0
 10
51.52165506593578
 20
0.5846428943652278
 10
51.52165506593578
 20
0.5011224808844795
  0
LWPOLYLINE
  5
19A
100
AcDbEntity
  8
USP-GEO
100
AcDbPolyline
 90
        2
 70
   128
 43
0.0
 10
51.68869589289728
 20
0.5846428943652278
 10
51.68869589289728
 20
0.5011224808844795
  0
ARC
  5
19B
100
AcDbEntity
  8
USP-GEO
100
AcDbCircle
 10
51.61553974842323
 20
0.579226456944447
 30
0.0
 40
0.0859
100
AcDbArc
 50
96.64699060957975
 51
176.6981261560359
  0
ARC
  5
19C
100
AcDbEntity
  8
USP-GEO
100
AcDbCircle
 10
51.61553974842323
 20
0.579226456944447
 30
0.0
 40
0.0859
100
AcDbArc
 50
4.234419251394183
 51
96.64699060958426
  0
LWPOLYLINE
  5
19D
100
AcDbEntity
  8
USP-GEO
100
AcDbPolyline
 90
        2
 70
   128
 43
0.0
 10
53.19206333555072
 20
1.002244961768962
 10
53.19206333555072
 20
0.918724548288214
  0
LWPOLYLINE
  5
19E
100
AcDbEntity
  8
USP-GEO
100
AcDbPolyline
 90
        2
 70
   128
 43
0.0
 10
53.02502250858922
 20
1.002244961768962
 10
53.02502250858922
 20
0.918724548288214
  0
ARC
  5
19F
100
AcDbEntity
  8
USP-GEO
100
AcDbCircle
 10
53.11553974842323
 20
0.9228264569444419
 30
0.0
 40
0.0859
100
AcDbArc
 50
182.5946590316858
 51
265.4344990453668
  0
ARC
  5
1A0
100
AcDbEntity
  8
USP-GEO
100
AcDbCircle
 10
53.11553974842323
 20
0.9228264569444419
 30
0.0
 40
0.0859
100
AcDbArc
 50
265.4344990453668
 51
356.9316997078054
  0
ARC
  5
1A1
100
AcDbEntity
  8
USP-GEO
100
AcDbCircle
 10
53.11553974842323
 20
1.001026456944437
 30
0.0
 40
0.0859
100
AcDbArc
 50
94.7201603912436
 51
179.2287550174563
  0
ARC
  5
1A2
100
AcDbEntity
  8
USP-GEO
100
AcDbCircle
 10
45.61553974842325
 20
2.001026456944437
 30
0.0
 40
0.0859
100
AcDbArc
 50
280.0015103903836
 51
3.266471562023586
  0
ARC
  5
1A3
100
AcDbEntity
  8
USP-GEO
100
AcDbCircle
 10
45.61553974842325
 20
2.079226456944432
 30
0.0
 40
0.0859
100
AcDbArc
 50
6.377456899336982
 51
81.71200705952237
  0
ARC
  5
1A4
100
AcDbEntity
  8
USP-GEO
100
AcDbCircle
 10
45.61553974842325
 20
2.079226456944432
 30
0.0
 40
0.0859
100
AcDbArc
 50
81.71200705951816
 51
171.1431620303979
  0
ARC
  5
1A5
100
AcDbEntity
  8
USP-GEO
100
AcDbCircle
 10
45.61553974842325
 20
2.001026456944437
 30
0.0
 40
0.0859
100
AcDbArc
 50
175.450676956477
 51
280.0015103903836
  0
LWPOLYLINE
  5
1A6
100
AcDbEntity
  8
USP-GEO
100
AcDbPolyline
 90
        2
 70
   128
 43
0.0
 10
45.54576948138833
 20
2.090098347355691
 10
45.54576948138833
 20
2.006577933874943
  0
ARC
  5
1A7
100
AcDbEntity
  8
USP-GEO
100
AcDbCircle
 10
44.11553974842325
 20
2.422826456944441
 30
0.0
 40
0.0859
100
AcDbArc
 50
178.9397599958449
 51
277.2017943235251
  0
ARC
  5
1A8
100
AcDbEntity
  8
USP-GEO
100
AcDbCircle
 10
44.11553974842325
 20
2.422826456944441
 30
0.0
 40
0.0859
100
AcDbArc
 50
277.2017943235251
 51
0.8258193083644339
  0
LWPOLYLINE
  5
1A9
100
AcDbEntity
  8
USP-GEO
100
AcDbPolyline
 90
        2
 70
   128
 43
0.0
 10
44.04240203873489
 20
2.507700414759426
 10
44.04240203873489
 20
2.424180001278678
  0
LWPOLYLINE
  5
1AA
100
AcDbEntity
  8
USP-GEO
100
AcDbPolyline
 90
        2
 70
   128
 43
0.0
 10
44.20944286569638
 20
2.507700414759426
 10
44.20944286569638
 20
2.424180001278678
  0
LWPOLYLINE
  5
1AB
100
AcDbEntity
  8
USP-GEO
100
AcDbPolyline
 90
        2
 70
   128
 43
0.0
 10
45.71281030834983
 20
2.090098347355691
 10
45.71281030834983
 20
2.006577933874943
  0
ARC
  5
1AC
100
AcDbEntity
  8
USP-GEO
100
AcDbCircle
 10
47.11553974842324
 20
2.422826456944441
 30
0.0
 40
0.0859
100
AcDbArc
 50
178.7943534913601
 51
283.1560616215177
  0
ARC
  5
1AD
100
AcDbEntity
  8
USP-GEO
100
AcDbCircle
 10
47.11553974842324
 20
2.422826456944441
 30
0.0
 40
0.0859
100
AcDbArc
 50
283.1560616215177
 51
0.7549002238871678
  0
LWPOLYLINE
  5
1AE
100
AcDbEntity
  8
USP-GEO
100
AcDbPolyline
 90
        2
 70
   128
 43
0.0
 10
47.0512249343788
 20
2.507700414759426
 10
47.0512249343788
 20
2.424180001278678
  0
LWPOLYLINE
  5
1AF
100
AcDbEntity
  8
USP-GEO
100
AcDbPolyline
 90
        2
 70
   128
 43
0.0
 10
47.2182657613403
 20
2.507700414759426
 10
47.2182657613403
 20
2.424180001278678
  0
ARC
  5
1B0
100
AcDbEntity
  8
USP-GEO
100
AcDbCircle
 10
48.61553974842323
 20
2.079226456944432
 30
0.0
 40
0.0859
100
AcDbArc
 50
76.55082834388313
 51
173.9575791927922
  0
ARC
  5
1B1
100
AcDbEntity
  8
USP-GEO
100
AcDbCircle
 10
48.61553974842324
 20
2.079226456944432
 30
0.0
 40
0.0859
100
AcDbArc
 50
5.850942004094835
 51
76.5508283438872
  0
ARC
  5
1B2
100
AcDbEntity
  8
USP-GEO
100
AcDbCircle
 10
48.61553974842323
 20
2.001026456944437
 30
0.0
 40
0.0859
100
AcDbArc
 50
176.9060999375048
 51
286.146431706481
  0
ARC
  5
1B3
100
AcDbEntity
  8
USP-GEO
100
AcDbCircle
 10
48.61553974842323
 20
2.001026456944437
 30
0.0
 40
0.0859
100
AcDbArc
 50
286.146431706481
 51
2.995343780688685
  0
LWPOLYLINE
  5
1B4
100
AcDbEntity
  8
USP-GEO
100
AcDbPolyline
 90
        2
 70
   128
 43
0.0
 10
48.51283217029187
 20
2.090098347355691
 10
48.51283217029187
 20
2.006577933874943
  0
LWPOLYLINE
  5
1B5
100
AcDbEntity
  8
USP-GEO
100
AcDbPolyline
 90
        2
 70
   128
 43
0.0
 10
48.72163320399374
 20
2.090098347355691
 10
48.72163320399374
 20
2.006577933874943
  0
ARC
  5
1B6
100
AcDbEntity
  8
USP-GEO
100
AcDbCircle
 10
50.11553974842324
 20
2.422826456944441
 30
0.0
 40
0.0859
100
AcDbArc
 50
179.2193731295853
 51
259.1020998565427
  0
ARC
  5
1B7
100
AcDbEntity
  8
USP-GEO
100
AcDbCircle
 10
50.11553974842324
 20
2.422826456944441
 30
0.0
 40
0.0859
100
AcDbArc
 50
259.1020998565427
 51
1.145365658259589
  0
LWPOLYLINE
  5
1B8
100
AcDbEntity
  8
USP-GEO
100
AcDbPolyline
 90
        2
 70
   128
 43
0.0
 10
50.01619961294532
 20
2.507700414759426
 10
50.01619961294532
 20
2.424180001278678
  0
LWPOLYLINE
  5
1B9
100
AcDbEntity
  8
USP-GEO
100
AcDbPolyline
 90
        2
 70
   128
 43
0.0
 10
50.18324043990681
 20
2.507700414759426
 10
50.18324043990681
 20
2.424180001278678
  0
ARC
  5
1BA
100
AcDbEntity
  8
USP-GEO
100
AcDbCircle
 10
51.61553974842323
 20
2.079226456944432
 30
0.0
 40
0.0859
100
AcDbArc
 50
96.2659725108495
 51
173.3945427647306
  0
ARC
  5
1BB
100
AcDbEntity
  8
USP-GEO
100
AcDbCircle
 10
51.61553974842323
 20
2.079226456944432
 30
0.0
 40
0.0859
100
AcDbArc
 50
8.452980504225637
 51
96.26597251085378
  0
ARC
  5
1BC
100
AcDbEntity
  8
USP-GEO
100
AcDbCircle
 10
51.61553974842323
 20
2.001026456944437
 30
0.0
 40
0.0859
100
AcDbArc
 50
176.6159947203893
 51
262.4281658135589
  0
ARC
  5
1BD
100
AcDbEntity
  8
USP-GEO
100
AcDbCircle
 10
51.61553974842323
 20
2.001026456944437
 30
0.0
 40
0.0859
100
AcDbArc
 50
262.4281658135589
 51
4.339590960723602
  0
LWPOLYLINE
  5
1BE
100
AcDbEntity
  8
USP-GEO
100
AcDbPolyline
 90
        2
 70
   128
 43
0.0
 10
51.52165506593578
 20
2.090098347355691
 10
51.52165506593578
 20
2.006577933874943
  0
LWPOLYLINE
  5
1BF
100
AcDbEntity
  8
USP-GEO
100
AcDbPolyline
 90
        2
 70
   128
 43
0.0
 10
51.68869589289728
 20
2.090098347355691
 10
51.68869589289728
 20
2.006577933874943
  0
ARC
  5
1C0
100
AcDbEntity
  8
USP-GEO
100
AcDbCircle
 10
53.11553974842323
 20
2.422826456944441
 30
0.0
 40
0.0859
100
AcDbArc
 50
265.1327847066038
 51
1.013338428129548
  0
ARC
  5
1C1
100
AcDbEntity
  8
USP-GEO
100
AcDbCircle
 10
53.11553974842323
 20
2.422826456944441
 30
0.0
 40
0.0859
100
AcDbArc
 50
179.1432947107608
 51
265.1327847066038
  0
LWPOLYLINE
  5
1C2
100
AcDbEntity
  8
USP-GEO
100
AcDbPolyline
 90
        2
 70
   128
 43
0.0
 10
53.19206333555072
 20
2.507700414759426
 10
53.19206333555072
 20
2.424180001278678
  0
LWPOLYLINE
  5
1C3
100
AcDbEntity
  8
USP-GEO
100
AcDbPolyline
 90
        2
 70
   128
 43
0.0
 10
53.02502250858922
 20
2.507700414759426
 10
53.02502250858922
 20
2.424180001278678
  0
LWPOLYLINE
  5
1C4
100
AcDbEntity
  8
USP-GEO
100
AcDbPolyline
 90
        2
 70
   128
 43
0.0
 10
65.72847739901084
 20
2.758261655201668
 10
65.72847739901084
 20
0.2505612404422379
  0
ARC
  5
1C5
100
AcDbEntity
  8
USP-GEO
100
AcDbCircle
 10
56.11553974842323
 20
2.501026456944451
 30
0.0
 40
0.0859
100
AcDbArc
 50
88.84015188384344
 51
175.329636017079
  0
ARC
  5
1C6
100
AcDbEntity
  8
USP-GEO
100
AcDbCircle
 10
56.11553974842323
 20
2.501026456944451
 30
0.0
 40
0.0859
100
AcDbArc
 50
4.471338645835017
 51
88.84015188384344
  0
ARC
  5
1C7
100
AcDbEntity
  8
USP-GEO
100
AcDbCircle
 10
59.11553974842322
 20
2.501026456944451
 30
0.0
 40
0.0859
100
AcDbArc
 50
83.26644067813985
 51
174.7671437041597
  0
ARC
  5
1C8
100
AcDbEntity
  8
USP-GEO
100
AcDbCircle
 10
59.11553974842322
 20
2.501026456944451
 30
0.0
 40
0.0859
100
AcDbArc
 50
4.053879507727973
 51
83.26644067813985
  0
ARC
  5
1C9
100
AcDbEntity
  8
USP-GEO
100
AcDbCircle
 10
62.11553974842321
 20
2.501026456944451
 30
0.0
 40
0.0859
100
AcDbArc
 50
77.81751127874014
 51
174.0511603348104
  0
ARC
  5
1CA
100
AcDbEntity
  8
USP-GEO
100
AcDbCircle
 10
62.11553974842321
 20
2.501026456944451
 30
0.0
 40
0.0859
100
AcDbArc
 50
3.70761526465156
 51
77.81751127874014
  0
ARC
  5
1CB
100
AcDbEntity
  8
USP-GEO
100
AcDbCircle
 10
65.1155397484232
 20
2.501026456944451
 30
0.0
 40
0.0859
100
AcDbArc
 50
3.415784154502654
 51
98.49118344581361
  0
ARC
  5
1CC
100
AcDbEntity
  8
USP-GEO
100
AcDbCircle
 10
65.1155397484232
 20
2.501026456944451
 30
0.0
 40
0.0859
100
AcDbArc
 50
98.49118344581361
 51
176.0634701927329
  0
ARC
  5
1CD
100
AcDbEntity
  8
USP-GEO
100
AcDbCircle
 10
63.6155397484232
 20
2.001026456944451
 30
0.0
 40
0.0859
100
AcDbArc
 50
286.3267978641488
 51
2.987858834692793
  0
ARC
  5
1CE
100
AcDbEntity
  8
USP-GEO
100
AcDbCircle
 10
63.61553974842322
 20
2.079226456944446
 30
0.0
 40
0.0859
100
AcDbArc
 50
5.836395982094742
 51
76.39804942080307
  0
ARC
  5
1CF
100
AcDbEntity
  8
USP-GEO
100
AcDbCircle
 10
63.61553974842322
 20
0.5792264569444612
 30
0.0
 40
0.0859
100
AcDbArc
 50
2.915306194131887
 51
75.59746094590747
  0
ARC
  5
1D0
100
AcDbEntity
  8
USP-GEO
100
AcDbCircle
 10
63.6155397484232
 20
0.5010264569444516
 30
0.0
 40
0.0859
100
AcDbArc
 50
285.3108446905695
 51
0.0517279019825295
  0
ARC
  5
1D1
100
AcDbEntity
  8
USP-GEO
100
AcDbCircle
 10
59.11553974842322
 20
1.001026456944451
 30
0.0
 40
0.0859
100
AcDbArc
 50
82.83730562651868
 51
179.0420297739128
  0
ARC
  5
1D2
100
AcDbEntity
  8
USP-GEO
100
AcDbCircle
 10
62.11553974842321
 20
1.001026456944451
 30
0.0
 40
0.0859
100
AcDbArc
 50
77.05885335819651
 51
178.9100961774926
  0
ARC
  5
1D3
100
AcDbEntity
  8
USP-GEO
100
AcDbCircle
 10
54.61553974842322
 20
0.5010264569444374
 30
0.0
 40
0.0859
100
AcDbArc
 50
268.9415068960639
 51
0.0671118370326768
  0
ARC
  5
1D4
100
AcDbEntity
  8
USP-GEO
100
AcDbCircle
 10
54.61553974842322
 20
0.5010264569444374
 30
0.0
 40
0.0859
100
AcDbArc
 50
179.9353203787067
 51
268.9415068960639
  0
ARC
  5
1D5
100
AcDbEntity
  8
USP-GEO
100
AcDbCircle
 10
57.61553974842321
 20
0.5010264569444516
 30
0.0
 40
0.0859
100
AcDbArc
 50
274.9882997118088
 51
0.0605908277034402
  0
ARC
  5
1D6
100
AcDbEntity
  8
USP-GEO
100
AcDbCircle
 10
57.61553974842321
 20
0.5010264569444516
 30
0.0
 40
0.0859
100
AcDbArc
 50
179.9278352098258
 51
274.9882997118088
  0
ARC
  5
1D7
100
AcDbEntity
  8
USP-GEO
100
AcDbCircle
 10
54.61553974842323
 20
0.579226456944447
 30
0.0
 40
0.0859
100
AcDbArc
 50
3.780095504705575
 51
90.992899420404
  0
LWPOLYLINE
  5
1D8
100
AcDbEntity
  8
USP-GEO
100
AcDbPolyline
 90
        2
 70
   128
 43
0.0
 10
54.53047796157969
 20
0.5846428943652278
 10
54.53047796157969
 20
0.5011224808844795
  0
ARC
  5
1D9
100
AcDbEntity
  8
USP-GEO
100
AcDbCircle
 10
54.61553974842322
 20
0.579226456944447
 30
0.0
 40
0.0859
100
AcDbArc
 50
90.99289942039945
 51
176.3565240091989
  0
LWPOLYLINE
  5
1DA
100
AcDbEntity
  8
USP-GEO
100
AcDbPolyline
 90
        2
 70
   128
 43
0.0
 10
54.69751878854118
 20
0.5846428943652278
 10
54.69751878854118
 20
0.5011224808844795
  0
LWPOLYLINE
  5
1DB
100
AcDbEntity
  8
USP-GEO
100
AcDbPolyline
 90
        2
 70
   128
 43
0.0
 10
57.70634168418509
 20
0.5846428943652278
 10
57.70634168418509
 20
0.5011224808844795
  0
LWPOLYLINE
  5
1DC
100
AcDbEntity
  8
USP-GEO
100
AcDbPolyline
 90
        2
 70
   128
 43
0.0
 10
57.5393008572236
 20
0.5846428943652278
 10
57.5393008572236
 20
0.5011224808844795
  0
ARC
  5
1DD
100
AcDbEntity
  8
USP-GEO
100
AcDbCircle
 10
57.61553974842321
 20
0.579226456944447
 30
0.0
 40
0.0859
100
AcDbArc
 50
85.3194650781535
 51
175.9362153357805
  0
ARC
  5
1DE
100
AcDbEntity
  8
USP-GEO
100
AcDbCircle
 10
57.61553974842322
 20
0.579226456944447
 30
0.0
 40
0.0859
100
AcDbArc
 50
3.413712459751514
 51
85.31946507815806
  0
LWPOLYLINE
  5
1DF
100
AcDbEntity
  8
USP-GEO
100
AcDbPolyline
 90
        2
 70
   128
 43
0.0
 10
56.20088623119463
 20
1.002244961768962
 10
56.20088623119463
 20
0.918724548288214
  0
LWPOLYLINE
  5
1E0
100
AcDbEntity
  8
USP-GEO
100
AcDbPolyline
 90
        2
 70
   128
 43
0.0
 10
56.03384540423313
 20
1.002244961768962
 10
56.03384540423313
 20
0.918724548288214
  0
ARC
  5
1E1
100
AcDbEntity
  8
USP-GEO
100
AcDbCircle
 10
56.11553974842323
 20
0.9228264569444419
 30
0.0
 40
0.0859
100
AcDbArc
 50
182.8744321377859
 51
271.1938843659079
  0
ARC
  5
1E2
100
AcDbEntity
  8
USP-GEO
100
AcDbCircle
 10
56.11553974842323
 20
0.9228264569444419
 30
0.0
 40
0.0859
100
AcDbArc
 50
271.1938843659079
 51
357.2483770340482
  0
ARC
  5
1E3
100
AcDbEntity
  8
USP-GEO
100
AcDbCircle
 10
56.11553974842323
 20
1.001026456944451
 30
0.0
 40
0.0859
100
AcDbArc
 50
0.81796505763599
 51
88.76550379897075
  0
ARC
  5
1E4
100
AcDbEntity
  8
USP-GEO
100
AcDbCircle
 10
56.11553974842323
 20
1.001026456944451
 30
0.0
 40
0.0859
100
AcDbArc
 50
88.76550379897075
 51
179.1454731916435
  0
ARC
  5
1E5
100
AcDbEntity
  8
USP-GEO
100
AcDbCircle
 10
60.61553974842321
 20
0.5010264569444516
 30
0.0
 40
0.0859
100
AcDbArc
 50
179.9208425050508
 51
279.5373772747485
  0
ARC
  5
1E6
100
AcDbEntity
  8
USP-GEO
100
AcDbCircle
 10
63.6155397484232
 20
0.5010264569444516
 30
0.0
 40
0.0859
100
AcDbArc
 50
179.9093332030192
 51
285.3108446905695
  0
LWPOLYLINE
  5
1E7
100
AcDbEntity
  8
USP-GEO
100
AcDbPolyline
 90
        2
 70
   128
 43
0.0
 10
60.715164579829
 20
0.5846428943652278
 10
60.715164579829
 20
0.5011224808844795
  0
LWPOLYLINE
  5
1E8
100
AcDbEntity
  8
USP-GEO
100
AcDbPolyline
 90
        2
 70
   128
 43
0.0
 10
60.54603574253049
 20
0.5846428943652278
 10
60.54603574253049
 20
0.5011224808844795
  0
ARC
  5
1E9
100
AcDbEntity
  8
USP-GEO
100
AcDbCircle
 10
60.61553974842321
 20
0.5010264569444516
 30
0.0
 40
0.0859
100
AcDbArc
 50
279.5373772747485
 51
0.0552248341546464
  0
ARC
  5
1EA
100
AcDbEntity
  8
USP-GEO
100
AcDbCircle
 10
60.61553974842321
 20
0.579226456944447
 30
0.0
 40
0.0859
100
AcDbArc
 50
81.04387575710251
 51
175.5439540005411
  0
ARC
  5
1EB
100
AcDbEntity
  8
USP-GEO
100
AcDbCircle
 10
60.61553974842322
 20
0.579226456944447
 30
0.0
 40
0.0859
100
AcDbArc
 50
3.112012961094897
 51
81.04387575710697
  0
LWPOLYLINE
  5
1EC
100
AcDbEntity
  8
USP-GEO
100
AcDbPolyline
 90
        2
 70
   128
 43
0.0
 10
59.20970912683854
 20
1.002244961768962
 10
59.20970912683854
 20
0.918724548288214
  0
LWPOLYLINE
  5
1ED
100
AcDbEntity
  8
USP-GEO
100
AcDbPolyline
 90
        2
 70
   128
 43
0.0
 10
59.04266829987705
 20
1.002244961768962
 10
59.04266829987705
 20
0.918724548288214
  0
ARC
  5
1EE
100
AcDbEntity
  8
USP-GEO
100
AcDbCircle
 10
59.11553974842322
 20
0.9228264569444419
 30
0.0
 40
0.0859
100
AcDbArc
 50
276.9293202517971
 51
357.5058391013815
  0
ARC
  5
1EF
100
AcDbEntity
  8
USP-GEO
100
AcDbCircle
 10
59.11553974842322
 20
0.9228264569444419
 30
0.0
 40
0.0859
100
AcDbArc
 50
183.2217597569225
 51
276.9293202517971
  0
ARC
  5
1F0
100
AcDbEntity
  8
USP-GEO
100
AcDbCircle
 10
59.11553974842322
 20
1.001026456944451
 30
0.0
 40
0.0859
100
AcDbArc
 50
0.7413374594290856
 51
82.83730562651868
  0
LWPOLYLINE
  5
1F1
100
AcDbEntity
  8
USP-GEO
100
AcDbPolyline
 90
        2
 70
   128
 43
0.0
 10
63.5548586381744
 20
0.5846428943652278
 10
63.5548586381744
 20
0.5011224808844795
  0
ARC
  5
1F2
100
AcDbEntity
  8
USP-GEO
100
AcDbCircle
 10
63.6155397484232
 20
0.5792264569444612
 30
0.0
 40
0.0859
100
AcDbArc
 50
75.59746094589889
 51
174.8992575249651
  0
LWPOLYLINE
  5
1F3
100
AcDbEntity
  8
USP-GEO
100
AcDbPolyline
 90
        2
 70
   128
 43
0.0
 10
62.21853202248245
 20
1.002244961768962
 10
62.21853202248245
 20
0.918724548288214
  0
LWPOLYLINE
  5
1F4
100
AcDbEntity
  8
USP-GEO
100
AcDbPolyline
 90
        2
 70
   128
 43
0.0
 10
62.05149119552095
 20
1.002244961768962
 10
62.05149119552095
 20
0.918724548288214
  0
ARC
  5
1F5
100
AcDbEntity
  8
USP-GEO
100
AcDbCircle
 10
62.11553974842321
 20
0.9228264569444561
 30
0.0
 40
0.0859
100
AcDbArc
 50
183.6644312728243
 51
282.5289531690525
  0
ARC
  5
1F6
100
AcDbEntity
  8
USP-GEO
100
AcDbCircle
 10
62.11553974842321
 20
0.9228264569444561
 30
0.0
 40
0.0859
100
AcDbArc
 50
282.5289531690525
 51
357.7192667228441
  0
ARC
  5
1F7
100
AcDbEntity
  8
USP-GEO
100
AcDbCircle
 10
62.11553974842321
 20
1.001026456944451
 30
0.0
 40
0.0859
100
AcDbArc
 50
0.6778365392103644
 51
77.05885335819651
  0
ARC
  5
1F8
100
AcDbEntity
  8
USP-GEO
100
AcDbCircle
 10
54.61553974842323
 20
2.079226456944446
 30
0.0
 40
0.0859
100
AcDbArc
 50
7.554365851867628
 51
90.9355247862377
  0
ARC
  5
1F9
100
AcDbEntity
  8
USP-GEO
100
AcDbCircle
 10
54.61553974842322
 20
2.079226456944446
 30
0.0
 40
0.0859
100
AcDbArc
 50
90.93552478623337
 51
172.7164195997292
  0
ARC
  5
1FA
100
AcDbEntity
  8
USP-GEO
100
AcDbCircle
 10
54.61553974842322
 20
2.001026456944437
 30
0.0
 40
0.0859
100
AcDbArc
 50
268.8674632478561
 51
3.874055173006829
  0
ARC
  5
1FB
100
AcDbEntity
  8
USP-GEO
100
AcDbCircle
 10
54.61553974842322
 20
2.001026456944437
 30
0.0
 40
0.0859
100
AcDbArc
 50
176.2659408368411
 51
268.8674632478561
  0
LWPOLYLINE
  5
1FC
100
AcDbEntity
  8
USP-GEO
100
AcDbPolyline
 90
        2
 70
   128
 43
0.0
 10
54.53047796157969
 20
2.090098347355691
 10
54.53047796157969
 20
2.006577933874943
  0
LWPOLYLINE
  5
1FD
100
AcDbEntity
  8
USP-GEO
100
AcDbPolyline
 90
        2
 70
   128
 43
0.0
 10
54.69751878854118
 20
2.090098347355691
 10
54.69751878854118
 20
2.006577933874943
  0
ARC
  5
1FE
100
AcDbEntity
  8
USP-GEO
100
AcDbCircle
 10
57.61553974842322
 20
2.079226456944446
 30
0.0
 40
0.0859
100
AcDbArc
 50
6.827631310617147
 51
85.5888788680536
  0
ARC
  5
1FF
100
AcDbEntity
  8
USP-GEO
100
AcDbCircle
 10
57.61553974842321
 20
2.079226456944446
 30
0.0
 40
0.0859
100
AcDbArc
 50
85.58887886804932
 51
171.8841713266559
  0
ARC
  5
200
100
AcDbEntity
  8
USP-GEO
100
AcDbCircle
 10
57.61553974842321
 20
2.001026456944451
 30
0.0
 40
0.0859
100
AcDbArc
 50
275.3353799886222
 51
3.498612340962799
  0
ARC
  5
201
100
AcDbEntity
  8
USP-GEO
100
AcDbCircle
 10
57.61553974842321
 20
2.001026456944451
 30
0.0
 40
0.0859
100
AcDbArc
 50
175.8352515765799
 51
275.3353799886222
  0
LWPOLYLINE
  5
202
100
AcDbEntity
  8
USP-GEO
100
AcDbPolyline
 90
        2
 70
   128
 43
0.0
 10
57.70634168418509
 20
2.090098347355691
 10
57.70634168418509
 20
2.006577933874943
  0
LWPOLYLINE
  5
203
100
AcDbEntity
  8
USP-GEO
100
AcDbPolyline
 90
        2
 70
   128
 43
0.0
 10
57.5393008572236
 20
2.090098347355691
 10
57.5393008572236
 20
2.006577933874943
  0
ARC
  5
204
100
AcDbEntity
  8
USP-GEO
100
AcDbCircle
 10
56.11553974842323
 20
2.422826456944441
 30
0.0
 40
0.0859
100
AcDbArc
 50
271.2731268043369
 51
0.9086007318564607
  0
ARC
  5
205
100
AcDbEntity
  8
USP-GEO
100
AcDbCircle
 10
56.11553974842323
 20
2.422826456944441
 30
0.0
 40
0.0859
100
AcDbArc
 50
179.0507876239681
 51
271.2731268043369
  0
LWPOLYLINE
  5
206
100
AcDbEntity
  8
USP-GEO
100
AcDbPolyline
 90
        2
 70
   128
 43
0.0
 10
56.20088623119463
 20
2.507700414759426
 10
56.20088623119463
 20
2.424180001278678
  0
LWPOLYLINE
  5
207
100
AcDbEntity
  8
USP-GEO
100
AcDbPolyline
 90
        2
 70
   128
 43
0.0
 10
56.03384540423313
 20
2.507700414759426
 10
56.03384540423313
 20
2.424180001278678
  0
ARC
  5
208
100
AcDbEntity
  8
USP-GEO
100
AcDbCircle
 10
60.61553974842322
 20
2.079226456944446
 30
0.0
 40
0.0859
100
AcDbArc
 50
6.227947293837954
 51
81.5538098597176
  0
ARC
  5
209
100
AcDbEntity
  8
USP-GEO
100
AcDbCircle
 10
60.61553974842321
 20
2.079226456944446
 30
0.0
 40
0.0859
100
AcDbArc
 50
81.55380985971339
 51
171.1097735542871
  0
ARC
  5
20A
100
AcDbEntity
  8
USP-GEO
100
AcDbCircle
 10
60.61553974842321
 20
2.001026456944451
 30
0.0
 40
0.0859
100
AcDbArc
 50
280.1911602470315
 51
3.189441643002978
  0
ARC
  5
20B
100
AcDbEntity
  8
USP-GEO
100
AcDbCircle
 10
60.61553974842321
 20
2.001026456944451
 30
0.0
 40
0.0859
100
AcDbArc
 50
175.4333226451383
 51
280.1911602470315
  0
LWPOLYLINE
  5
20C
100
AcDbEntity
  8
USP-GEO
100
AcDbPolyline
 90
        2
 70
   128
 43
0.0
 10
60.715164579829
 20
2.090098347355691
 10
60.715164579829
 20
2.006577933874943
  0
LWPOLYLINE
  5
20D
100
AcDbEntity
  8
USP-GEO
100
AcDbPolyline
 90
        2
 70
   128
 43
0.0
 10
60.54603574253049
 20
2.090098347355691
 10
60.54603574253049
 20
2.006577933874943
  0
ARC
  5
20E
100
AcDbEntity
  8
USP-GEO
100
AcDbCircle
 10
59.11553974842322
 20
2.422826456944441
 30
0.0
 40
0.0859
100
AcDbArc
 50
277.3844686624444
 51
0.8234846506070944
  0
ARC
  5
20F
100
AcDbEntity
  8
USP-GEO
100
AcDbCircle
 10
59.11553974842322
 20
2.422826456944441
 30
0.0
 40
0.0859
100
AcDbArc
 50
178.935886929962
 51
277.3844686624444
  0
LWPOLYLINE
  5
210
100
AcDbEntity
  8
USP-GEO
100
AcDbPolyline
 90
        2
 70
   128
 43
0.0
 10
59.04266829987705
 20
2.507700414759426
 10
59.04266829987705
 20
2.424180001278678
  0
LWPOLYLINE
  5
211
100
AcDbEntity
  8
USP-GEO
100
AcDbPolyline
 90
        2
 70
   128
 43
0.0
 10
59.20970912683854
 20
2.507700414759426
 10
59.20970912683854
 20
2.424180001278678
  0
ARC
  5
212
100
AcDbEntity
  8
USP-GEO
100
AcDbCircle
 10
63.6155397484232
 20
2.079226456944446
 30
0.0
 40
0.0859
100
AcDbArc
 50
76.39804942079492
 51
169.8424107979701
  0
ARC
  5
213
100
AcDbEntity
  8
USP-GEO
100
AcDbCircle
 10
63.6155397484232
 20
2.001026456944451
 30
0.0
 40
0.0859
100
AcDbArc
 50
174.7727847152414
 51
286.3267978641488
  0
LWPOLYLINE
  5
214
100
AcDbEntity
  8
USP-GEO
100
AcDbPolyline
 90
        2
 70
   128
 43
0.0
 10
63.5548586381744
 20
2.090098347355691
 10
63.5548586381744
 20
2.006577933874943
  0
ARC
  5
215
100
AcDbEntity
  8
USP-GEO
100
AcDbCircle
 10
62.11553974842321
 20
2.422826456944456
 30
0.0
 40
0.0859
100
AcDbArc
 50
283.3319830709717
 51
0.752948840370337
  0
ARC
  5
216
100
AcDbEntity
  8
USP-GEO
100
AcDbCircle
 10
62.11553974842321
 20
2.422826456944456
 30
0.0
 40
0.0859
100
AcDbArc
 50
178.7893428946069
 51
283.3319830709717
  0
LWPOLYLINE
  5
217
100
AcDbEntity
  8
USP-GEO
100
AcDbPolyline
 90
        2
 70
   128
 43
0.0
 10
62.21853202248245
 20
2.507700414759426
 10
62.21853202248245
 20
2.424180001278678
  0
LWPOLYLINE
  5
218
100
AcDbEntity
  8
USP-GEO
100
AcDbPolyline
 90
        2
 70
   128
 43
0.0
 10
62.05149119552095
 20
2.507700414759426
 10
62.05149119552095
 20
2.424180001278678
  0
ARC
  5
219
100
AcDbEntity
  8
USP-GEO
100
AcDbCircle
 10
65.1155397484232
 20
1.001026456944451
 30
0.0
 40
0.0859
100
AcDbArc
 50
0.6243555369248121
 51
99.02910201744205
  0
LWPOLYLINE
  5
21A
100
AcDbEntity
  8
USP-GEO
100
AcDbPolyline
 90
        2
 70
   128
 43
0.0
 10
65.72847739901084
 20
0.2505612404422379
 10
65.4779161585686
 20
0.0
  0
LWPOLYLINE
  5
21B
100
AcDbEntity
  8
USP-GEO
100
AcDbPolyline
 90
        2
 70
   128
 43
0.0
 10
63.72189946513589
 20
0.5846428943652278
 10
63.72189946513589
 20
0.5011224808844795
  0
LWPOLYLINE
  5
21C
100
AcDbEntity
  8
USP-GEO
100
AcDbPolyline
 90
        2
 70
   128
 43
0.0
 10
65.01855388442449
 20
1.002244961768962
 10
65.01855388442449
 20
0.918724548288214
  0
LWPOLYLINE
  5
21D
100
AcDbEntity
  8
USP-GEO
100
AcDbPolyline
 90
        2
 70
   128
 43
0.0
 10
65.22735491812635
 20
1.002244961768962
 10
65.22735491812635
 20
0.918724548288214
  0
ARC
  5
21E
100
AcDbEntity
  8
USP-GEO
100
AcDbCircle
 10
65.1155397484232
 20
0.9228264569444561
 30
0.0
 40
0.0859
100
AcDbArc
 50
261.2633600421351
 51
357.8990622546256
  0
ARC
  5
21F
100
AcDbEntity
  8
USP-GEO
100
AcDbCircle
 10
65.1155397484232
 20
0.9228264569444561
 30
0.0
 40
0.0859
100
AcDbArc
 50
182.4218175806091
 51
261.2633600421351
  0
ARC
  5
220
100
AcDbEntity
  8
USP-GEO
100
AcDbCircle
 10
65.1155397484232
 20
1.001026456944451
 30
0.0
 40
0.0859
100
AcDbArc
 50
99.02910201744205
 51
179.2801888043582
  0
LWPOLYLINE
  5
221
100
AcDbEntity
  8
USP-GEO
100
AcDbPolyline
 90
        2
 70
   128
 43
0.0
 10
63.72189946513589
 20
2.090098347355691
 10
63.72189946513589
 20
2.006577933874943
  0
ARC
  5
222
100
AcDbEntity
  8
USP-GEO
100
AcDbCircle
 10
65.1155397484232
 20
2.422826456944456
 30
0.0
 40
0.0859
100
AcDbArc
 50
179.2004263291877
 51
260.6931346592147
  0
ARC
  5
223
100
AcDbEntity
  8
USP-GEO
100
AcDbCircle
 10
65.1155397484232
 20
2.422826456944456
 30
0.0
 40
0.0859
100
AcDbArc
 50
260.6931346592147
 51
0.6935426580225859
  0
LWPOLYLINE
  5
224
100
AcDbEntity
  8
USP-GEO
100
AcDbPolyline
 90
        2
 70
   128
 43
0.0
 10
65.01855388442449
 20
2.507700414759426
 10
65.01855388442449
 20
2.424180001278678
  0
LWPOLYLINE
  5
225
100
AcDbEntity
  8
USP-GEO
100
AcDbPolyline
 90
        2
 70
   128
 43
0.0
 10
65.22735491812635
 20
2.507700414759426
 10
65.22735491812635
 20
2.424180001278678
  0
LWPOLYLINE
  5
226
100
AcDbEntity
  8
USP-GEO
100
AcDbPolyline
 90
        2
 70
   128
 43
0.0
 10
65.4779161585686
 20
3.008822895643906
 10
65.72847739901084
 20
2.758261655201668
  0
ENDBLK
  5
229
100
AcDbEntity
  8
0
100
AcDbBlockEnd
  0
ENDSEC
  0
SECTION
  2
ENTITIES
  0
INSERT
  5
3
100
AcDbEntity
  8
USP
100
AcDbBlockReference
  2
MSTC66_F
 10
0.0115505461916584
 20
4.798171473431573
 30
0.0
  0
ENDSEC
  0
SECTION
  2
OBJECTS
  0
DICTIONARY
  5
242
102
{ACAD_XDICTIONARY
360
243
102
}
100
AcDbDictionary
  3
ACAD_GROUP
350
240
  3
ACAD_MLINESTYLE
350
241
  0
DICTIONARY
  5
E
100
AcDbDictionary
280
     1
  3
ACAD_XREC_ROUNDTRIP
360
F
  0
DICTIONARY
  5
9
100
AcDbDictionary
280
     1
  3
ACAD_XREC_ROUNDTRIP
360
A
  0
DICTIONARY
  5
22A
100
AcDbDictionary
280
     1
  3
ACAD_LAYOUTSELFREF
360
22B
  0
DICTIONARY
  5
22F
100
AcDbDictionary
280
     1
  3
ACAD_LAYOUTSELFREF
360
230
  0
DICTIONARY
  5
243
100
AcDbDictionary
280
     1
  3
ACAD_XREC_ROUNDTRIP
360
244
  0
DICTIONARY
  5
240
102
{ACAD_REACTORS
330
242
102
}
100
AcDbDictionary
  0
DICTIONARY
  5
241
102
{ACAD_REACTORS
330
242
102
}
100
AcDbDictionary
  3
STANDARD
350
245
  0
XRECORD
  5
F
102
{ACAD_REACTORS
330
E
102
}
100
AcDbXrecord
102
EXTNAMES
  1
USP-GEO
  2
USP-Geo
  0
XRECORD
  5
A
102
{ACAD_REACTORS
330
9
102
}
100
AcDbXrecord
102
EXTNAMES
  1
USP-TXT
  2
USP-Txt
  0
XRECORD
  5
22B
102
{ACAD_REACTORS
330
22A
102
}
100
AcDbXrecord
340
18
  0
XRECORD
  5
230
102
{ACAD_REACTORS
330
22F
102
}
100
AcDbXrecord
340
15
  0
XRECORD
  5
244
102
{ACAD_REACTORS
330
243
102
}
100
AcDbXrecord
102
EXTNAMES
  1
ACDBVARIABLEDICTIONARY
  2
AcDbVariableDictionary
  0
MLINESTYLE
  5
245
102
{ACAD_REACTORS
330
241
102
}
100
AcDbMlineStyle
  2
STANDARD
 70
     0
  3

 62
     0
 51
90.0
 52
90.0
 71
     2
 49
0.5
 62
   256
  6
BYLAYER
 49
-0.5
 62
   256
  6
BYLAYER
  0
ENDSEC
  0
EOF
