  0
SECTION
  2
HEADER
  9
$ACADVER
  1
AC1014
  9
$ACADMAINTVER
 70
     9
  9
$DWGCODEPAGE
  3
ANSI_1252
  9
$INSBASE
 10
0.0
 20
0.0
 30
0.0
  9
$EXTMIN
 10
0.0054576576831998
 20
0.0004040240803178
 30
0.0
  9
$EXTMAX
 10
28.24611315180698
 20
5.439369186786224
 30
4.196879291630274
  9
$LIMMIN
 10
0.0
 20
0.0
  9
$LIMMAX
 10
12.0
 20
9.0
  9
$ORTHOMODE
 70
     1
  9
$REGENMODE
 70
     1
  9
$FILLMODE
 70
     1
  9
$QTEXTMODE
 70
     0
  9
$MIRRTEXT
 70
     0
  9
$DRAGMODE
 70
     2
  9
$LTSCALE
 40
1.5
  9
$OSMODE
 70
     0
  9
$ATTMODE
 70
     1
  9
$TEXTSIZE
 40
0.75
  9
$TRACEWID
 40
0.05
  9
$TEXTSTYLE
  7
STANDARD
  9
$CLAYER
  8
USP
  9
$CELTYPE
  6
BYLAYER
  9
$CECOLOR
 62
   256
  9
$CELTSCALE
 40
1.0
  9
$DELOBJ
 70
     1
  9
$DISPSILH
 70
     1
  9
$DIMSCALE
 40
3.0
  9
$DIMASZ
 40
0.125
  9
$DIMEXO
 40
0.0625
  9
$DIMDLI
 40
0.37890625
  9
$DIMRND
 40
0.0
  9
$DIMDLE
 40
0.0
  9
$DIMEXE
 40
0.09375
  9
$DIMTP
 40
0.0
  9
$DIMTM
 40
0.0
  9
$DIMTXT
 40
0.109375
  9
$DIMCEN
 40
0.0
  9
$DIMTSZ
 40
0.0
  9
$DIMTOL
 70
     0
  9
$DIMLIM
 70
     0
  9
$DIMTIH
 70
     1
  9
$DIMTOH
 70
     1
  9
$DIMSE1
 70
     0
  9
$DIMSE2
 70
     0
  9
$DIMTAD
 70
     0
  9
$DIMZIN
 70
     8
  9
$DIMBLK
  1

  9
$DIMASO
 70
     1
  9
$DIMSHO
 70
     1
  9
$DIMPOST
  1

  9
$DIMAPOST
  1

  9
$DIMALT
 70
     0
  9
$DIMALTD
 70
     2
  9
$DIMALTF
 40
25.4
  9
$DIMLFAC
 40
1.0
  9
$DIMTOFL
 70
     0
  9
$DIMTVP
 40
0.0
  9
$DIMTIX
 70
     0
  9
$DIMSOXD
 70
     0
  9
$DIMSAH
 70
     0
  9
$DIMBLK1
  1

  9
$DIMBLK2
  1

  9
$DIMSTYLE
  2
STANDARD
  9
$DIMCLRD
 70
     0
  9
$DIMCLRE
 70
     0
  9
$DIMCLRT
 70
   256
  9
$DIMTFAC
 40
1.0
  9
$DIMGAP
 40
0.08984375
  9
$DIMJUST
 70
     0
  9
$DIMSD1
 70
     0
  9
$DIMSD2
 70
     0
  9
$DIMTOLJ
 70
     1
  9
$DIMTZIN
 70
     0
  9
$DIMALTZ
 70
     0
  9
$DIMALTTZ
 70
     0
  9
$DIMFIT
 70
     3
  9
$DIMUPT
 70
     1
  9
$DIMUNIT
 70
     7
  9
$DIMDEC
 70
     4
  9
$DIMTDEC
 70
     4
  9
$DIMALTU
 70
     2
  9
$DIMALTTD
 70
     2
  9
$DIMTXSTY
  7
STANDARD
  9
$DIMAUNIT
 70
     0
  9
$LUNITS
 70
     5
  9
$LUPREC
 70
     6
  9
$SKETCHINC
 40
0.1
  9
$FILLETRAD
 40
0.0
  9
$AUNITS
 70
     0
  9
$AUPREC
 70
     1
  9
$MENU
  1
CUSTOM
  9
$ELEVATION
 40
0.0
  9
$PELEVATION
 40
0.0
  9
$THICKNESS
 40
0.0
  9
$LIMCHECK
 70
     0
  9
$BLIPMODE
 70
     0
  9
$CHAMFERA
 40
0.0
  9
$CHAMFERB
 40
0.0
  9
$CHAMFERC
 40
0.0
  9
$CHAMFERD
 40
0.0
  9
$SKPOLY
 70
     0
  9
$TDCREATE
 40
2451263.663231366
  9
$TDUPDATE
 40
2452768.665597870
  9
$TDINDWG
 40
0.6166454051
  9
$TDUSRTIMER
 40
0.6166454051
  9
$USRTIMER
 70
     1
  9
$ANGBASE
 50
0.0
  9
$ANGDIR
 70
     0
  9
$PDMODE
 70
     0
  9
$PDSIZE
 40
0.0
  9
$PLINEWID
 40
0.0
  9
$COORDS
 70
     2
  9
$SPLFRAME
 70
     0
  9
$SPLINETYPE
 70
     6
  9
$SPLINESEGS
 70
     8
  9
$ATTDIA
 70
     0
  9
$ATTREQ
 70
     0
  9
$HANDLING
 70
     1
  9
$HANDSEED
  5
11E
  9
$SURFTAB1
 70
     6
  9
$SURFTAB2
 70
     6
  9
$SURFTYPE
 70
     6
  9
$SURFU
 70
     6
  9
$SURFV
 70
     6
  9
$UCSNAME
  2

  9
$UCSORG
 10
0.0
 20
0.0
 30
0.0
  9
$UCSXDIR
 10
1.0
 20
0.0
 30
0.0
  9
$UCSYDIR
 10
0.0
 20
1.0
 30
0.0
  9
$PUCSNAME
  2

  9
$PUCSORG
 10
0.0
 20
0.0
 30
0.0
  9
$PUCSXDIR
 10
1.0
 20
0.0
 30
0.0
  9
$PUCSYDIR
 10
0.0
 20
1.0
 30
0.0
  9
$USERI1
 70
     0
  9
$USERI2
 70
     0
  9
$USERI3
 70
     0
  9
$USERI4
 70
     0
  9
$USERI5
 70
     0
  9
$USERR1
 40
0.0
  9
$USERR2
 40
0.0
  9
$USERR3
 40
0.0
  9
$USERR4
 40
0.0
  9
$USERR5
 40
0.0
  9
$WORLDVIEW
 70
     1
  9
$SHADEDGE
 70
     3
  9
$SHADEDIF
 70
    70
  9
$TILEMODE
 70
     1
  9
$MAXACTVP
 70
    16
  9
$PINSBASE
 10
0.0
 20
0.0
 30
0.0
  9
$PLIMCHECK
 70
     0
  9
$PEXTMIN
 10
1.000000000000000E+20
 20
1.000000000000000E+20
 30
1.000000000000000E+20
  9
$PEXTMAX
 10
-1.000000000000000E+20
 20
-1.000000000000000E+20
 30
-1.000000000000000E+20
  9
$PLIMMIN
 10
0.0
 20
0.0
  9
$PLIMMAX
 10
12.0
 20
9.0
  9
$UNITMODE
 70
     0
  9
$VISRETAIN
 70
     0
  9
$PLINEGEN
 70
     0
  9
$PSLTSCALE
 70
     0
  9
$TREEDEPTH
 70
  3020
  9
$PICKSTYLE
 70
     0
  9
$CMLSTYLE
  2
STANDARD
  9
$CMLJUST
 70
     0
  9
$CMLSCALE
 40
1.0
  9
$PROXYGRAPHICS
 70
     1
  9
$MEASUREMENT
 70
     0
  0
ENDSEC
  0
SECTION
  2
CLASSES
  0
CLASS
  1
ACDBDICTIONARYWDFLT
  2
AcDbDictionaryWithDefault
  3
AutoCAD 2000
 90
        0
280
     0
281
     0
  0
CLASS
  1
ACDBPLACEHOLDER
  2
AcDbPlaceHolder
  3
AutoCAD 2000
 90
        0
280
     0
281
     0
  0
CLASS
  1
LAYOUT
  2
AcDbLayout
  3
AutoCAD 2000
 90
        0
280
     0
281
     0
  0
CLASS
  1
DICTIONARYVAR
  2
AcDbDictionaryVar
  3
"AutoCAD"
 90
        0
280
     0
281
     0
  0
CLASS
  1
LONG_TRANSACTION
  2
AcDbLongTransaction
  3
AutoCAD 2000
 90
        0
280
     0
281
     0
  0
CLASS
  1
LWPOLYLINE
  2
AcDbPolyline
  3
"AutoCAD"
 90
        0
280
     0
281
     1
  0
CLASS
  1
HATCH
  2
AcDbHatch
  3
"ACAD_SEDONA"
 90
        0
280
     0
281
     1
  0
CLASS
  1
XRECORD
  2
AcDbXrecord
  3
"<Built In>"
 90
        0
280
     0
281
     0
  0
CLASS
  1
LONG_TRANSACTION
  2
AcDbLongTransaction
  3
AutoCAD 2000
 90
        0
280
     0
281
     0
  0
CLASS
  1
LWPOLYLINE
  2
AcDbPolyline
  3
"AutoCAD"
 90
        0
280
     0
281
     1
  0
CLASS
  1
HATCH
  2
AcDbHatch
  3
"ACAD_SEDONA"
 90
        0
280
     0
281
     1
  0
CLASS
  1
XRECORD
  2
AcDbXrecord
  3
"<Built In>"
 90
        0
280
     0
281
     0
  0
ENDSEC
  0
SECTION
  2
TABLES
  0
TABLE
  2
VPORT
  5
10E
100
AcDbSymbolTable
 70
     1
  0
VPORT
  5
10F
100
AcDbSymbolTableRecord
100
AcDbViewportTableRecord
  2
*ACTIVE
 70
     0
 10
0.0
 20
0.0
 11
1.0
 21
1.0
 12
-4.044797346611446
 22
-3.795788167128874
 13
0.0
 23
0.0
 14
1.0
 24
1.0
 15
0.0
 25
0.0
 16
0.0
 26
0.0
 36
1.0
 17
18.06596660309899
 27
8.119903606830565
 37
5.823974399722915
 40
27.2116803496109
 41
1.457627118644067
 42
50.0
 43
10.55307667737539
 44
10.55307667737539
 50
0.0
 51
0.0
 71
     0
 72
   100
 73
     1
 74
     1
 75
     0
 76
     0
 77
     0
 78
     0
  0
ENDTAB
  0
TABLE
  2
LTYPE
  5
109
100
AcDbSymbolTable
 70
     1
  0
LTYPE
  5
10A
100
AcDbSymbolTableRecord
100
AcDbLinetypeTableRecord
  2
BYBLOCK
 70
     0
  3

 72
    65
 73
     0
 40
0.0
  0
LTYPE
  5
10B
100
AcDbSymbolTableRecord
100
AcDbLinetypeTableRecord
  2
BYLAYER
 70
     0
  3

 72
    65
 73
     0
 40
0.0
  0
LTYPE
  5
5
100
AcDbSymbolTableRecord
100
AcDbLinetypeTableRecord
  2
CONTINUOUS
 70
     0
  3
Solid line
 72
    65
 73
     0
 40
0.0
  0
ENDTAB
  0
TABLE
  2
LAYER
  5
107
100
AcDbSymbolTable
 70
     4
  0
LAYER
  5
FC
100
AcDbSymbolTableRecord
100
AcDbLayerTableRecord
  2
0
 70
     0
 62
     7
  6
CONTINUOUS
  0
LAYER
  5
D
102
{ACAD_XDICTIONARY
360
E
102
}
100
AcDbSymbolTableRecord
100
AcDbLayerTableRecord
  2
USP-GEO
 70
     0
 62
     7
  6
CONTINUOUS
  0
LAYER
  5
8
102
{ACAD_XDICTIONARY
360
9
102
}
100
AcDbSymbolTableRecord
100
AcDbLayerTableRecord
  2
USP-TXT
 70
     0
 62
     7
  6
CONTINUOUS
  0
LAYER
  5
4
100
AcDbSymbolTableRecord
100
AcDbLayerTableRecord
  2
USP
 70
     0
 62
     7
  6
CONTINUOUS
  0
ENDTAB
  0
TABLE
  2
STYLE
  5
108
100
AcDbSymbolTable
 70
     1
  0
STYLE
  5
B
100
AcDbSymbolTableRecord
100
AcDbTextStyleTableRecord
  2
STANDARD
 70
     0
 40
0.0
 41
1.0
 50
0.0
 71
     0
 42
0.75
  3
txt
  4

  0
ENDTAB
  0
TABLE
  2
VIEW
  5
10C
100
AcDbSymbolTable
 70
     0
  0
ENDTAB
  0
TABLE
  2
UCS
  5
10D
100
AcDbSymbolTable
 70
     0
  0
ENDTAB
  0
TABLE
  2
APPID
  5
110
100
AcDbSymbolTable
 70
     1
  0
APPID
  5
111
100
AcDbSymbolTableRecord
100
AcDbRegAppTableRecord
  2
ACAD
 70
     0
  0
ENDTAB
  0
TABLE
  2
DIMSTYLE
  5
112
100
AcDbSymbolTable
 70
     1
  0
DIMSTYLE
105
11A
100
AcDbSymbolTableRecord
100
AcDbDimStyleTableRecord
  2
STANDARD
 70
     0
  3

  4

  5

  6

  7

 40
1.0
 41
0.18
 42
0.0625
 43
0.38
 44
0.18
 45
0.0
 46
0.0
 47
0.0
 48
0.0
140
0.18
141
0.09
142
0.0
143
25.4
144
1.0
145
0.0
146
1.0
147
0.09
 71
     0
 72
     0
 73
     1
 74
     1
 75
     0
 76
     0
 77
     0
 78
     0
170
     0
171
     2
172
     0
173
     0
174
     0
175
     0
176
     0
177
     0
178
     0
270
     2
271
     4
272
     4
273
     2
274
     2
340
B
275
     0
280
     0
281
     0
282
     0
283
     1
284
     0
285
     0
286
     0
287
     3
288
     0
  0
ENDTAB
  0
TABLE
  2
BLOCK_RECORD
  5
1
100
AcDbSymbolTable
 70
     1
  0
BLOCK_RECORD
  5
2
102
{ACAD_XDICTIONARY
360
FE
102
}
100
AcDbSymbolTableRecord
100
AcDbBlockTableRecord
  2
*MODEL_SPACE
  0
BLOCK_RECORD
  5
102
102
{ACAD_XDICTIONARY
360
103
102
}
100
AcDbSymbolTableRecord
100
AcDbBlockTableRecord
  2
*PAPER_SPACE
  0
BLOCK_RECORD
  5
6
100
AcDbSymbolTableRecord
100
AcDbBlockTableRecord
  2
MSTC28_F
  0
ENDTAB
  0
ENDSEC
  0
SECTION
  2
BLOCKS
  0
BLOCK
  5
100
100
AcDbEntity
  8
0
100
AcDbBlockBegin
  2
*MODEL_SPACE
 70
     0
 10
0.0
 20
0.0
 30
0.0
  3
*MODEL_SPACE
  1

  0
ENDBLK
  5
101
100
AcDbEntity
  8
0
100
AcDbBlockEnd
  0
BLOCK
  5
105
100
AcDbEntity
 67
     1
  8
0
100
AcDbBlockBegin
  2
*PAPER_SPACE
 70
     0
 10
0.0
 20
0.0
 30
0.0
  3
*PAPER_SPACE
  1

  0
ENDBLK
  5
106
100
AcDbEntity
 67
     1
  8
0
100
AcDbBlockEnd
  0
BLOCK
  5
FB
100
AcDbEntity
  8
0
100
AcDbBlockBegin
  2
MSTC28_F
 70
     0
 10
0.0
 20
0.0
 30
0.0
  3
MSTC28_F
  1

  0
TEXT
  5
7
100
AcDbEntity
  8
USP-TXT
100
AcDbText
 10
9.249737345030904
 20
-2.439870168682721
 30
4.196879291630274
 40
0.5
  1
MSTC28 - FRONT VIEW
 72
     1
 11
13.9997373450309
 21
-2.439870168682721
 31
4.196879291630274
100
AcDbText
  0
LWPOLYLINE
  5
C
100
AcDbEntity
  8
USP-GEO
100
AcDbPolyline
 90
        2
 70
   128
 43
0.0
 10
27.88681211618911
 20
2.999094994023185
 10
0.1126625738726975
 20
2.999094994023185
  0
LWPOLYLINE
  5
10
100
AcDbEntity
  8
USP-GEO
100
AcDbPolyline
 90
        2
 70
   128
 43
0.0
 10
27.88681211618911
 20
0.0
 10
0.1126625738726975
 20
0.0
  0
ARC
  5
11
100
AcDbEntity
  8
USP-GEO
100
AcDbCircle
 10
14.00006792004175
 20
0.5734461346039126
 30
0.0
 40
0.0859
100
AcDbArc
 50
1.14220405499664
 51
96.09416670476738
  0
ARC
  5
12
100
AcDbEntity
  8
USP-GEO
100
AcDbCircle
 10
14.00006792004175
 20
0.4952461346039119
 30
0.0
 40
0.0859
100
AcDbArc
 50
263.1918590826641
 51
5.679776398955111
  0
ARC
  5
13
100
AcDbEntity
  8
USP-GEO
100
AcDbCircle
 10
14.00006792004175
 20
1.995246134603911
 30
0.0
 40
0.0859
100
AcDbArc
 50
263.9202472491985
 51
358.7032855061667
  0
ARC
  5
14
100
AcDbEntity
  8
USP-GEO
100
AcDbCircle
 10
14.00006792004175
 20
2.073446134603912
 30
0.0
 40
0.0859
100
AcDbArc
 50
6.828269610911994
 51
96.82620328846656
  0
LWPOLYLINE
  5
15
100
AcDbEntity
  8
USP-GEO
100
AcDbPolyline
 90
        2
 70
   128
 43
0.0
 10
-0.1205904020309902
 20
0.2511955125116643
 10
-0.1205904020309902
 20
2.747899481511521
  0
LWPOLYLINE
  5
16
100
AcDbEntity
  8
USP-GEO
100
AcDbPolyline
 90
        2
 70
   128
 43
0.0
 10
2.088135854410852
 20
1.993415817146131
 10
2.088135854410852
 20
2.083128500186011
  0
LWPOLYLINE
  5
17
100
AcDbEntity
  8
USP-GEO
100
AcDbPolyline
 90
        2
 70
   128
 43
0.0
 10
1.907813361500693
 20
1.993415817146131
 10
1.907813361500693
 20
2.083128500186011
  0
LWPOLYLINE
  5
18
100
AcDbEntity
  8
USP-GEO
100
AcDbPolyline
 90
        2
 70
   128
 43
0.0
 10
5.086333721603637
 20
1.993415817146131
 10
5.086333721603637
 20
2.083128500186011
  0
LWPOLYLINE
  5
19
100
AcDbEntity
  8
USP-GEO
100
AcDbPolyline
 90
        2
 70
   128
 43
0.0
 10
4.906011228693479
 20
1.993415817146131
 10
4.906011228693479
 20
2.083128500186011
  0
LWPOLYLINE
  5
1A
100
AcDbEntity
  8
USP-GEO
100
AcDbPolyline
 90
        2
 70
   128
 43
0.0
 10
8.084531588796423
 20
1.993415817146131
 10
8.084531588796423
 20
2.083128500186011
  0
LWPOLYLINE
  5
1B
100
AcDbEntity
  8
USP-GEO
100
AcDbPolyline
 90
        2
 70
   128
 43
0.0
 10
7.904209095886265
 20
1.993415817146131
 10
7.904209095886265
 20
2.083128500186011
  0
LWPOLYLINE
  5
1C
100
AcDbEntity
  8
USP-GEO
100
AcDbPolyline
 90
        2
 70
   128
 43
0.0
 10
11.08272945598921
 20
1.993415817146131
 10
11.08272945598921
 20
2.083128500186011
  0
LWPOLYLINE
  5
1D
100
AcDbEntity
  8
USP-GEO
100
AcDbPolyline
 90
        2
 70
   128
 43
0.0
 10
10.92034949968702
 20
1.993415817146131
 10
10.92034949968702
 20
2.083128500186011
  0
LWPOLYLINE
  5
1E
100
AcDbEntity
  8
USP-GEO
100
AcDbPolyline
 90
        2
 70
   128
 43
0.0
 10
13.91854736687981
 20
1.993415817146131
 10
13.91854736687981
 20
2.083128500186011
  0
LWPOLYLINE
  5
1F
100
AcDbEntity
  8
USP-GEO
100
AcDbPolyline
 90
        2
 70
   128
 43
0.0
 10
0.1126625738726975
 20
0.0
 10
-0.1205904020309902
 20
0.2511955125116643
  0
ARC
  5
20
100
AcDbEntity
  8
USP-GEO
100
AcDbCircle
 10
0.5000679200417793
 20
0.9952461346039127
 30
0.0
 40
0.0859
100
AcDbArc
 50
97.35595421858759
 51
185.2083631542182
  0
ARC
  5
21
100
AcDbEntity
  8
USP-GEO
100
AcDbCircle
 10
0.5000679200417793
 20
0.9952461346039118
 30
0.0
 40
0.0859
100
AcDbArc
 50
354.6372833429369
 51
97.35595421858752
  0
ARC
  5
22
100
AcDbEntity
  8
USP-GEO
100
AcDbCircle
 10
0.5000679200417793
 20
0.917046134603912
 30
0.0
 40
0.0859
100
AcDbArc
 50
263.3333478250897
 51
359.2267892828108
  0
ARC
  5
23
100
AcDbEntity
  8
USP-GEO
100
AcDbCircle
 10
0.5000679200417722
 20
0.917046134603912
 30
0.0
 40
0.0859
100
AcDbArc
 50
180.7508333161421
 51
263.333347825094
  0
LWPOLYLINE
  5
24
100
AcDbEntity
  8
USP-GEO
100
AcDbPolyline
 90
        2
 70
   128
 43
0.0
 10
0.4176856962082891
 20
0.9159664938371747
 10
0.4176856962082891
 20
0.9877366402690785
  0
LWPOLYLINE
  5
25
100
AcDbEntity
  8
USP-GEO
100
AcDbPolyline
 90
        2
 70
   128
 43
0.0
 10
0.5800656525104717
 20
0.9159664938371747
 10
0.5800656525104717
 20
0.9877366402690785
  0
ARC
  5
26
100
AcDbEntity
  8
USP-GEO
100
AcDbCircle
 10
2.000067920041772
 20
0.5734461346039126
 30
0.0
 40
0.0859
100
AcDbArc
 50
1.048734248608163
 51
91.59432128757606
  0
ARC
  5
27
100
AcDbEntity
  8
USP-GEO
100
AcDbCircle
 10
2.000067920041772
 20
0.5734461346039126
 30
0.0
 40
0.0859
100
AcDbArc
 50
91.59432128757606
 51
178.9988486713459
  0
ARC
  5
28
100
AcDbEntity
  8
USP-GEO
100
AcDbCircle
 10
5.000067920041772
 20
0.5734461346039126
 30
0.0
 40
0.0859
100
AcDbArc
 50
1.070637748533656
 51
92.72331016287784
  0
ARC
  5
29
100
AcDbEntity
  8
USP-GEO
100
AcDbCircle
 10
5.000067920041772
 20
0.5734461346039126
 30
0.0
 40
0.0859
100
AcDbArc
 50
92.72331016287784
 51
179.0180270083184
  0
ARC
  5
2A
100
AcDbEntity
  8
USP-GEO
100
AcDbCircle
 10
2.000067920041772
 20
0.4952461346039119
 30
0.0
 40
0.0859
100
AcDbArc
 50
175.0180043872363
 51
268.2173312924169
  0
ARC
  5
2B
100
AcDbEntity
  8
USP-GEO
100
AcDbCircle
 10
2.000067920041772
 20
0.4952461346039119
 30
0.0
 40
0.0859
100
AcDbArc
 50
268.2173312924169
 51
5.217554845071013
  0
LWPOLYLINE
  5
2C
100
AcDbEntity
  8
USP-GEO
100
AcDbPolyline
 90
        2
 70
   128
 43
0.0
 10
2.088135854410852
 20
0.5032881518537274
 10
2.088135854410852
 20
0.5750582982856312
  0
LWPOLYLINE
  5
2D
100
AcDbEntity
  8
USP-GEO
100
AcDbPolyline
 90
        2
 70
   128
 43
0.0
 10
1.907813361500693
 20
0.5032881518537274
 10
1.907813361500693
 20
0.5750582982856312
  0
ARC
  5
2E
100
AcDbEntity
  8
USP-GEO
100
AcDbCircle
 10
5.000067920041772
 20
0.4952461346039119
 30
0.0
 40
0.0859
100
AcDbArc
 50
175.1129929995169
 51
266.9553447091339
  0
ARC
  5
2F
100
AcDbEntity
  8
USP-GEO
100
AcDbCircle
 10
5.000067920041772
 20
0.4952461346039119
 30
0.0
 40
0.0859
100
AcDbArc
 50
266.9553447091339
 51
5.325931567221605
  0
LWPOLYLINE
  5
30
100
AcDbEntity
  8
USP-GEO
100
AcDbPolyline
 90
        2
 70
   128
 43
0.0
 10
5.086333721603637
 20
0.5032881518537274
 10
5.086333721603637
 20
0.5750582982856312
  0
LWPOLYLINE
  5
31
100
AcDbEntity
  8
USP-GEO
100
AcDbPolyline
 90
        2
 70
   128
 43
0.0
 10
4.906011228693479
 20
0.5032881518537274
 10
4.906011228693479
 20
0.5750582982856312
  0
ARC
  5
32
100
AcDbEntity
  8
USP-GEO
100
AcDbCircle
 10
2.000067920041772
 20
1.995246134603911
 30
0.0
 40
0.0859
100
AcDbArc
 50
268.4094761446569
 51
358.809392189418
  0
ARC
  5
33
100
AcDbEntity
  8
USP-GEO
100
AcDbCircle
 10
2.000067920041772
 20
1.995246134603911
 30
0.0
 40
0.0859
100
AcDbArc
 50
181.1365910891914
 51
268.4094761446569
  0
ARC
  5
34
100
AcDbEntity
  8
USP-GEO
100
AcDbCircle
 10
3.500067920041772
 20
0.9952461346039127
 30
0.0
 40
0.0859
100
AcDbArc
 50
86.15253942965363
 51
185.0974616088052
  0
ARC
  5
35
100
AcDbEntity
  8
USP-GEO
100
AcDbCircle
 10
3.500067920041772
 20
0.9952461346039118
 30
0.0
 40
0.0859
100
AcDbArc
 50
354.5144371000924
 51
86.15253942965365
  0
ARC
  5
36
100
AcDbEntity
  8
USP-GEO
100
AcDbCircle
 10
3.500067920041772
 20
0.917046134603912
 30
0.0
 40
0.0859
100
AcDbArc
 50
273.4844265310205
 51
359.2089717413855
  0
ARC
  5
37
100
AcDbEntity
  8
USP-GEO
100
AcDbCircle
 10
3.500067920041772
 20
0.917046134603912
 30
0.0
 40
0.0859
100
AcDbArc
 50
180.7347620240576
 51
273.4844265310205
  0
LWPOLYLINE
  5
38
100
AcDbEntity
  8
USP-GEO
100
AcDbPolyline
 90
        2
 70
   128
 43
0.0
 10
3.415883563401074
 20
0.9159664938371747
 10
3.415883563401074
 20
0.9877366402690785
  0
LWPOLYLINE
  5
39
100
AcDbEntity
  8
USP-GEO
100
AcDbPolyline
 90
        2
 70
   128
 43
0.0
 10
3.578263519703257
 20
0.9159664938371747
 10
3.578263519703257
 20
0.9877366402690785
  0
ARC
  5
3A
100
AcDbEntity
  8
USP-GEO
100
AcDbCircle
 10
5.000067920041772
 20
1.995246134603911
 30
0.0
 40
0.0859
100
AcDbArc
 50
267.2831699525058
 51
358.7845272225445
  0
ARC
  5
3B
100
AcDbEntity
  8
USP-GEO
100
AcDbCircle
 10
5.000067920041772
 20
1.995246134603911
 30
0.0
 40
0.0859
100
AcDbArc
 50
181.114819473741
 51
267.2831699525058
  0
ARC
  5
3C
100
AcDbEntity
  8
USP-GEO
100
AcDbCircle
 10
9.500067920041765
 20
0.9952461346039118
 30
0.0
 40
0.0859
100
AcDbArc
 50
355.360385571773
 51
88.65917077979174
  0
ARC
  5
3D
100
AcDbEntity
  8
USP-GEO
100
AcDbCircle
 10
9.500067920041765
 20
0.917046134603912
 30
0.0
 40
0.0859
100
AcDbArc
 50
271.2140240435262
 51
359.331530690915
  0
ARC
  5
3E
100
AcDbEntity
  8
USP-GEO
100
AcDbCircle
 10
8.000067920041765
 20
0.5734461346039126
 30
0.0
 40
0.0859
100
AcDbArc
 50
1.093475589509576
 51
93.85018691599414
  0
ARC
  5
3F
100
AcDbEntity
  8
USP-GEO
100
AcDbCircle
 10
8.000067920041765
 20
0.5734461346039126
 30
0.0
 40
0.0859
100
AcDbArc
 50
93.85018691599414
 51
179.0364844529183
  0
ARC
  5
40
100
AcDbEntity
  8
USP-GEO
100
AcDbCircle
 10
8.000067920041765
 20
0.4952461346039119
 30
0.0
 40
0.0859
100
AcDbArc
 50
175.2044355087233
 51
265.696307671293
  0
LWPOLYLINE
  5
41
100
AcDbEntity
  8
USP-GEO
100
AcDbPolyline
 90
        2
 70
   128
 43
0.0
 10
7.904209095886265
 20
0.5032881518537274
 10
7.904209095886265
 20
0.5750582982856312
  0
ARC
  5
42
100
AcDbEntity
  8
USP-GEO
100
AcDbCircle
 10
8.000067920041768
 20
0.4952461346039119
 30
0.0
 40
0.0859
100
AcDbArc
 50
265.6963076712905
 51
5.438892282198427
  0
LWPOLYLINE
  5
43
100
AcDbEntity
  8
USP-GEO
100
AcDbPolyline
 90
        2
 70
   128
 43
0.0
 10
8.084531588796423
 20
0.5032881518537274
 10
8.084531588796423
 20
0.5750582982856312
  0
ARC
  5
44
100
AcDbEntity
  8
USP-GEO
100
AcDbCircle
 10
6.500067920041772
 20
0.9952461346039127
 30
0.0
 40
0.0859
100
AcDbArc
 50
87.40461257907286
 51
184.9911727392085
  0
ARC
  5
45
100
AcDbEntity
  8
USP-GEO
100
AcDbCircle
 10
6.500067920041772
 20
0.9952461346039118
 30
0.0
 40
0.0859
100
AcDbArc
 50
354.3858491583963
 51
87.4046125790729
  0
ARC
  5
46
100
AcDbEntity
  8
USP-GEO
100
AcDbCircle
 10
6.500067920041772
 20
0.917046134603912
 30
0.0
 40
0.0859
100
AcDbArc
 50
272.3501482459346
 51
359.1903137273179
  0
ARC
  5
47
100
AcDbEntity
  8
USP-GEO
100
AcDbCircle
 10
6.500067920041772
 20
0.917046134603912
 30
0.0
 40
0.0859
100
AcDbArc
 50
180.7193642782126
 51
272.3501482459346
  0
LWPOLYLINE
  5
48
100
AcDbEntity
  8
USP-GEO
100
AcDbPolyline
 90
        2
 70
   128
 43
0.0
 10
6.41408143059386
 20
0.9159664938371747
 10
6.41408143059386
 20
0.9877366402690785
  0
LWPOLYLINE
  5
49
100
AcDbEntity
  8
USP-GEO
100
AcDbPolyline
 90
        2
 70
   128
 43
0.0
 10
6.576461386896043
 20
0.9159664938371747
 10
6.576461386896043
 20
0.9877366402690785
  0
ARC
  5
4A
100
AcDbEntity
  8
USP-GEO
100
AcDbCircle
 10
9.500067920041765
 20
0.9952461346039127
 30
0.0
 40
0.0859
100
AcDbArc
 50
88.65917077979174
 51
184.8892153170113
  0
ARC
  5
4B
100
AcDbEntity
  8
USP-GEO
100
AcDbCircle
 10
9.500067920041761
 20
0.917046134603912
 30
0.0
 40
0.0859
100
AcDbArc
 50
180.7045986073862
 51
271.2140240435284
  0
LWPOLYLINE
  5
4C
100
AcDbEntity
  8
USP-GEO
100
AcDbPolyline
 90
        2
 70
   128
 43
0.0
 10
9.412279297786646
 20
0.9159664938371747
 10
9.412279297786646
 20
0.9877366402690785
  0
ARC
  5
4D
100
AcDbEntity
  8
USP-GEO
100
AcDbCircle
 10
8.000067920041765
 20
1.995246134603911
 30
0.0
 40
0.0859
100
AcDbArc
 50
181.0938661609626
 51
266.1589608673704
  0
ARC
  5
4E
100
AcDbEntity
  8
USP-GEO
100
AcDbCircle
 10
8.000067920041768
 20
1.995246134603911
 30
0.0
 40
0.0859
100
AcDbArc
 50
266.1589608673681
 51
358.7586016961609
  0
ARC
  5
4F
100
AcDbEntity
  8
USP-GEO
100
AcDbCircle
 10
11.00006792004175
 20
0.5734461346039126
 30
0.0
 40
0.0859
100
AcDbArc
 50
1.11730885119882
 51
94.97408878603017
  0
ARC
  5
50
100
AcDbEntity
  8
USP-GEO
100
AcDbCircle
 10
11.00006792004175
 20
0.5734461346039126
 30
0.0
 40
0.0859
100
AcDbArc
 50
94.97408878603017
 51
178.8414523890353
  0
ARC
  5
51
100
AcDbEntity
  8
USP-GEO
100
AcDbCircle
 10
14.00006792004175
 20
0.5734461346039126
 30
0.0
 40
0.0859
100
AcDbArc
 50
96.09416670476738
 51
178.8670570524543
  0
ARC
  5
52
100
AcDbEntity
  8
USP-GEO
100
AcDbCircle
 10
11.00006792004175
 20
0.4952461346039119
 30
0.0
 40
0.0859
100
AcDbArc
 50
174.2394737817528
 51
264.4414203397727
  0
ARC
  5
53
100
AcDbEntity
  8
USP-GEO
100
AcDbCircle
 10
11.00006792004176
 20
0.4952461346039119
 30
0.0
 40
0.0859
100
AcDbArc
 50
264.4414203397703
 51
5.556733169454659
  0
LWPOLYLINE
  5
54
100
AcDbEntity
  8
USP-GEO
100
AcDbPolyline
 90
        2
 70
   128
 43
0.0
 10
10.92034949968702
 20
0.5032881518537274
 10
10.92034949968702
 20
0.5750582982856312
  0
LWPOLYLINE
  5
55
100
AcDbEntity
  8
USP-GEO
100
AcDbPolyline
 90
        2
 70
   128
 43
0.0
 10
11.08272945598921
 20
0.5032881518537274
 10
11.08272945598921
 20
0.5750582982856312
  0
ARC
  5
56
100
AcDbEntity
  8
USP-GEO
100
AcDbCircle
 10
14.00006792004175
 20
0.4952461346039119
 30
0.0
 40
0.0859
100
AcDbArc
 50
174.3659903038151
 51
263.1918590826665
  0
LWPOLYLINE
  5
57
100
AcDbEntity
  8
USP-GEO
100
AcDbPolyline
 90
        2
 70
   128
 43
0.0
 10
13.91854736687981
 20
0.5032881518537274
 10
13.91854736687981
 20
0.5750582982856312
  0
LWPOLYLINE
  5
58
100
AcDbEntity
  8
USP-GEO
100
AcDbPolyline
 90
        2
 70
   128
 43
0.0
 10
9.592601790696804
 20
0.9159664938371747
 10
9.592601790696804
 20
0.9877366402690785
  0
ARC
  5
59
100
AcDbEntity
  8
USP-GEO
100
AcDbCircle
 10
11.00006792004175
 20
1.995246134603911
 30
0.0
 40
0.0859
100
AcDbArc
 50
181.3152674562917
 51
265.0377055799826
  0
ARC
  5
5A
100
AcDbEntity
  8
USP-GEO
100
AcDbCircle
 10
11.00006792004176
 20
1.995246134603911
 30
0.0
 40
0.0859
100
AcDbArc
 50
265.0377055799804
 51
358.7315462893022
  0
ARC
  5
5B
100
AcDbEntity
  8
USP-GEO
100
AcDbCircle
 10
12.50006792004176
 20
0.9952461346039127
 30
0.0
 40
0.0859
100
AcDbArc
 50
89.91501602912164
 51
184.7913304669809
  0
ARC
  5
5C
100
AcDbEntity
  8
USP-GEO
100
AcDbCircle
 10
12.50006792004176
 20
0.9952461346039118
 30
0.0
 40
0.0859
100
AcDbArc
 50
355.268646893141
 51
89.91501602912164
  0
ARC
  5
5D
100
AcDbEntity
  8
USP-GEO
100
AcDbCircle
 10
12.50006792004176
 20
0.917046134603912
 30
0.0
 40
0.0859
100
AcDbArc
 50
270.0769443277315
 51
359.3182546542465
  0
ARC
  5
5E
100
AcDbEntity
  8
USP-GEO
100
AcDbCircle
 10
12.50006792004175
 20
0.917046134603912
 30
0.0
 40
0.0859
100
AcDbArc
 50
180.6904268763168
 51
270.0769443277337
  0
LWPOLYLINE
  5
5F
100
AcDbEntity
  8
USP-GEO
100
AcDbPolyline
 90
        2
 70
   128
 43
0.0
 10
12.59079965788959
 20
0.9159664938371747
 10
12.59079965788959
 20
0.9877366402690785
  0
LWPOLYLINE
  5
60
100
AcDbEntity
  8
USP-GEO
100
AcDbPolyline
 90
        2
 70
   128
 43
0.0
 10
12.41047716497943
 20
0.9159664938371747
 10
12.41047716497943
 20
0.9877366402690785
  0
ARC
  5
61
100
AcDbEntity
  8
USP-GEO
100
AcDbCircle
 10
14.00006792004175
 20
1.995246134603911
 30
0.0
 40
0.0859
100
AcDbArc
 50
181.2862013948333
 51
263.9202472492006
  0
LWPOLYLINE
  5
62
100
AcDbEntity
  8
USP-GEO
100
AcDbPolyline
 90
        2
 70
   128
 43
0.0
 10
-0.1205904020309902
 20
2.747899481511521
 10
0.1126625738726975
 20
2.999094994023185
  0
ARC
  5
63
100
AcDbEntity
  8
USP-GEO
100
AcDbCircle
 10
0.5000679200417793
 20
2.417046134603911
 30
0.0
 40
0.0859
100
AcDbArc
 50
262.6104216190546
 51
5.631099541041545
  0
ARC
  5
64
100
AcDbEntity
  8
USP-GEO
100
AcDbCircle
 10
0.5000679200417722
 20
2.417046134603911
 30
0.0
 40
0.0859
100
AcDbArc
 50
174.5308855709773
 51
262.6104216190595
  0
ARC
  5
65
100
AcDbEntity
  8
USP-GEO
100
AcDbCircle
 10
0.5000679200417793
 20
2.495246134603911
 30
0.0
 40
0.0859
100
AcDbArc
 50
1.044011011631029
 51
96.63924495790878
  0
ARC
  5
66
100
AcDbEntity
  8
USP-GEO
100
AcDbCircle
 10
0.5000679200417793
 20
2.495246134603913
 30
0.0
 40
0.0859
100
AcDbArc
 50
96.6392449579089
 51
178.9862006993321
  0
LWPOLYLINE
  5
67
100
AcDbEntity
  8
USP-GEO
100
AcDbPolyline
 90
        2
 70
   128
 43
0.0
 10
0.4176856962082891
 20
2.424933822567953
 10
0.4176856962082891
 20
2.496703968999857
  0
LWPOLYLINE
  5
68
100
AcDbEntity
  8
USP-GEO
100
AcDbPolyline
 90
        2
 70
   128
 43
0.0
 10
0.5800656525104717
 20
2.424933822567953
 10
0.5800656525104717
 20
2.496703968999857
  0
ARC
  5
69
100
AcDbEntity
  8
USP-GEO
100
AcDbCircle
 10
2.000067920041772
 20
2.073446134603912
 30
0.0
 40
0.0859
100
AcDbArc
 50
91.787440125448
 51
174.0085872477276
  0
ARC
  5
6A
100
AcDbEntity
  8
USP-GEO
100
AcDbCircle
 10
2.000067920041772
 20
2.073446134603912
 30
0.0
 40
0.0859
100
AcDbArc
 50
6.274015519915565
 51
91.787440125448
  0
ARC
  5
6B
100
AcDbEntity
  8
USP-GEO
100
AcDbCircle
 10
3.500067920041772
 20
2.417046134603911
 30
0.0
 40
0.0859
100
AcDbArc
 50
273.8651896831528
 51
5.760013622263429
  0
ARC
  5
6C
100
AcDbEntity
  8
USP-GEO
100
AcDbCircle
 10
3.500067920041772
 20
2.417046134603911
 30
0.0
 40
0.0859
100
AcDbArc
 50
174.6472753955298
 51
273.8651896831528
  0
ARC
  5
6D
100
AcDbEntity
  8
USP-GEO
100
AcDbCircle
 10
3.500067920041772
 20
2.495246134603911
 30
0.0
 40
0.0859
100
AcDbArc
 50
1.068066272747197
 51
86.52999217917468
  0
ARC
  5
6E
100
AcDbEntity
  8
USP-GEO
100
AcDbCircle
 10
3.500067920041772
 20
2.495246134603913
 30
0.0
 40
0.0859
100
AcDbArc
 50
86.52999217917461
 51
179.0078986952017
  0
LWPOLYLINE
  5
6F
100
AcDbEntity
  8
USP-GEO
100
AcDbPolyline
 90
        2
 70
   128
 43
0.0
 10
3.415883563401074
 20
2.424933822567953
 10
3.415883563401074
 20
2.496703968999857
  0
LWPOLYLINE
  5
70
100
AcDbEntity
  8
USP-GEO
100
AcDbPolyline
 90
        2
 70
   128
 43
0.0
 10
3.578263519703257
 20
2.424933822567953
 10
3.578263519703257
 20
2.496703968999857
  0
ARC
  5
71
100
AcDbEntity
  8
USP-GEO
100
AcDbCircle
 10
5.000067920041772
 20
2.073446134603912
 30
0.0
 40
0.0859
100
AcDbArc
 50
93.05279436906769
 51
174.1225717574578
  0
ARC
  5
72
100
AcDbEntity
  8
USP-GEO
100
AcDbCircle
 10
5.000067920041772
 20
2.073446134603912
 30
0.0
 40
0.0859
100
AcDbArc
 50
6.404004756485909
 51
93.05279436906769
  0
ARC
  5
73
100
AcDbEntity
  8
USP-GEO
100
AcDbCircle
 10
9.500067920041765
 20
2.495246134603911
 30
0.0
 40
0.0859
100
AcDbArc
 50
0.9025975874058877
 51
88.79101047437172
  0
ARC
  5
74
100
AcDbEntity
  8
USP-GEO
100
AcDbCircle
 10
9.500067920041765
 20
2.417046134603911
 30
0.0
 40
0.0859
100
AcDbArc
 50
271.3470242302396
 51
4.872176973045046
  0
ARC
  5
75
100
AcDbEntity
  8
USP-GEO
100
AcDbCircle
 10
6.500067920041772
 20
2.417046134603911
 30
0.0
 40
0.0859
100
AcDbArc
 50
272.6073667374853
 51
5.894947191515813
  0
ARC
  5
76
100
AcDbEntity
  8
USP-GEO
100
AcDbCircle
 10
6.500067920041772
 20
2.417046134603911
 30
0.0
 40
0.0859
100
AcDbArc
 50
174.7588281350713
 51
272.6073667374853
  0
ARC
  5
77
100
AcDbEntity
  8
USP-GEO
100
AcDbCircle
 10
6.500067920041772
 20
2.495246134603911
 30
0.0
 40
0.0859
100
AcDbArc
 50
1.093256064179912
 51
87.65958977806354
  0
ARC
  5
78
100
AcDbEntity
  8
USP-GEO
100
AcDbCircle
 10
6.500067920041772
 20
2.495246134603913
 30
0.0
 40
0.0859
100
AcDbArc
 50
87.65958977806349
 51
179.0286874507986
  0
LWPOLYLINE
  5
79
100
AcDbEntity
  8
USP-GEO
100
AcDbPolyline
 90
        2
 70
   128
 43
0.0
 10
6.41408143059386
 20
2.424933822567953
 10
6.41408143059386
 20
2.496703968999857
  0
LWPOLYLINE
  5
7A
100
AcDbEntity
  8
USP-GEO
100
AcDbPolyline
 90
        2
 70
   128
 43
0.0
 10
6.576461386896043
 20
2.424933822567953
 10
6.576461386896043
 20
2.496703968999857
  0
ARC
  5
7B
100
AcDbEntity
  8
USP-GEO
100
AcDbCircle
 10
8.000067920041765
 20
2.073446134603912
 30
0.0
 40
0.0859
100
AcDbArc
 50
94.31517540207648
 51
174.232314595453
  0
ARC
  5
7C
100
AcDbEntity
  8
USP-GEO
100
AcDbCircle
 10
8.000067920041765
 20
2.073446134603912
 30
0.0
 40
0.0859
100
AcDbArc
 50
6.539470460677351
 51
94.31517540207648
  0
ARC
  5
7D
100
AcDbEntity
  8
USP-GEO
100
AcDbCircle
 10
9.500067920041761
 20
2.417046134603911
 30
0.0
 40
0.0859
100
AcDbArc
 50
174.8658383949382
 51
271.347024230242
  0
ARC
  5
7E
100
AcDbEntity
  8
USP-GEO
100
AcDbCircle
 10
9.500067920041765
 20
2.495246134603913
 30
0.0
 40
0.0859
100
AcDbArc
 50
88.79101047437169
 51
179.0486229397746
  0
LWPOLYLINE
  5
7F
100
AcDbEntity
  8
USP-GEO
100
AcDbPolyline
 90
        2
 70
   128
 43
0.0
 10
9.412279297786646
 20
2.424933822567953
 10
9.412279297786646
 20
2.496703968999857
  0
LWPOLYLINE
  5
80
100
AcDbEntity
  8
USP-GEO
100
AcDbPolyline
 90
        2
 70
   128
 43
0.0
 10
9.592601790696804
 20
2.424933822567953
 10
9.592601790696804
 20
2.496703968999857
  0
ARC
  5
81
100
AcDbEntity
  8
USP-GEO
100
AcDbCircle
 10
11.00006792004175
 20
2.073446134603912
 30
0.0
 40
0.0859
100
AcDbArc
 50
95.57337356023371
 51
173.0749420960797
  0
ARC
  5
82
100
AcDbEntity
  8
USP-GEO
100
AcDbCircle
 10
11.00006792004175
 20
2.073446134603912
 30
0.0
 40
0.0859
100
AcDbArc
 50
6.680764551345617
 51
95.57337356023371
  0
ARC
  5
83
100
AcDbEntity
  8
USP-GEO
100
AcDbCircle
 10
12.50006792004176
 20
2.417046134603911
 30
0.0
 40
0.0859
100
AcDbArc
 50
270.0853767646557
 51
4.968469451663912
  0
ARC
  5
84
100
AcDbEntity
  8
USP-GEO
100
AcDbCircle
 10
12.50006792004175
 20
2.417046134603911
 30
0.0
 40
0.0859
100
AcDbArc
 50
174.9685773935412
 51
270.0853767646583
  0
ARC
  5
85
100
AcDbEntity
  8
USP-GEO
100
AcDbCircle
 10
12.50006792004176
 20
2.495246134603911
 30
0.0
 40
0.0859
100
AcDbArc
 50
0.9205221151987677
 51
89.92337485242236
  0
ARC
  5
86
100
AcDbEntity
  8
USP-GEO
100
AcDbCircle
 10
12.50006792004176
 20
2.495246134603913
 30
0.0
 40
0.0859
100
AcDbArc
 50
89.92337485242236
 51
179.0677566341769
  0
LWPOLYLINE
  5
87
100
AcDbEntity
  8
USP-GEO
100
AcDbPolyline
 90
        2
 70
   128
 43
0.0
 10
12.41047716497943
 20
2.424933822567953
 10
12.41047716497943
 20
2.496703968999857
  0
LWPOLYLINE
  5
88
100
AcDbEntity
  8
USP-GEO
100
AcDbPolyline
 90
        2
 70
   128
 43
0.0
 10
12.59079965788959
 20
2.424933822567953
 10
12.59079965788959
 20
2.496703968999857
  0
ARC
  5
89
100
AcDbEntity
  8
USP-GEO
100
AcDbCircle
 10
14.00006792004175
 20
2.073446134603912
 30
0.0
 40
0.0859
100
AcDbArc
 50
96.82620328846656
 51
173.2265925932214
  0
LWPOLYLINE
  5
8A
100
AcDbEntity
  8
USP-GEO
100
AcDbPolyline
 90
        2
 70
   128
 43
0.0
 10
14.08092732318199
 20
1.993415817146131
 10
14.08092732318199
 20
2.083128500186011
  0
LWPOLYLINE
  5
8B
100
AcDbEntity
  8
USP-GEO
100
AcDbPolyline
 90
        2
 70
   128
 43
0.0
 10
17.07912519037478
 20
1.993415817146131
 10
17.07912519037478
 20
2.083128500186011
  0
LWPOLYLINE
  5
8C
100
AcDbEntity
  8
USP-GEO
100
AcDbPolyline
 90
        2
 70
   128
 43
0.0
 10
16.91674523407259
 20
1.993415817146131
 10
16.91674523407259
 20
2.083128500186011
  0
LWPOLYLINE
  5
8D
100
AcDbEntity
  8
USP-GEO
100
AcDbPolyline
 90
        2
 70
   128
 43
0.0
 10
20.09526559417554
 20
1.993415817146131
 10
20.09526559417554
 20
2.083128500186011
  0
LWPOLYLINE
  5
8E
100
AcDbEntity
  8
USP-GEO
100
AcDbPolyline
 90
        2
 70
   128
 43
0.0
 10
19.91494310126538
 20
1.993415817146131
 10
19.91494310126538
 20
2.083128500186011
  0
LWPOLYLINE
  5
8F
100
AcDbEntity
  8
USP-GEO
100
AcDbPolyline
 90
        2
 70
   128
 43
0.0
 10
23.09346346136832
 20
1.993415817146131
 10
23.09346346136832
 20
2.083128500186011
  0
LWPOLYLINE
  5
90
100
AcDbEntity
  8
USP-GEO
100
AcDbPolyline
 90
        2
 70
   128
 43
0.0
 10
22.91314096845816
 20
1.993415817146131
 10
22.91314096845816
 20
2.083128500186011
  0
LWPOLYLINE
  5
91
100
AcDbEntity
  8
USP-GEO
100
AcDbPolyline
 90
        2
 70
   128
 43
0.0
 10
26.09166132856111
 20
1.993415817146131
 10
26.09166132856111
 20
2.083128500186011
  0
LWPOLYLINE
  5
92
100
AcDbEntity
  8
USP-GEO
100
AcDbPolyline
 90
        2
 70
   128
 43
0.0
 10
25.91133883565095
 20
1.993415817146131
 10
25.91133883565095
 20
2.083128500186011
  0
LWPOLYLINE
  5
93
100
AcDbEntity
  8
USP-GEO
100
AcDbPolyline
 90
        2
 70
   128
 43
0.0
 10
28.12006509209279
 20
0.2511955125116643
 10
28.12006509209279
 20
2.747899481511521
  0
ARC
  5
94
100
AcDbEntity
  8
USP-GEO
100
AcDbCircle
 10
18.50006792004175
 20
0.9952461346039127
 30
0.0
 40
0.0859
100
AcDbArc
 50
91.80130317105932
 51
184.6068419606324
  0
ARC
  5
95
100
AcDbEntity
  8
USP-GEO
100
AcDbCircle
 10
18.50006792004174
 20
0.917046134603912
 30
0.0
 40
0.0859
100
AcDbArc
 50
180.6637274375134
 51
268.3690068596488
  0
ARC
  5
96
100
AcDbEntity
  8
USP-GEO
100
AcDbCircle
 10
17.00006792004174
 20
0.5734461346039126
 30
0.0
 40
0.0859
100
AcDbArc
 50
1.168233783771128
 51
85.43783854733794
  0
ARC
  5
97
100
AcDbEntity
  8
USP-GEO
100
AcDbCircle
 10
17.00006792004174
 20
0.5734461346039126
 30
0.0
 40
0.0859
100
AcDbArc
 50
85.43783854733794
 51
178.8915545660407
  0
LWPOLYLINE
  5
98
100
AcDbEntity
  8
USP-GEO
100
AcDbPolyline
 90
        2
 70
   128
 43
0.0
 10
14.08092732318199
 20
0.5032881518537274
 10
14.08092732318199
 20
0.5750582982856312
  0
ARC
  5
99
100
AcDbEntity
  8
USP-GEO
100
AcDbCircle
 10
17.00006792004174
 20
0.4952461346039119
 30
0.0
 40
0.0859
100
AcDbArc
 50
174.4870857694073
 51
275.0987549614621
  0
ARC
  5
9A
100
AcDbEntity
  8
USP-GEO
100
AcDbCircle
 10
17.00006792004175
 20
0.4952461346039119
 30
0.0
 40
0.0859
100
AcDbArc
 50
275.0987549614596
 51
5.808373035778018
  0
LWPOLYLINE
  5
9B
100
AcDbEntity
  8
USP-GEO
100
AcDbPolyline
 90
        2
 70
   128
 43
0.0
 10
16.91674523407259
 20
0.5032881518537274
 10
16.91674523407259
 20
0.5750582982856312
  0
LWPOLYLINE
  5
9C
100
AcDbEntity
  8
USP-GEO
100
AcDbPolyline
 90
        2
 70
   128
 43
0.0
 10
17.07912519037478
 20
0.5032881518537274
 10
17.07912519037478
 20
0.5750582982856312
  0
ARC
  5
9D
100
AcDbEntity
  8
USP-GEO
100
AcDbCircle
 10
15.50006792004175
 20
0.9952461346039127
 30
0.0
 40
0.0859
100
AcDbArc
 50
90.54579035171917
 51
184.697279494437
  0
ARC
  5
9E
100
AcDbEntity
  8
USP-GEO
100
AcDbCircle
 10
15.50006792004175
 20
0.9952461346039118
 30
0.0
 40
0.0859
100
AcDbArc
 50
355.1732159110588
 51
90.54579035171917
  0
ARC
  5
9F
100
AcDbEntity
  8
USP-GEO
100
AcDbCircle
 10
15.50006792004175
 20
0.917046134603912
 30
0.0
 40
0.0859
100
AcDbArc
 50
269.5058398110199
 51
359.3044406252069
  0
ARC
  5
A0
100
AcDbEntity
  8
USP-GEO
100
AcDbCircle
 10
15.50006792004175
 20
0.917046134603912
 30
0.0
 40
0.0859
100
AcDbArc
 50
180.6768139568988
 51
269.5058398110222
  0
LWPOLYLINE
  5
A1
100
AcDbEntity
  8
USP-GEO
100
AcDbPolyline
 90
        2
 70
   128
 43
0.0
 10
15.58899752508237
 20
0.9159664938371747
 10
15.58899752508237
 20
0.9877366402690785
  0
LWPOLYLINE
  5
A2
100
AcDbEntity
  8
USP-GEO
100
AcDbPolyline
 90
        2
 70
   128
 43
0.0
 10
15.40867503217221
 20
0.9159664938371747
 10
15.40867503217221
 20
0.9877366402690785
  0
LWPOLYLINE
  5
A3
100
AcDbEntity
  8
USP-GEO
100
AcDbPolyline
 90
        2
 70
   128
 43
0.0
 10
18.406872899365
 20
0.9159664938371747
 10
18.406872899365
 20
0.9877366402690785
  0
ARC
  5
A4
100
AcDbEntity
  8
USP-GEO
100
AcDbCircle
 10
17.00006792004175
 20
1.995246134603911
 30
0.0
 40
0.0859
100
AcDbArc
 50
274.5513352143161
 51
358.6737369730444
  0
ARC
  5
A5
100
AcDbEntity
  8
USP-GEO
100
AcDbCircle
 10
17.00006792004174
 20
1.995246134603911
 30
0.0
 40
0.0859
100
AcDbArc
 50
181.2583920156919
 51
274.5513352143183
  0
ARC
  5
A6
100
AcDbEntity
  8
USP-GEO
100
AcDbCircle
 10
20.00006792004174
 20
0.5734461346039126
 30
0.0
 40
0.0859
100
AcDbArc
 50
0.9702059098945385
 51
86.5629312319867
  0
ARC
  5
A7
100
AcDbEntity
  8
USP-GEO
100
AcDbCircle
 10
20.00006792004174
 20
0.5734461346039126
 30
0.0
 40
0.0859
100
AcDbArc
 50
86.5629312319867
 51
178.9150152117174
  0
ARC
  5
A8
100
AcDbEntity
  8
USP-GEO
100
AcDbCircle
 10
20.00006792004174
 20
0.4952461346039119
 30
0.0
 40
0.0859
100
AcDbArc
 50
273.8422072010606
 51
4.828712856205283
  0
ARC
  5
A9
100
AcDbEntity
  8
USP-GEO
100
AcDbCircle
 10
20.00006792004174
 20
0.4952461346039119
 30
0.0
 40
0.0859
100
AcDbArc
 50
174.603100281683
 51
273.842207201063
  0
LWPOLYLINE
  5
AA
100
AcDbEntity
  8
USP-GEO
100
AcDbPolyline
 90
        2
 70
   128
 43
0.0
 10
19.91494310126538
 20
0.5032881518537274
 10
19.91494310126538
 20
0.5750582982856312
  0
LWPOLYLINE
  5
AB
100
AcDbEntity
  8
USP-GEO
100
AcDbPolyline
 90
        2
 70
   128
 43
0.0
 10
20.09526559417554
 20
0.5032881518537274
 10
20.09526559417554
 20
0.5750582982856312
  0
ARC
  5
AC
100
AcDbEntity
  8
USP-GEO
100
AcDbCircle
 10
18.50006792004175
 20
0.9952461346039118
 30
0.0
 40
0.0859
100
AcDbArc
 50
355.0738656984544
 51
91.80130317105929
  0
ARC
  5
AD
100
AcDbEntity
  8
USP-GEO
100
AcDbCircle
 10
18.50006792004175
 20
0.917046134603912
 30
0.0
 40
0.0859
100
AcDbArc
 50
268.3690068596466
 51
359.2900552271436
  0
LWPOLYLINE
  5
AE
100
AcDbEntity
  8
USP-GEO
100
AcDbPolyline
 90
        2
 70
   128
 43
0.0
 10
18.58719539227516
 20
0.9159664938371747
 10
18.58719539227516
 20
0.9877366402690785
  0
ARC
  5
AF
100
AcDbEntity
  8
USP-GEO
100
AcDbCircle
 10
20.00006792004174
 20
1.995246134603911
 30
0.0
 40
0.0859
100
AcDbArc
 50
273.4288975436754
 51
358.8985387786846
  0
ARC
  5
B0
100
AcDbEntity
  8
USP-GEO
100
AcDbCircle
 10
20.00006792004174
 20
1.995246134603911
 30
0.0
 40
0.0859
100
AcDbArc
 50
181.2317595560036
 51
273.4288975436776
  0
ARC
  5
B1
100
AcDbEntity
  8
USP-GEO
100
AcDbCircle
 10
21.50006792004174
 20
0.9952461346039127
 30
0.0
 40
0.0859
100
AcDbArc
 50
93.05508820628238
 51
185.5662836873452
  0
ARC
  5
B2
100
AcDbEntity
  8
USP-GEO
100
AcDbCircle
 10
21.50006792004174
 20
0.9952461346039118
 30
0.0
 40
0.0859
100
AcDbArc
 50
354.9703503928842
 51
93.05508820628233
  0
ARC
  5
B3
100
AcDbEntity
  8
USP-GEO
100
AcDbCircle
 10
21.50006792004174
 20
0.917046134603912
 30
0.0
 40
0.0859
100
AcDbArc
 50
267.2334568300944
 51
359.2750622643712
  0
ARC
  5
B4
100
AcDbEntity
  8
USP-GEO
100
AcDbCircle
 10
21.50006792004174
 20
0.917046134603912
 30
0.0
 40
0.0859
100
AcDbArc
 50
180.8027398525369
 51
267.2334568300966
  0
LWPOLYLINE
  5
B5
100
AcDbEntity
  8
USP-GEO
100
AcDbPolyline
 90
        2
 70
   128
 43
0.0
 10
21.42301330316576
 20
0.9159664938371747
 10
21.42301330316576
 20
0.9877366402690785
  0
LWPOLYLINE
  5
B6
100
AcDbEntity
  8
USP-GEO
100
AcDbPolyline
 90
        2
 70
   128
 43
0.0
 10
21.58539325946794
 20
0.9159664938371747
 10
21.58539325946794
 20
0.9877366402690785
  0
ARC
  5
B7
100
AcDbEntity
  8
USP-GEO
100
AcDbCircle
 10
23.00006792004174
 20
0.5734461346039126
 30
0.0
 40
0.0859
100
AcDbArc
 50
0.988923034222428
 51
87.69068366443443
  0
ARC
  5
B8
100
AcDbEntity
  8
USP-GEO
100
AcDbCircle
 10
23.00006792004174
 20
0.5734461346039126
 30
0.0
 40
0.0859
100
AcDbArc
 50
87.69068366443443
 51
178.9375034466746
  0
ARC
  5
B9
100
AcDbEntity
  8
USP-GEO
100
AcDbCircle
 10
26.00006792004173
 20
0.5734461346039126
 30
0.0
 40
0.0859
100
AcDbArc
 50
1.008376466906461
 51
88.8202290325068
  0
ARC
  5
BA
100
AcDbEntity
  8
USP-GEO
100
AcDbCircle
 10
26.00006792004173
 20
0.5734461346039126
 30
0.0
 40
0.0859
100
AcDbArc
 50
88.8202290325068
 51
178.9590784944748
  0
ARC
  5
BB
100
AcDbEntity
  8
USP-GEO
100
AcDbCircle
 10
23.00006792004174
 20
0.4952461346039119
 30
0.0
 40
0.0859
100
AcDbArc
 50
272.5819476252817
 51
4.921432960308624
  0
ARC
  5
BC
100
AcDbEntity
  8
USP-GEO
100
AcDbCircle
 10
23.00006792004174
 20
0.4952461346039119
 30
0.0
 40
0.0859
100
AcDbArc
 50
174.7143461573171
 51
272.5819476252842
  0
LWPOLYLINE
  5
BD
100
AcDbEntity
  8
USP-GEO
100
AcDbPolyline
 90
        2
 70
   128
 43
0.0
 10
23.09346346136832
 20
0.5032881518537274
 10
23.09346346136832
 20
0.5750582982856312
  0
LWPOLYLINE
  5
BE
100
AcDbEntity
  8
USP-GEO
100
AcDbPolyline
 90
        2
 70
   128
 43
0.0
 10
22.91314096845816
 20
0.5032881518537274
 10
22.91314096845816
 20
0.5750582982856312
  0
ARC
  5
BF
100
AcDbEntity
  8
USP-GEO
100
AcDbCircle
 10
26.00006792004174
 20
0.4952461346039119
 30
0.0
 40
0.0859
100
AcDbArc
 50
271.3191834496246
 51
5.017774282019103
  0
ARC
  5
C0
100
AcDbEntity
  8
USP-GEO
100
AcDbCircle
 10
26.00006792004173
 20
0.4952461346039119
 30
0.0
 40
0.0859
100
AcDbArc
 50
174.8211106996059
 51
271.3191834496271
  0
LWPOLYLINE
  5
C1
100
AcDbEntity
  8
USP-GEO
100
AcDbPolyline
 90
        2
 70
   128
 43
0.0
 10
25.91133883565095
 20
0.5032881518537274
 10
25.91133883565095
 20
0.5750582982856312
  0
LWPOLYLINE
  5
C2
100
AcDbEntity
  8
USP-GEO
100
AcDbPolyline
 90
        2
 70
   128
 43
0.0
 10
26.09166132856111
 20
0.5032881518537274
 10
26.09166132856111
 20
0.5750582982856312
  0
ARC
  5
C3
100
AcDbEntity
  8
USP-GEO
100
AcDbCircle
 10
24.50006792004174
 20
0.9952461346039118
 30
0.0
 40
0.0859
100
AcDbArc
 50
354.8624031849597
 51
94.30595188706117
  0
ARC
  5
C4
100
AcDbEntity
  8
USP-GEO
100
AcDbCircle
 10
24.50006792004174
 20
0.9952461346039127
 30
0.0
 40
0.0859
100
AcDbArc
 50
94.30595188706123
 51
185.4398479401577
  0
ARC
  5
C5
100
AcDbEntity
  8
USP-GEO
100
AcDbCircle
 10
24.50006792004174
 20
0.917046134603912
 30
0.0
 40
0.0859
100
AcDbArc
 50
180.7843969590558
 51
266.1000774251173
  0
LWPOLYLINE
  5
C6
100
AcDbEntity
  8
USP-GEO
100
AcDbPolyline
 90
        2
 70
   128
 43
0.0
 10
24.42121117035854
 20
0.9159664938371747
 10
24.42121117035854
 20
0.9877366402690785
  0
ARC
  5
C7
100
AcDbEntity
  8
USP-GEO
100
AcDbCircle
 10
24.50006792004174
 20
0.917046134603912
 30
0.0
 40
0.0859
100
AcDbArc
 50
266.1000774251152
 51
359.2594224181433
  0
LWPOLYLINE
  5
C8
100
AcDbEntity
  8
USP-GEO
100
AcDbPolyline
 90
        2
 70
   128
 43
0.0
 10
24.58359112666073
 20
0.9159664938371747
 10
24.58359112666073
 20
0.9877366402690785
  0
ARC
  5
C9
100
AcDbEntity
  8
USP-GEO
100
AcDbCircle
 10
23.00006792004174
 20
1.995246134603911
 30
0.0
 40
0.0859
100
AcDbArc
 50
272.3038189999268
 51
358.8772906964432
  0
ARC
  5
CA
100
AcDbEntity
  8
USP-GEO
100
AcDbCircle
 10
23.00006792004174
 20
1.995246134603911
 30
0.0
 40
0.0859
100
AcDbArc
 50
181.2062308622425
 51
272.3038189999291
  0
ARC
  5
CB
100
AcDbEntity
  8
USP-GEO
100
AcDbCircle
 10
26.00006792004174
 20
1.995246134603911
 30
0.0
 40
0.0859
100
AcDbArc
 50
271.1769602773427
 51
358.8552068144847
  0
ARC
  5
CC
100
AcDbEntity
  8
USP-GEO
100
AcDbCircle
 10
26.00006792004173
 20
1.995246134603911
 30
0.0
 40
0.0859
100
AcDbArc
 50
181.1817387196286
 51
271.176960277345
  0
LWPOLYLINE
  5
CD
100
AcDbEntity
  8
USP-GEO
100
AcDbPolyline
 90
        2
 70
   128
 43
0.0
 10
27.88681211618911
 20
0.0
 10
28.12006509209279
 20
0.2511955125116643
  0
ARC
  5
CE
100
AcDbEntity
  8
USP-GEO
100
AcDbCircle
 10
27.50006792004173
 20
0.9952461346039118
 30
0.0
 40
0.0859
100
AcDbArc
 50
83.0977684719309
 51
185.3190123427276
  0
ARC
  5
CF
100
AcDbEntity
  8
USP-GEO
100
AcDbCircle
 10
27.50006792004173
 20
0.9952461346039127
 30
0.0
 40
0.0859
100
AcDbArc
 50
354.7497340455281
 51
83.09776847193083
  0
ARC
  5
D0
100
AcDbEntity
  8
USP-GEO
100
AcDbCircle
 10
27.50006792004174
 20
0.917046134603912
 30
0.0
 40
0.0859
100
AcDbArc
 50
276.254708495868
 51
359.2430929024146
  0
ARC
  5
D1
100
AcDbEntity
  8
USP-GEO
100
AcDbCircle
 10
27.50006792004173
 20
0.917046134603912
 30
0.0
 40
0.0859
100
AcDbArc
 50
180.7668735728677
 51
276.2547084958701
  0
LWPOLYLINE
  5
D2
100
AcDbEntity
  8
USP-GEO
100
AcDbPolyline
 90
        2
 70
   128
 43
0.0
 10
27.41940903755133
 20
0.9159664938371747
 10
27.41940903755133
 20
0.9877366402690785
  0
LWPOLYLINE
  5
D3
100
AcDbEntity
  8
USP-GEO
100
AcDbPolyline
 90
        2
 70
   128
 43
0.0
 10
27.58178899385351
 20
0.9159664938371747
 10
27.58178899385351
 20
0.9877366402690785
  0
ARC
  5
D4
100
AcDbEntity
  8
USP-GEO
100
AcDbCircle
 10
18.50006792004175
 20
2.495246134603913
 30
0.0
 40
0.0859
100
AcDbArc
 50
91.62423108467077
 51
179.1038046295126
  0
ARC
  5
D5
100
AcDbEntity
  8
USP-GEO
100
AcDbCircle
 10
18.50006792004174
 20
2.417046134603911
 30
0.0
 40
0.0859
100
AcDbArc
 50
175.1622229057846
 51
268.1903767615883
  0
ARC
  5
D6
100
AcDbEntity
  8
USP-GEO
100
AcDbCircle
 10
15.50006792004175
 20
2.417046134603911
 30
0.0
 40
0.0859
100
AcDbArc
 50
269.4516871689293
 51
5.068634739050125
  0
ARC
  5
D7
100
AcDbEntity
  8
USP-GEO
100
AcDbCircle
 10
15.50006792004175
 20
2.417046134603911
 30
0.0
 40
0.0859
100
AcDbArc
 50
175.0672952321106
 51
269.4516871689318
  0
ARC
  5
D8
100
AcDbEntity
  8
USP-GEO
100
AcDbCircle
 10
15.50006792004175
 20
2.495246134603911
 30
0.0
 40
0.0859
100
AcDbArc
 50
0.9391729224174449
 51
90.49211041422417
  0
ARC
  5
D9
100
AcDbEntity
  8
USP-GEO
100
AcDbCircle
 10
15.50006792004175
 20
2.495246134603913
 30
0.0
 40
0.0859
100
AcDbArc
 50
90.49211041422417
 51
179.0861359480349
  0
LWPOLYLINE
  5
DA
100
AcDbEntity
  8
USP-GEO
100
AcDbPolyline
 90
        2
 70
   128
 43
0.0
 10
15.40867503217221
 20
2.424933822567953
 10
15.40867503217221
 20
2.496703968999857
  0
LWPOLYLINE
  5
DB
100
AcDbEntity
  8
USP-GEO
100
AcDbPolyline
 90
        2
 70
   128
 43
0.0
 10
15.58899752508237
 20
2.424933822567953
 10
15.58899752508237
 20
2.496703968999857
  0
ARC
  5
DC
100
AcDbEntity
  8
USP-GEO
100
AcDbCircle
 10
17.00006792004174
 20
2.073446134603912
 30
0.0
 40
0.0859
100
AcDbArc
 50
6.982402281891006
 51
84.88766134359774
  0
ARC
  5
DD
100
AcDbEntity
  8
USP-GEO
100
AcDbCircle
 10
17.00006792004174
 20
2.073446134603912
 30
0.0
 40
0.0859
100
AcDbArc
 50
84.88766134359774
 51
173.3717725216978
  0
LWPOLYLINE
  5
DE
100
AcDbEntity
  8
USP-GEO
100
AcDbPolyline
 90
        2
 70
   128
 43
0.0
 10
18.406872899365
 20
2.424933822567953
 10
18.406872899365
 20
2.496703968999857
  0
ARC
  5
DF
100
AcDbEntity
  8
USP-GEO
100
AcDbCircle
 10
18.50006792004175
 20
2.417046134603911
 30
0.0
 40
0.0859
100
AcDbArc
 50
268.1903767615858
 51
5.1729106211392
  0
ARC
  5
E0
100
AcDbEntity
  8
USP-GEO
100
AcDbCircle
 10
18.50006792004175
 20
2.495246134603911
 30
0.0
 40
0.0859
100
AcDbArc
 50
0.9585950595366373
 51
91.62423108467072
  0
LWPOLYLINE
  5
E1
100
AcDbEntity
  8
USP-GEO
100
AcDbPolyline
 90
        2
 70
   128
 43
0.0
 10
18.58719539227516
 20
2.424933822567953
 10
18.58719539227516
 20
2.496703968999857
  0
ARC
  5
E2
100
AcDbEntity
  8
USP-GEO
100
AcDbCircle
 10
20.00006792004174
 20
2.073446134603912
 30
0.0
 40
0.0859
100
AcDbArc
 50
5.807469253779225
 51
86.14753318474647
  0
ARC
  5
E3
100
AcDbEntity
  8
USP-GEO
100
AcDbCircle
 10
20.00006792004174
 20
2.073446134603912
 30
0.0
 40
0.0859
100
AcDbArc
 50
86.14753318474647
 51
173.5108856063374
  0
ARC
  5
E4
100
AcDbEntity
  8
USP-GEO
100
AcDbCircle
 10
21.50006792004174
 20
2.417046134603911
 30
0.0
 40
0.0859
100
AcDbArc
 50
266.9308181667944
 51
5.28155469997133
  0
ARC
  5
E5
100
AcDbEntity
  8
USP-GEO
100
AcDbCircle
 10
21.50006792004174
 20
2.417046134603911
 30
0.0
 40
0.0859
100
AcDbArc
 50
174.1552814336696
 51
266.9308181667968
  0
ARC
  5
E6
100
AcDbEntity
  8
USP-GEO
100
AcDbCircle
 10
21.50006792004174
 20
2.495246134603911
 30
0.0
 40
0.0859
100
AcDbArc
 50
0.9788373812477237
 51
92.75508471150503
  0
ARC
  5
E7
100
AcDbEntity
  8
USP-GEO
100
AcDbCircle
 10
21.50006792004174
 20
2.495246134603913
 30
0.0
 40
0.0859
100
AcDbArc
 50
92.75508471150507
 51
178.9161221291489
  0
LWPOLYLINE
  5
E8
100
AcDbEntity
  8
USP-GEO
100
AcDbPolyline
 90
        2
 70
   128
 43
0.0
 10
21.42301330316576
 20
2.424933822567953
 10
21.42301330316576
 20
2.496703968999857
  0
LWPOLYLINE
  5
E9
100
AcDbEntity
  8
USP-GEO
100
AcDbPolyline
 90
        2
 70
   128
 43
0.0
 10
21.58539325946794
 20
2.424933822567953
 10
21.58539325946794
 20
2.496703968999857
  0
ARC
  5
EA
100
AcDbEntity
  8
USP-GEO
100
AcDbCircle
 10
23.00006792004174
 20
2.073446134603912
 30
0.0
 40
0.0859
100
AcDbArc
 50
5.918740408137629
 51
87.41114655549059
  0
ARC
  5
EB
100
AcDbEntity
  8
USP-GEO
100
AcDbCircle
 10
23.00006792004174
 20
2.073446134603912
 30
0.0
 40
0.0859
100
AcDbArc
 50
87.41114655549059
 51
173.6443028077666
  0
ARC
  5
EC
100
AcDbEntity
  8
USP-GEO
100
AcDbCircle
 10
24.50006792004174
 20
2.417046134603911
 30
0.0
 40
0.0859
100
AcDbArc
 50
265.674221452438
 51
5.394846495473932
  0
ARC
  5
ED
100
AcDbEntity
  8
USP-GEO
100
AcDbCircle
 10
24.50006792004174
 20
2.417046134603911
 30
0.0
 40
0.0859
100
AcDbArc
 50
174.2879587438704
 51
265.6742214524404
  0
ARC
  5
EE
100
AcDbEntity
  8
USP-GEO
100
AcDbCircle
 10
24.50006792004174
 20
2.495246134603913
 30
0.0
 40
0.0859
100
AcDbArc
 50
93.8837945248383
 51
178.9408865501135
  0
LWPOLYLINE
  5
EF
100
AcDbEntity
  8
USP-GEO
100
AcDbPolyline
 90
        2
 70
   128
 43
0.0
 10
24.42121117035854
 20
2.424933822567953
 10
24.42121117035854
 20
2.496703968999857
  0
ARC
  5
F0
100
AcDbEntity
  8
USP-GEO
100
AcDbCircle
 10
24.50006792004174
 20
2.495246134603911
 30
0.0
 40
0.0859
100
AcDbArc
 50
0.9999529566280571
 51
93.88379452483826
  0
LWPOLYLINE
  5
F1
100
AcDbEntity
  8
USP-GEO
100
AcDbPolyline
 90
        2
 70
   128
 43
0.0
 10
24.58359112666073
 20
2.424933822567953
 10
24.58359112666073
 20
2.496703968999857
  0
ARC
  5
F2
100
AcDbEntity
  8
USP-GEO
100
AcDbCircle
 10
26.00006792004173
 20
2.073446134603912
 30
0.0
 40
0.0859
100
AcDbArc
 50
6.034342684760132
 51
88.67728464275074
  0
ARC
  5
F3
100
AcDbEntity
  8
USP-GEO
100
AcDbCircle
 10
26.00006792004173
 20
2.073446134603912
 30
0.0
 40
0.0859
100
AcDbArc
 50
88.67728464275074
 51
173.7723655666443
  0
LWPOLYLINE
  5
F4
100
AcDbEntity
  8
USP-GEO
100
AcDbPolyline
 90
        2
 70
   128
 43
0.0
 10
27.88681211618911
 20
2.999094994023185
 10
28.12006509209279
 20
2.747899481511521
  0
ARC
  5
F5
100
AcDbEntity
  8
USP-GEO
100
AcDbCircle
 10
27.50006792004174
 20
2.417046134603911
 30
0.0
 40
0.0859
100
AcDbArc
 50
276.9338236526702
 51
5.513089819676866
  0
ARC
  5
F6
100
AcDbEntity
  8
USP-GEO
100
AcDbCircle
 10
27.50006792004173
 20
2.417046134603911
 30
0.0
 40
0.0859
100
AcDbArc
 50
174.4147647799518
 51
276.9338236526726
  0
ARC
  5
F7
100
AcDbEntity
  8
USP-GEO
100
AcDbCircle
 10
27.50006792004173
 20
2.495246134603913
 30
0.0
 40
0.0859
100
AcDbArc
 50
1.021999533542783
 51
83.7710329169141
  0
ARC
  5
F8
100
AcDbEntity
  8
USP-GEO
100
AcDbCircle
 10
27.50006792004173
 20
2.495246134603911
 30
0.0
 40
0.0859
100
AcDbArc
 50
83.77103291691422
 51
178.9645447354896
  0
LWPOLYLINE
  5
F9
100
AcDbEntity
  8
USP-GEO
100
AcDbPolyline
 90
        2
 70
   128
 43
0.0
 10
27.41940903755133
 20
2.424933822567953
 10
27.41940903755133
 20
2.496703968999857
  0
LWPOLYLINE
  5
FA
100
AcDbEntity
  8
USP-GEO
100
AcDbPolyline
 90
        2
 70
   128
 43
0.0
 10
27.58178899385351
 20
2.424933822567953
 10
27.58178899385351
 20
2.496703968999857
  0
ENDBLK
  5
FD
100
AcDbEntity
  8
0
100
AcDbBlockEnd
  0
ENDSEC
  0
SECTION
  2
ENTITIES
  0
INSERT
  5
3
100
AcDbEntity
  8
USP
100
AcDbBlockReference
  2
MSTC28_F
 10
0.12604805971419
 20
2.440274192763039
 30
0.0
  0
ENDSEC
  0
SECTION
  2
OBJECTS
  0
DICTIONARY
  5
116
102
{ACAD_XDICTIONARY
360
117
102
}
100
AcDbDictionary
  3
ACAD_GROUP
350
114
  3
ACAD_MLINESTYLE
350
115
  0
DICTIONARY
  5
E
100
AcDbDictionary
280
     1
  3
ACAD_XREC_ROUNDTRIP
360
F
  0
DICTIONARY
  5
9
100
AcDbDictionary
280
     1
  3
ACAD_XREC_ROUNDTRIP
360
A
  0
DICTIONARY
  5
FE
100
AcDbDictionary
280
     1
  3
ACAD_LAYOUTSELFREF
360
FF
  0
DICTIONARY
  5
103
100
AcDbDictionary
280
     1
  3
ACAD_LAYOUTSELFREF
360
104
  0
DICTIONARY
  5
117
100
AcDbDictionary
280
     1
  3
ACAD_XREC_ROUNDTRIP
360
118
  0
DICTIONARY
  5
114
102
{ACAD_REACTORS
330
116
102
}
100
AcDbDictionary
  0
DICTIONARY
  5
115
102
{ACAD_REACTORS
330
116
102
}
100
AcDbDictionary
  3
STANDARD
350
119
  0
XRECORD
  5
F
102
{ACAD_REACTORS
330
E
102
}
100
AcDbXrecord
102
EXTNAMES
  1
USP-GEO
  2
USP-Geo
  0
XRECORD
  5
A
102
{ACAD_REACTORS
330
9
102
}
100
AcDbXrecord
102
EXTNAMES
  1
USP-TXT
  2
USP-Txt
  0
XRECORD
  5
FF
102
{ACAD_REACTORS
330
FE
102
}
100
AcDbXrecord
340
18
  0
XRECORD
  5
104
102
{ACAD_REACTORS
330
103
102
}
100
AcDbXrecord
340
15
  0
XRECORD
  5
118
102
{ACAD_REACTORS
330
117
102
}
100
AcDbXrecord
102
EXTNAMES
  1
ACDBVARIABLEDICTIONARY
  2
AcDbVariableDictionary
  0
MLINESTYLE
  5
119
102
{ACAD_REACTORS
330
115
102
}
100
AcDbMlineStyle
  2
STANDARD
 70
     0
  3

 62
     0
 51
90.0
 52
90.0
 71
     2
 49
0.5
 62
   256
  6
BYLAYER
 49
-0.5
 62
   256
  6
BYLAYER
  0
ENDSEC
  0
EOF
